  0
SECTION
  2
HEADER
  9
$ACADVER
  1
AC1009
  9
$DWGCODEPAGE
  3
dos932
  9
$INSBASE
 10
0.0
 20
0.0
 30
0.0
  9
$EXTMIN
 10
-1047.285986
 20
-783.141559
 30
0.0
  9
$EXTMAX
 10
1203.033036
 20
656.914378
 30
0.0
  9
$LIMMIN
 10
0.0
 20
0.0
  9
$LIMMAX
 10
12.0
 20
9.0
  9
$ORTHOMODE
 70
     0
  9
$REGENMODE
 70
     1
  9
$FILLMODE
 70
     1
  9
$QTEXTMODE
 70
     0
  9
$MIRRTEXT
 70
     1
  9
$DRAGMODE
 70
     2
  9
$LTSCALE
 40
1.0
  9
$OSMODE
 70
    37
  9
$ATTMODE
 70
     1
  9
$TEXTSIZE
 40
2.8
  9
$TRACEWID
 40
0.05
  9
$TEXTSTYLE
  7
STANDARD1
  9
$CLAYER
  8
0
  9
$CELTYPE
  6
CONTINUOUS
  9
$CECOLOR
 62
   256
  9
$DIMSCALE
 40
1.0
  9
$DIMASZ
 40
10.0
  9
$DIMEXO
 40
10.0
  9
$DIMDLI
 40
8.0
  9
$DIMRND
 40
0.0
  9
$DIMDLE
 40
0.0
  9
$DIMEXE
 40
12.5
  9
$DIMTP
 40
0.0
  9
$DIMTM
 40
0.0
  9
$DIMTXT
 40
30.0
  9
$DIMCEN
 40
2.5
  9
$DIMTSZ
 40
0.0
  9
$DIMTOL
 70
     0
  9
$DIMLIM
 70
     0
  9
$DIMTIH
 70
     0
  9
$DIMTOH
 70
     0
  9
$DIMSE1
 70
     0
  9
$DIMSE2
 70
     0
  9
$DIMTAD
 70
     3
  9
$DIMZIN
 70
    12
  9
$DIMBLK
  1

  9
$DIMASO
 70
     1
  9
$DIMSHO
 70
     1
  9
$DIMPOST
  1

  9
$DIMAPOST
  1

  9
$DIMALT
 70
     0
  9
$DIMALTD
 70
     4
  9
$DIMALTF
 40
25.4
  9
$DIMLFAC
 40
1.0
  9
$DIMTOFL
 70
     1
  9
$DIMTVP
 40
0.0
  9
$DIMTIX
 70
     0
  9
$DIMSOXD
 70
     0
  9
$DIMSAH
 70
     1
  9
$DIMBLK1
  1
ORIGIN
  9
$DIMBLK2
  1
ORIGIN
  9
$DIMSTYLE
  2
STANDARD
  9
$DIMCLRD
 70
     0
  9
$DIMCLRE
 70
     0
  9
$DIMCLRT
 70
     0
  9
$DIMTFAC
 40
0.714286
  9
$DIMGAP
 40
10.0
  9
$LUNITS
 70
     2
  9
$LUPREC
 70
     3
  9
$SKETCHINC
 40
0.1
  9
$FILLETRAD
 40
0.0
  9
$AUNITS
 70
     0
  9
$AUPREC
 70
     0
  9
$MENU
  1
acad
  9
$ELEVATION
 40
0.0
  9
$PELEVATION
 40
0.0
  9
$THICKNESS
 40
0.0
  9
$LIMCHECK
 70
     0
  9
$CHAMFERA
 40
0.0
  9
$CHAMFERB
 40
0.0
  9
$SKPOLY
 70
     0
  9
$TDCREATE
 40
2455267.472060174
  9
$TDUPDATE
 40
2457459.559185023
  9
$TDINDWG
 40
0.0
  9
$TDUSRTIMER
 40
0.0
  9
$USRTIMER
 70
     1
  9
$ANGBASE
 50
0.0
  9
$ANGDIR
 70
     0
  9
$PDMODE
 70
     0
  9
$PDSIZE
 40
0.0
  9
$PLINEWID
 40
0.0
  9
$COORDS
 70
     1
  9
$SPLFRAME
 70
     0
  9
$SPLINETYPE
 70
     6
  9
$SPLINESEGS
 70
     8
  9
$ATTDIA
 70
     0
  9
$ATTREQ
 70
     1
  9
$HANDLING
 70
     1
  9
$HANDSEED
  5
8C8
  9
$SURFTAB1
 70
     6
  9
$SURFTAB2
 70
     6
  9
$SURFTYPE
 70
     6
  9
$SURFU
 70
     6
  9
$SURFV
 70
     6
  9
$UCSNAME
  2

  9
$UCSORG
 10
0.0
 20
0.0
 30
0.0
  9
$UCSXDIR
 10
1.0
 20
0.0
 30
0.0
  9
$UCSYDIR
 10
0.0
 20
1.0
 30
0.0
  9
$PUCSNAME
  2

  9
$PUCSORG
 10
0.0
 20
0.0
 30
0.0
  9
$PUCSXDIR
 10
1.0
 20
0.0
 30
0.0
  9
$PUCSYDIR
 10
0.0
 20
1.0
 30
0.0
  9
$USERI1
 70
     0
  9
$USERI2
 70
     0
  9
$USERI3
 70
     0
  9
$USERI4
 70
     0
  9
$USERI5
 70
     0
  9
$USERR1
 40
0.0
  9
$USERR2
 40
0.0
  9
$USERR3
 40
0.0
  9
$USERR4
 40
0.0
  9
$USERR5
 40
0.0
  9
$WORLDVIEW
 70
     1
  9
$SHADEDGE
 70
     3
  9
$SHADEDIF
 70
    70
  9
$TILEMODE
 70
     1
  9
$MAXACTVP
 70
    48
  9
$PLIMCHECK
 70
     0
  9
$PEXTMIN
 10
1.000000000000000E+20
 20
1.000000000000000E+20
 30
1.000000000000000E+20
  9
$PEXTMAX
 10
-1.000000000000000E+20
 20
-1.000000000000000E+20
 30
-1.000000000000000E+20
  9
$PLIMMIN
 10
0.0
 20
0.0
  9
$PLIMMAX
 10
12.0
 20
9.0
  9
$UNITMODE
 70
     0
  9
$VISRETAIN
 70
     1
  9
$PLINEGEN
 70
     0
  9
$PSLTSCALE
 70
     1
  0
ENDSEC
  0
SECTION
  2
TABLES
  0
TABLE
  2
VPORT
 70
     1
  0
VPORT
  2
*ACTIVE
 70
     0
 10
0.0
 20
0.0
 11
1.0
 21
1.0
 12
97.173513
 22
-63.11359
 13
0.0
 23
0.0
 14
1.0
 24
1.0
 15
0.0
 25
0.0
 16
0.0
 26
0.0
 36
1.0
 17
0.0
 27
0.0
 37
0.0
 40
2350.923208
 41
0.951439
 42
50.0
 43
0.0
 44
0.0
 50
0.0
 51
0.0
 71
     0
 72
   100
 73
     1
 74
     1
 75
     0
 76
     0
 77
     0
 78
     0
  0
ENDTAB
  0
TABLE
  2
LTYPE
 70
     4
  0
LTYPE
  2
CONTINUOUS
 70
     0
  3
Solid line
 72
    65
 73
     0
 40
0.0
  0
LTYPE
  2
DASHED
 70
     0
  3
-- -- -- -- -- -- -- -- -- -- -- -- -- -- --
 72
    65
 73
     2
 40
0.75
 49
0.5
 49
-0.25
  0
LTYPE
  2
DASHDOT
 70
     0
  3
__ . __ . __ . __ . __ . __ . __ . __ . __ . __
 72
    65
 73
     4
 40
125.0
 49
80.0
 49
-20.0
 49
5.0
 49
-20.0
  0
LTYPE
  2
DIVIDE
 70
     0
  3
__ . . __ . . __ . . __ . . __ . . __ . . __
 72
    65
 73
     6
 40
1.25
 49
0.5
 49
-0.25
 49
0.0
 49
-0.25
 49
0.0
 49
-0.25
  0
ENDTAB
  0
TABLE
  2
LAYER
 70
    12
  0
LAYER
  2
0
 70
     0
 62
     3
  6
CONTINUOUS
  0
LAYER
  2
OUTLINE
 70
     0
 62
     3
  6
CONTINUOUS
  0
LAYER
  2
DETAIL
 70
     0
 62
     5
  6
CONTINUOUS
  0
LAYER
  2
BASIS
 70
     0
 62
     6
  6
CONTINUOUS
  0
LAYER
  2
SIZE
 70
     0
 62
    30
  6
CONTINUOUS
  0
LAYER
  2
NOTE
 70
     0
 62
     4
  6
CONTINUOUS
  0
LAYER
  2
ARRANGE
 70
     0
 62
     1
  6
CONTINUOUS
  0
LAYER
  2
FIX
 70
     0
 62
    11
  6
CONTINUOUS
  0
LAYER
  2
SERVICESPACE
 70
     0
 62
     2
  6
CONTINUOUS
  0
LAYER
  2
ETC
 70
     0
 62
    61
  6
CONTINUOUS
  0
LAYER
  2
SYMBOLLINE
 70
     0
 62
     7
  6
CONTINUOUS
  0
LAYER
  2
DEFPOINTS
 70
     0
 62
     7
  6
CONTINUOUS
  0
ENDTAB
  0
TABLE
  2
STYLE
 70
     5
  0
STYLE
  2
STANDARD
 70
     0
 40
0.0
 41
1.0
 50
0.0
 71
     0
 42
0.2
  3
txt
  4

  0
STYLE
  2
STANDARD1
 70
     0
 40
0.0
 41
1.0
 50
0.0
 71
     0
 42
2.8
  3
MONOTXT
  4
BIGFONT
  0
STYLE
  2
STANDARD2
 70
     4
 40
0.0
 41
1.0
 50
0.0
 71
     0
 42
2.8
  3
MONOTXT
  4
BIGFONT
  0
STYLE
  2
STANDARD3
 70
     0
 40
0.0
 41
1.0
 50
0.0
 71
     0
 42
2.8
  3
MONOTXT
  4

  0
STYLE
  2
STANDARD4
 70
     4
 40
0.0
 41
1.0
 50
0.0
 71
     0
 42
2.8
  3
MONOTXT
  4

  0
ENDTAB
  0
TABLE
  2
VIEW
 70
     0
  0
ENDTAB
  0
TABLE
  2
UCS
 70
     0
  0
ENDTAB
  0
TABLE
  2
APPID
 70
     1
  0
APPID
  2
ACAD
 70
     0
  0
ENDTAB
  0
TABLE
  2
DIMSTYLE
 70
     1
  0
DIMSTYLE
  2
STANDARD
 70
     0
  3

  4

  5

  6

  7

 40
1.0
 41
0.18
 42
0.0625
 43
0.38
 44
0.18
 45
0.0
 46
0.0
 47
0.0
 48
0.0
140
0.18
141
0.09
142
0.0
143
25.4
144
1.0
145
0.0
146
1.0
147
0.09
 71
     0
 72
     0
 73
     1
 74
     1
 75
     0
 76
     0
 77
     0
 78
     0
170
     0
171
     2
172
     0
173
     0
174
     0
175
     0
176
     0
177
     0
178
     0
  0
ENDTAB
  0
ENDSEC
  0
SECTION
  2
BLOCKS
  0
BLOCK
  8
0
  2
$MODEL_SPACE
 70
     0
 10
0.0
 20
0.0
 30
0.0
  3
$MODEL_SPACE
  1

  0
ENDBLK
  5
894
  8
0
  0
BLOCK
 67
     1
  8
0
  2
$PAPER_SPACE
 70
     0
 10
0.0
 20
0.0
 30
0.0
  3
$PAPER_SPACE
  1

  0
ENDBLK
  5
896
 67
     1
  8
0
  0
BLOCK
  8
SIZE
  2
*D0
 70
     1
 10
0.0
 20
0.0
 30
0.0
  3
*D0
  1

  0
TEXT
  5
3EA
  8
SIZE
  6
CONTINUOUS
 10
855.810645
 20
-22.318922
 30
0.0
 40
2.8
  1
41
 50
90.00000499999999
 41
0.7
  7
STANDARD1
  0
LINE
  5
3EB
  8
SIZE
  6
CONTINUOUS
 10
405.498322
 20
-0.008922
 30
0.0
 11
858.810669
 21
-0.008922
 31
0.0
  0
LINE
  5
3EC
  8
SIZE
  6
CONTINUOUS
 10
20.998331
 20
-40.708923
 30
0.0
 11
858.810669
 21
-40.708923
 31
0.0
  0
LINE
  5
3ED
  8
SIZE
  6
CONTINUOUS
 10
856.810669
 20
-0.008922
 30
0.0
 11
856.810669
 21
-40.708923
 31
0.0
  0
INSERT
  5
3EE
  8
SIZE
  2
DOT
 10
856.810669
 20
-0.008922
 30
0.0
 50
90.0
  0
INSERT
  5
3EF
  8
SIZE
  2
DOT
 10
856.810669
 20
-40.708923
 30
0.0
 50
270.0
  0
POINT
  5
3F0
  8
DEFPOINTS
  6
BYBLOCK
 10
19.998331
 20
-40.708923
 30
0.0
  0
POINT
  5
3F1
  8
DEFPOINTS
  6
BYBLOCK
 10
404.498322
 20
-0.008922
 30
0.0
  0
POINT
  5
3F2
  8
DEFPOINTS
  6
BYBLOCK
 10
856.810669
 20
-0.008922
 30
0.0
  0
ENDBLK
  5
3F3
  8
SIZE
  0
BLOCK
  8
SIZE
  2
DOT
 70
     0
 10
0.0
 20
0.0
 30
0.0
  3
DOT
  1

  0
POLYLINE
  5
3F6
  8
0
  6
BYBLOCK
 66
     1
 10
0.0
 20
0.0
 30
0.0
 70
     1
 40
0.5
 41
0.5
  0
VERTEX
  5
8C4
  8
0
  6
BYBLOCK
 10
-0.25
 20
0.0
 30
0.0
 42
1.0
  0
VERTEX
  5
8C5
  8
0
  6
BYBLOCK
 10
0.25
 20
0.0
 30
0.0
 42
1.0
  0
SEQEND
  5
8C7
  8
0
  6
BYBLOCK
  0
LINE
  5
3FA
  8
0
  6
BYBLOCK
 10
-0.5
 20
0.0
 30
0.0
 11
-1.0
 21
0.0
 31
0.0
  0
ENDBLK
  5
3FB
  8
SIZE
  0
BLOCK
  8
SIZE
  2
*D2
 70
     1
 10
0.0
 20
0.0
 30
0.0
  3
*D2
  1

  0
TEXT
  5
3FE
  8
SIZE
  6
CONTINUOUS
 10
248.03833
 20
-629.679846
 30
0.0
 40
2.8
  1
40
 50
0.000003
 41
0.7
  7
STANDARD1
  0
LINE
  5
3FF
  8
SIZE
  6
CONTINUOUS
 10
269.998322
 20
-323.008911
 30
0.0
 11
269.998322
 21
-632.679871
 31
0.0
  0
LINE
  5
400
  8
SIZE
  6
CONTINUOUS
 10
229.998337
 20
-323.008911
 30
0.0
 11
229.998337
 21
-632.679871
 31
0.0
  0
LINE
  5
401
  8
SIZE
  6
CONTINUOUS
 10
269.998322
 20
-630.679871
 30
0.0
 11
229.998337
 21
-630.679871
 31
0.0
  0
INSERT
  5
402
  8
SIZE
  2
DOT
 10
269.998322
 20
-630.679871
 30
0.0
  0
INSERT
  5
403
  8
SIZE
  2
DOT
 10
229.998337
 20
-630.679871
 30
0.0
 50
180.0
  0
POINT
  5
404
  8
DEFPOINTS
  6
BYBLOCK
 10
229.998337
 20
-322.008911
 30
0.0
  0
POINT
  5
405
  8
DEFPOINTS
  6
BYBLOCK
 10
269.998322
 20
-322.008911
 30
0.0
  0
POINT
  5
406
  8
DEFPOINTS
  6
BYBLOCK
 10
269.998322
 20
-630.679871
 30
0.0
  0
ENDBLK
  5
407
  8
SIZE
  0
BLOCK
  8
SIZE
  2
*D3
 70
     1
 10
0.0
 20
0.0
 30
0.0
  3
*D3
  1

  0
TEXT
  5
40A
  8
SIZE
  6
CONTINUOUS
 10
-2.941669
 20
302.65249
 30
0.0
 40
2.8
  1
500
 50
0.000003
 41
0.7
  7
STANDARD1
  0
LINE
  5
40B
  8
SIZE
  6
CONTINUOUS
 10
-250.001663
 20
30.991077
 30
0.0
 11
-250.001663
 21
303.652496
 31
0.0
  0
LINE
  5
40C
  8
SIZE
  6
CONTINUOUS
 10
249.998337
 20
30.991077
 30
0.0
 11
249.998337
 21
303.652496
 31
0.0
  0
LINE
  5
40D
  8
SIZE
  6
CONTINUOUS
 10
-250.001663
 20
301.652496
 30
0.0
 11
249.998337
 21
301.652496
 31
0.0
  0
INSERT
  5
40E
  8
SIZE
  2
DOT
 10
-250.001663
 20
301.652496
 30
0.0
 50
180.0
  0
INSERT
  5
40F
  8
SIZE
  2
DOT
 10
249.998337
 20
301.652496
 30
0.0
  0
POINT
  5
410
  8
DEFPOINTS
  6
BYBLOCK
 10
249.998337
 20
29.991077
 30
0.0
  0
POINT
  5
411
  8
DEFPOINTS
  6
BYBLOCK
 10
-250.001663
 20
29.991077
 30
0.0
  0
POINT
  5
412
  8
DEFPOINTS
  6
BYBLOCK
 10
-250.001663
 20
301.652496
 30
0.0
  0
ENDBLK
  5
413
  8
SIZE
  0
BLOCK
  8
SIZE
  2
*D4
 70
     1
 10
0.0
 20
0.0
 30
0.0
  3
*D4
  1

  0
TEXT
  5
416
  8
SIZE
  6
CONTINUOUS
 10
315.512909
 20
300.65249
 30
0.0
 40
2.8
  1
35
 50
0.000003
 41
0.7
  7
STANDARD1
  0
LINE
  5
417
  8
SIZE
  6
CONTINUOUS
 10
404.53537
 20
-34.347511
 30
0.0
 11
404.53537
 21
301.652496
 31
0.0
  0
LINE
  5
418
  8
SIZE
  6
CONTINUOUS
 10
439.53537
 20
-132.347504
 30
0.0
 11
439.53537
 21
301.652496
 31
0.0
  0
LINE
  5
419
  8
SIZE
  6
CONTINUOUS
 10
314.112915
 20
299.652496
 30
0.0
 11
444.53537
 21
299.652496
 31
0.0
  0
INSERT
  5
41A
  8
SIZE
  2
DOT
 10
404.53537
 20
299.652496
 30
0.0
 50
180.0
  0
INSERT
  5
41B
  8
SIZE
  2
DOT
 10
439.53537
 20
299.652496
 30
0.0
  0
POINT
  5
41C
  8
DEFPOINTS
  6
BYBLOCK
 10
439.53537
 20
-133.347504
 30
0.0
  0
POINT
  5
41D
  8
DEFPOINTS
  6
BYBLOCK
 10
404.53537
 20
-35.347511
 30
0.0
  0
POINT
  5
41E
  8
DEFPOINTS
  6
BYBLOCK
 10
404.53537
 20
299.652496
 30
0.0
  0
ENDBLK
  5
41F
  8
SIZE
  0
BLOCK
  8
SIZE
  2
*D5
 70
     1
 10
0.0
 20
0.0
 30
0.0
  3
*D5
  1

  0
TEXT
  5
422
  8
SIZE
  6
CONTINUOUS
 10
437.575378
 20
448.323145
 30
0.0
 40
2.8
  1
70
 50
0.000003
 41
0.7
  7
STANDARD1
  0
LINE
  5
423
  8
SIZE
  6
CONTINUOUS
 10
474.53537
 20
-95.190033
 30
0.0
 11
474.53537
 21
449.323151
 31
0.0
  0
LINE
  5
424
  8
SIZE
  6
CONTINUOUS
 10
404.53537
 20
-34.347511
 30
0.0
 11
404.53537
 21
449.323151
 31
0.0
  0
LINE
  5
425
  8
SIZE
  6
CONTINUOUS
 10
474.53537
 20
447.323151
 30
0.0
 11
404.53537
 21
447.323151
 31
0.0
  0
INSERT
  5
426
  8
SIZE
  2
DOT
 10
474.53537
 20
447.323151
 30
0.0
  0
INSERT
  5
427
  8
SIZE
  2
DOT
 10
404.53537
 20
447.323151
 30
0.0
 50
180.0
  0
POINT
  5
428
  8
DEFPOINTS
  6
BYBLOCK
 10
404.53537
 20
-35.347511
 30
0.0
  0
POINT
  5
429
  8
DEFPOINTS
  6
BYBLOCK
 10
474.53537
 20
-96.190033
 30
0.0
  0
POINT
  5
42A
  8
DEFPOINTS
  6
BYBLOCK
 10
474.53537
 20
447.323151
 30
0.0
  0
ENDBLK
  5
42B
  8
SIZE
  0
BLOCK
  8
SIZE
  2
*D6
 70
     1
 10
0.0
 20
0.0
 30
0.0
  3
*D6
  1

  0
TEXT
  5
42E
  8
SIZE
  6
CONTINUOUS
 10
-498.435791
 20
302.65249
 30
0.0
 40
2.8
  1
21
 50
0.000003
 41
0.7
  7
STANDARD1
  0
LINE
  5
42F
  8
SIZE
  6
CONTINUOUS
 10
-425.501678
 20
-120.483986
 30
0.0
 11
-425.501678
 21
303.652496
 31
0.0
  0
LINE
  5
430
  8
SIZE
  6
CONTINUOUS
 10
-404.501678
 20
0.991078
 30
0.0
 11
-404.501678
 21
303.652496
 31
0.0
  0
LINE
  5
431
  8
SIZE
  6
CONTINUOUS
 10
-499.835785
 20
301.652496
 30
0.0
 11
-399.501678
 21
301.652496
 31
0.0
  0
INSERT
  5
432
  8
SIZE
  2
DOT
 10
-425.501678
 20
301.652496
 30
0.0
 50
180.0
  0
INSERT
  5
433
  8
SIZE
  2
DOT
 10
-404.501678
 20
301.652496
 30
0.0
  0
POINT
  5
434
  8
DEFPOINTS
  6
BYBLOCK
 10
-404.501678
 20
-0.008922
 30
0.0
  0
POINT
  5
435
  8
DEFPOINTS
  6
BYBLOCK
 10
-425.501678
 20
-121.483986
 30
0.0
  0
POINT
  5
436
  8
DEFPOINTS
  6
BYBLOCK
 10
-425.501678
 20
301.652496
 30
0.0
  0
ENDBLK
  5
437
  8
SIZE
  0
BLOCK
  8
SIZE
  2
*D7
 70
     1
 10
0.0
 20
0.0
 30
0.0
  3
*D7
  1

  0
TEXT
  5
43A
  8
SIZE
  6
CONTINUOUS
 10
-2.941669
 20
449.323145
 30
0.0
 40
2.8
  1
809
 50
0.000003
 41
0.7
  7
STANDARD1
  0
LINE
  5
43B
  8
SIZE
  6
CONTINUOUS
 10
-404.501678
 20
0.991078
 30
0.0
 11
-404.501678
 21
450.323151
 31
0.0
  0
LINE
  5
43C
  8
SIZE
  6
CONTINUOUS
 10
404.498322
 20
100.991081
 30
0.0
 11
404.498322
 21
450.323151
 31
0.0
  0
LINE
  5
43D
  8
SIZE
  6
CONTINUOUS
 10
-404.501678
 20
448.323151
 30
0.0
 11
404.498322
 21
448.323151
 31
0.0
  0
INSERT
  5
43E
  8
SIZE
  2
DOT
 10
-404.501678
 20
448.323151
 30
0.0
 50
180.0
  0
INSERT
  5
43F
  8
SIZE
  2
DOT
 10
404.498322
 20
448.323151
 30
0.0
  0
POINT
  5
440
  8
DEFPOINTS
  6
BYBLOCK
 10
404.498322
 20
99.991081
 30
0.0
  0
POINT
  5
441
  8
DEFPOINTS
  6
BYBLOCK
 10
-404.501678
 20
-0.008922
 30
0.0
  0
POINT
  5
442
  8
DEFPOINTS
  6
BYBLOCK
 10
-404.501678
 20
448.323151
 30
0.0
  0
ENDBLK
  5
443
  8
SIZE
  0
BLOCK
  8
SIZE
  2
*D8
 70
     1
 10
0.0
 20
0.0
 30
0.0
  3
*D8
  1

  0
TEXT
  5
446
  8
SIZE
  6
CONTINUOUS
 10
-77.941673
 20
610.758875
 30
0.0
 40
2.8
  1
959
 50
0.000003
 41
0.7
  7
STANDARD1
  0
LINE
  5
447
  8
SIZE
  6
CONTINUOUS
 10
-554.501648
 20
100.991081
 30
0.0
 11
-554.501648
 21
611.75885
 31
0.0
  0
LINE
  5
448
  8
SIZE
  6
CONTINUOUS
 10
404.498322
 20
100.991081
 30
0.0
 11
404.498322
 21
611.75885
 31
0.0
  0
LINE
  5
449
  8
SIZE
  6
CONTINUOUS
 10
-554.501648
 20
609.75885
 30
0.0
 11
404.498322
 21
609.75885
 31
0.0
  0
INSERT
  5
44A
  8
SIZE
  2
DOT
 10
-554.501648
 20
609.75885
 30
0.0
 50
180.0
  0
INSERT
  5
44B
  8
SIZE
  2
DOT
 10
404.498322
 20
609.75885
 30
0.0
  0
POINT
  5
44C
  8
DEFPOINTS
  6
BYBLOCK
 10
404.498322
 20
99.991081
 30
0.0
  0
POINT
  5
44D
  8
DEFPOINTS
  6
BYBLOCK
 10
-554.501648
 20
99.991081
 30
0.0
  0
POINT
  5
44E
  8
DEFPOINTS
  6
BYBLOCK
 10
-554.501648
 20
609.75885
 30
0.0
  0
ENDBLK
  5
44F
  8
SIZE
  0
BLOCK
  8
SIZE
  2
*D9
 70
     1
 10
0.0
 20
0.0
 30
0.0
  3
*D9
  1

  0
TEXT
  5
452
  8
SIZE
  6
CONTINUOUS
 10
-330.191681
 20
302.65249
 30
0.0
 40
2.8
  1
155
 50
0.000003
 41
0.7
  7
STANDARD1
  0
LINE
  5
453
  8
SIZE
  6
CONTINUOUS
 10
-250.001663
 20
30.991077
 30
0.0
 11
-250.001663
 21
303.652496
 31
0.0
  0
LINE
  5
454
  8
SIZE
  6
CONTINUOUS
 10
-404.501678
 20
0.991078
 30
0.0
 11
-404.501678
 21
303.652496
 31
0.0
  0
LINE
  5
455
  8
SIZE
  6
CONTINUOUS
 10
-250.001663
 20
301.652496
 30
0.0
 11
-404.501678
 21
301.652496
 31
0.0
  0
INSERT
  5
456
  8
SIZE
  2
DOT
 10
-250.001663
 20
301.652496
 30
0.0
  0
INSERT
  5
457
  8
SIZE
  2
DOT
 10
-404.501678
 20
301.652496
 30
0.0
 50
180.0
  0
POINT
  5
458
  8
DEFPOINTS
  6
BYBLOCK
 10
-404.501678
 20
-0.008922
 30
0.0
  0
POINT
  5
459
  8
DEFPOINTS
  6
BYBLOCK
 10
-250.001663
 20
29.991077
 30
0.0
  0
POINT
  5
45A
  8
DEFPOINTS
  6
BYBLOCK
 10
-250.001663
 20
301.652496
 30
0.0
  0
ENDBLK
  5
45B
  8
SIZE
  0
BLOCK
  8
SIZE
  2
*D10
 70
     1
 10
0.0
 20
0.0
 30
0.0
  3
*D10
  1

  0
TEXT
  5
45E
  8
SIZE
  6
CONTINUOUS
 10
-482.441681
 20
449.323145
 30
0.0
 40
2.8
  1
150
 50
0.000003
 41
0.7
  7
STANDARD1
  0
LINE
  5
45F
  8
SIZE
  6
CONTINUOUS
 10
-404.501678
 20
0.991078
 30
0.0
 11
-404.501678
 21
450.323151
 31
0.0
  0
LINE
  5
460
  8
SIZE
  6
CONTINUOUS
 10
-554.501648
 20
100.991081
 30
0.0
 11
-554.501648
 21
450.323151
 31
0.0
  0
LINE
  5
461
  8
SIZE
  6
CONTINUOUS
 10
-404.501678
 20
448.323151
 30
0.0
 11
-554.501648
 21
448.323151
 31
0.0
  0
INSERT
  5
462
  8
SIZE
  2
DOT
 10
-404.501678
 20
448.323151
 30
0.0
  0
INSERT
  5
463
  8
SIZE
  2
DOT
 10
-554.501648
 20
448.323151
 30
0.0
 50
180.0
  0
POINT
  5
464
  8
DEFPOINTS
  6
BYBLOCK
 10
-554.501648
 20
99.991081
 30
0.0
  0
POINT
  5
465
  8
DEFPOINTS
  6
BYBLOCK
 10
-404.501678
 20
-0.008922
 30
0.0
  0
POINT
  5
466
  8
DEFPOINTS
  6
BYBLOCK
 10
-404.501678
 20
448.323151
 30
0.0
  0
ENDBLK
  5
467
  8
SIZE
  0
BLOCK
  8
SIZE
  2
*D11
 70
     1
 10
0.0
 20
0.0
 30
0.0
  3
*D11
  1

  0
TEXT
  5
46A
  8
SIZE
  6
CONTINUOUS
 10
-805.886011
 20
47.051079
 30
0.0
 40
2.8
  1
100
 50
90.00000499999999
 41
0.7
  7
STANDARD1
  0
LINE
  5
46B
  8
SIZE
  6
CONTINUOUS
 10
-551.001648
 20
99.991081
 30
0.0
 11
-806.885986
 21
99.991081
 31
0.0
  0
LINE
  5
46C
  8
SIZE
  6
CONTINUOUS
 10
-555.501648
 20
-0.008922
 30
0.0
 11
-806.885986
 21
-0.008922
 31
0.0
  0
LINE
  5
46D
  8
SIZE
  6
CONTINUOUS
 10
-804.885986
 20
99.991081
 30
0.0
 11
-804.885986
 21
-0.008922
 31
0.0
  0
INSERT
  5
46E
  8
SIZE
  2
DOT
 10
-804.885986
 20
99.991081
 30
0.0
 50
90.0
  0
INSERT
  5
46F
  8
SIZE
  2
DOT
 10
-804.885986
 20
-0.008922
 30
0.0
 50
270.0
  0
POINT
  5
470
  8
DEFPOINTS
  6
BYBLOCK
 10
-554.501648
 20
-0.008922
 30
0.0
  0
POINT
  5
471
  8
DEFPOINTS
  6
BYBLOCK
 10
-550.001648
 20
99.991081
 30
0.0
  0
POINT
  5
472
  8
DEFPOINTS
  6
BYBLOCK
 10
-804.885986
 20
99.991081
 30
0.0
  0
ENDBLK
  5
473
  8
SIZE
  0
BLOCK
  8
SIZE
  2
*D12
 70
     1
 10
0.0
 20
0.0
 30
0.0
  3
*D12
  1

  0
TEXT
  5
476
  8
SIZE
  6
CONTINUOUS
 10
-805.886011
 20
-152.948929
 30
0.0
 40
2.8
  1
300
 50
90.00000499999999
 41
0.7
  7
STANDARD1
  0
LINE
  5
477
  8
SIZE
  6
CONTINUOUS
 10
-555.501648
 20
-0.008922
 30
0.0
 11
-806.885986
 21
-0.008922
 31
0.0
  0
LINE
  5
478
  8
SIZE
  6
CONTINUOUS
 10
-555.501648
 20
-300.008911
 30
0.0
 11
-806.885986
 21
-300.008911
 31
0.0
  0
LINE
  5
479
  8
SIZE
  6
CONTINUOUS
 10
-804.885986
 20
-0.008922
 30
0.0
 11
-804.885986
 21
-300.008911
 31
0.0
  0
INSERT
  5
47A
  8
SIZE
  2
DOT
 10
-804.885986
 20
-0.008922
 30
0.0
 50
90.0
  0
INSERT
  5
47B
  8
SIZE
  2
DOT
 10
-804.885986
 20
-300.008911
 30
0.0
 50
270.0
  0
POINT
  5
47C
  8
DEFPOINTS
  6
BYBLOCK
 10
-554.501648
 20
-300.008911
 30
0.0
  0
POINT
  5
47D
  8
DEFPOINTS
  6
BYBLOCK
 10
-554.501648
 20
-0.008922
 30
0.0
  0
POINT
  5
47E
  8
DEFPOINTS
  6
BYBLOCK
 10
-804.885986
 20
-0.008922
 30
0.0
  0
ENDBLK
  5
47F
  8
SIZE
  0
BLOCK
  8
SIZE
  2
*D13
 70
     1
 10
0.0
 20
0.0
 30
0.0
  3
*D13
  1

  0
TEXT
  5
482
  8
SIZE
  6
CONTINUOUS
 10
-805.886011
 20
-402.948913
 30
0.0
 40
2.8
  1
200
 50
90.00000499999999
 41
0.7
  7
STANDARD1
  0
LINE
  5
483
  8
SIZE
  6
CONTINUOUS
 10
-555.501648
 20
-300.008911
 30
0.0
 11
-806.885986
 21
-300.008911
 31
0.0
  0
LINE
  5
484
  8
SIZE
  6
CONTINUOUS
 10
-551.001648
 20
-500.008911
 30
0.0
 11
-806.885986
 21
-500.008911
 31
0.0
  0
LINE
  5
485
  8
SIZE
  6
CONTINUOUS
 10
-804.885986
 20
-300.008911
 30
0.0
 11
-804.885986
 21
-500.008911
 31
0.0
  0
INSERT
  5
486
  8
SIZE
  2
DOT
 10
-804.885986
 20
-300.008911
 30
0.0
 50
90.0
  0
INSERT
  5
487
  8
SIZE
  2
DOT
 10
-804.885986
 20
-500.008911
 30
0.0
 50
270.0
  0
POINT
  5
488
  8
DEFPOINTS
  6
BYBLOCK
 10
-550.001648
 20
-500.008911
 30
0.0
  0
POINT
  5
489
  8
DEFPOINTS
  6
BYBLOCK
 10
-554.501648
 20
-300.008911
 30
0.0
  0
POINT
  5
48A
  8
DEFPOINTS
  6
BYBLOCK
 10
-804.885986
 20
-300.008911
 30
0.0
  0
ENDBLK
  5
48B
  8
SIZE
  0
BLOCK
  8
SIZE
  2
*D14
 70
     1
 10
0.0
 20
0.0
 30
0.0
  3
*D14
  1

  0
TEXT
  5
48E
  8
SIZE
  6
CONTINUOUS
 10
-905.886011
 20
-157.948929
 30
0.0
 40
2.8
  1
330
 50
90.00000499999999
 41
0.7
  7
STANDARD1
  0
LINE
  5
48F
  8
SIZE
  6
CONTINUOUS
 10
-271.001678
 20
9.991078
 30
0.0
 11
-906.885986
 21
9.991078
 31
0.0
  0
LINE
  5
490
  8
SIZE
  6
CONTINUOUS
 10
-271.001678
 20
-320.008911
 30
0.0
 11
-906.885986
 21
-320.008911
 31
0.0
  0
LINE
  5
491
  8
SIZE
  6
CONTINUOUS
 10
-904.885986
 20
9.991078
 30
0.0
 11
-904.885986
 21
-320.008911
 31
0.0
  0
INSERT
  5
492
  8
SIZE
  2
DOT
 10
-904.885986
 20
9.991078
 30
0.0
 50
90.0
  0
INSERT
  5
493
  8
SIZE
  2
DOT
 10
-904.885986
 20
-320.008911
 30
0.0
 50
270.0
  0
POINT
  5
494
  8
DEFPOINTS
  6
BYBLOCK
 10
-270.001678
 20
-320.008911
 30
0.0
  0
POINT
  5
495
  8
DEFPOINTS
  6
BYBLOCK
 10
-270.001678
 20
9.991078
 30
0.0
  0
POINT
  5
496
  8
DEFPOINTS
  6
BYBLOCK
 10
-904.885986
 20
9.991078
 30
0.0
  0
ENDBLK
  5
497
  8
SIZE
  0
BLOCK
  8
SIZE
  2
*D15
 70
     1
 10
0.0
 20
0.0
 30
0.0
  3
*D15
  1

  0
TEXT
  5
49A
  8
SIZE
  6
CONTINUOUS
 10
-1005.886011
 20
-154.948929
 30
0.0
 40
2.8
  1
360
 50
90.00000499999999
 41
0.7
  7
STANDARD1
  0
LINE
  5
49B
  8
SIZE
  6
CONTINUOUS
 10
-263.501678
 20
27.991077
 30
0.0
 11
-1006.885986
 21
27.991077
 31
0.0
  0
LINE
  5
49C
  8
SIZE
  6
CONTINUOUS
 10
-261.001678
 20
-332.008911
 30
0.0
 11
-1006.885986
 21
-332.008911
 31
0.0
  0
LINE
  5
49D
  8
SIZE
  6
CONTINUOUS
 10
-1004.885986
 20
27.991077
 30
0.0
 11
-1004.885986
 21
-332.008911
 31
0.0
  0
INSERT
  5
49E
  8
SIZE
  2
DOT
 10
-1004.885986
 20
27.991077
 30
0.0
 50
90.0
  0
INSERT
  5
49F
  8
SIZE
  2
DOT
 10
-1004.885986
 20
-332.008911
 30
0.0
 50
270.0
  0
POINT
  5
4A0
  8
DEFPOINTS
  6
BYBLOCK
 10
-260.001678
 20
-332.008911
 30
0.0
  0
POINT
  5
4A1
  8
DEFPOINTS
  6
BYBLOCK
 10
-262.501678
 20
27.991077
 30
0.0
  0
POINT
  5
4A2
  8
DEFPOINTS
  6
BYBLOCK
 10
-1004.885986
 20
27.991077
 30
0.0
  0
ENDBLK
  5
4A3
  8
SIZE
  0
BLOCK
  8
SIZE
  2
*D16
 70
     1
 10
0.0
 20
0.0
 30
0.0
  3
*D16
  1

  0
TEXT
  5
4A6
  8
SIZE
  6
CONTINUOUS
 10
-256.19165
 20
-629.679846
 30
0.0
 40
2.8
  1
303
 50
0.000003
 41
0.7
  7
STANDARD1
  0
LINE
  5
4A7
  8
SIZE
  6
CONTINUOUS
 10
-102.001671
 20
-359.008911
 30
0.0
 11
-102.001671
 21
-632.679871
 31
0.0
  0
LINE
  5
4A8
  8
SIZE
  6
CONTINUOUS
 10
-404.501678
 20
-295.008911
 30
0.0
 11
-404.501678
 21
-632.679871
 31
0.0
  0
LINE
  5
4A9
  8
SIZE
  6
CONTINUOUS
 10
-102.001671
 20
-630.679871
 30
0.0
 11
-404.501678
 21
-630.679871
 31
0.0
  0
INSERT
  5
4AA
  8
SIZE
  2
DOT
 10
-102.001671
 20
-630.679871
 30
0.0
  0
INSERT
  5
4AB
  8
SIZE
  2
DOT
 10
-404.501678
 20
-630.679871
 30
0.0
 50
180.0
  0
POINT
  5
4AC
  8
DEFPOINTS
  6
BYBLOCK
 10
-404.501678
 20
-294.008911
 30
0.0
  0
POINT
  5
4AD
  8
DEFPOINTS
  6
BYBLOCK
 10
-102.001671
 20
-358.008911
 30
0.0
  0
POINT
  5
4AE
  8
DEFPOINTS
  6
BYBLOCK
 10
-102.001671
 20
-630.679871
 30
0.0
  0
ENDBLK
  5
4AF
  8
SIZE
  0
BLOCK
  8
SIZE
  2
*D17
 70
     1
 10
0.0
 20
0.0
 30
0.0
  3
*D17
  1

  0
TEXT
  5
4B2
  8
SIZE
  6
CONTINUOUS
 10
-77.941673
 20
-729.679846
 30
0.0
 40
2.8
  1
959
 50
0.000003
 41
0.7
  7
STANDARD1
  0
LINE
  5
4B3
  8
SIZE
  6
CONTINUOUS
 10
-554.501648
 20
98.991081
 30
0.0
 11
-554.501648
 21
-732.679871
 31
0.0
  0
LINE
  5
4B4
  8
SIZE
  6
CONTINUOUS
 10
404.498322
 20
-501.008911
 30
0.0
 11
404.498322
 21
-732.679871
 31
0.0
  0
LINE
  5
4B5
  8
SIZE
  6
CONTINUOUS
 10
-554.501648
 20
-730.679871
 30
0.0
 11
404.498322
 21
-730.679871
 31
0.0
  0
INSERT
  5
4B6
  8
SIZE
  2
DOT
 10
-554.501648
 20
-730.679871
 30
0.0
 50
180.0
  0
INSERT
  5
4B7
  8
SIZE
  2
DOT
 10
404.498322
 20
-730.679871
 30
0.0
  0
POINT
  5
4B8
  8
DEFPOINTS
  6
BYBLOCK
 10
404.498322
 20
-500.008911
 30
0.0
  0
POINT
  5
4B9
  8
DEFPOINTS
  6
BYBLOCK
 10
-554.501648
 20
99.991081
 30
0.0
  0
POINT
  5
4BA
  8
DEFPOINTS
  6
BYBLOCK
 10
-554.501648
 20
-730.679871
 30
0.0
  0
ENDBLK
  5
4BB
  8
SIZE
  0
BLOCK
  8
SIZE
  2
*D18
 70
     1
 10
0.0
 20
0.0
 30
0.0
  3
*D18
  1

  0
TEXT
  5
4BE
  8
SIZE
  6
CONTINUOUS
 10
551.55835
 20
-729.679846
 30
0.0
 40
2.8
  1
300
 50
0.000003
 41
0.7
  7
STANDARD1
  0
LINE
  5
4BF
  8
SIZE
  6
CONTINUOUS
 10
404.498322
 20
-501.008911
 30
0.0
 11
404.498322
 21
-732.679871
 31
0.0
  0
LINE
  5
4C0
  8
SIZE
  6
CONTINUOUS
 10
704.498352
 20
-501.008911
 30
0.0
 11
704.498352
 21
-732.679871
 31
0.0
  0
LINE
  5
4C1
  8
SIZE
  6
CONTINUOUS
 10
404.498322
 20
-730.679871
 30
0.0
 11
704.498352
 21
-730.679871
 31
0.0
  0
INSERT
  5
4C2
  8
SIZE
  2
DOT
 10
404.498322
 20
-730.679871
 30
0.0
 50
180.0
  0
INSERT
  5
4C3
  8
SIZE
  2
DOT
 10
704.498352
 20
-730.679871
 30
0.0
  0
POINT
  5
4C4
  8
DEFPOINTS
  6
BYBLOCK
 10
704.498352
 20
-500.008911
 30
0.0
  0
POINT
  5
4C5
  8
DEFPOINTS
  6
BYBLOCK
 10
404.498322
 20
-500.008911
 30
0.0
  0
POINT
  5
4C6
  8
DEFPOINTS
  6
BYBLOCK
 10
404.498322
 20
-730.679871
 30
0.0
  0
ENDBLK
  5
4C7
  8
SIZE
  0
BLOCK
  8
SIZE
  2
*D19
 70
     1
 10
0.0
 20
0.0
 30
0.0
  3
*D19
  1

  0
TEXT
  5
4CA
  8
SIZE
  6
CONTINUOUS
 10
855.810645
 20
-253.618225
 30
0.0
 40
2.8
  1
163
 50
90.00000499999999
 41
0.7
  7
STANDARD1
  0
LINE
  5
4CB
  8
SIZE
  6
CONTINUOUS
 10
260.998322
 20
-332.008911
 30
0.0
 11
858.810669
 21
-332.008911
 31
0.0
  0
LINE
  5
4CC
  8
SIZE
  6
CONTINUOUS
 10
460.53537
 20
-169.347519
 30
0.0
 11
858.810669
 21
-169.347519
 31
0.0
  0
LINE
  5
4CD
  8
SIZE
  6
CONTINUOUS
 10
856.810669
 20
-332.008911
 30
0.0
 11
856.810669
 21
-169.347519
 31
0.0
  0
INSERT
  5
4CE
  8
SIZE
  2
DOT
 10
856.810669
 20
-332.008911
 30
0.0
 50
270.0
  0
INSERT
  5
4CF
  8
SIZE
  2
DOT
 10
856.810669
 20
-169.347519
 30
0.0
 50
90.0
  0
POINT
  5
4D0
  8
DEFPOINTS
  6
BYBLOCK
 10
459.53537
 20
-169.347519
 30
0.0
  0
POINT
  5
4D1
  8
DEFPOINTS
  6
BYBLOCK
 10
259.998322
 20
-332.008911
 30
0.0
  0
POINT
  5
4D2
  8
DEFPOINTS
  6
BYBLOCK
 10
856.810669
 20
-332.008911
 30
0.0
  0
ENDBLK
  5
4D3
  8
SIZE
  0
BLOCK
  8
SIZE
  2
*D20
 70
     1
 10
0.0
 20
0.0
 30
0.0
  3
*D20
  1

  0
TEXT
  5
4D6
  8
SIZE
  6
CONTINUOUS
 10
955.810645
 20
-246.118225
 30
0.0
 40
2.8
  1
178
 50
90.00000499999999
 41
0.7
  7
STANDARD1
  0
LINE
  5
4D7
  8
SIZE
  6
CONTINUOUS
 10
260.998322
 20
-332.008911
 30
0.0
 11
958.810669
 21
-332.008911
 31
0.0
  0
LINE
  5
4D8
  8
SIZE
  6
CONTINUOUS
 10
460.53537
 20
-154.347519
 30
0.0
 11
958.810669
 21
-154.347519
 31
0.0
  0
LINE
  5
4D9
  8
SIZE
  6
CONTINUOUS
 10
956.810669
 20
-332.008911
 30
0.0
 11
956.810669
 21
-154.347519
 31
0.0
  0
INSERT
  5
4DA
  8
SIZE
  2
DOT
 10
956.810669
 20
-332.008911
 30
0.0
 50
270.0
  0
INSERT
  5
4DB
  8
SIZE
  2
DOT
 10
956.810669
 20
-154.347519
 30
0.0
 50
90.0
  0
POINT
  5
4DC
  8
DEFPOINTS
  6
BYBLOCK
 10
459.53537
 20
-154.347519
 30
0.0
  0
POINT
  5
4DD
  8
DEFPOINTS
  6
BYBLOCK
 10
259.998322
 20
-332.008911
 30
0.0
  0
POINT
  5
4DE
  8
DEFPOINTS
  6
BYBLOCK
 10
956.810669
 20
-332.008911
 30
0.0
  0
ENDBLK
  5
4DF
  8
SIZE
  0
BLOCK
  8
SIZE
  2
*D21
 70
     1
 10
0.0
 20
0.0
 30
0.0
  3
*D21
  1

  0
TEXT
  5
4E2
  8
SIZE
  6
CONTINUOUS
 10
1055.810645
 20
66.491074
 30
0.0
 40
2.8
  1
16
 50
90.00000499999999
 41
0.7
  7
STANDARD1
  0
LINE
  5
4E3
  8
SIZE
  6
CONTINUOUS
 10
310.998322
 20
15.991078
 30
0.0
 11
1058.810669
 21
15.991078
 31
0.0
  0
LINE
  5
4E4
  8
SIZE
  6
CONTINUOUS
 10
405.498322
 20
-0.008922
 30
0.0
 11
1058.810669
 21
-0.008922
 31
0.0
  0
LINE
  5
4E5
  8
SIZE
  6
CONTINUOUS
 10
1056.810669
 20
71.811073
 30
0.0
 11
1056.810669
 21
-5.008922
 31
0.0
  0
INSERT
  5
4E6
  8
SIZE
  2
DOT
 10
1056.810669
 20
15.991078
 30
0.0
 50
90.0
  0
INSERT
  5
4E7
  8
SIZE
  2
DOT
 10
1056.810669
 20
-0.008922
 30
0.0
 50
270.0
  0
POINT
  5
4E8
  8
DEFPOINTS
  6
BYBLOCK
 10
404.498322
 20
-0.008922
 30
0.0
  0
POINT
  5
4E9
  8
DEFPOINTS
  6
BYBLOCK
 10
309.998322
 20
15.991078
 30
0.0
  0
POINT
  5
4EA
  8
DEFPOINTS
  6
BYBLOCK
 10
1056.810669
 20
15.991078
 30
0.0
  0
ENDBLK
  5
4EB
  8
SIZE
  0
BLOCK
  8
SIZE
  2
*D22
 70
     1
 10
0.0
 20
0.0
 30
0.0
  3
*D22
  1

  0
TEXT
  5
4EE
  8
SIZE
  6
CONTINUOUS
 10
1055.810645
 20
-152.948929
 30
0.0
 40
2.8
  1
300
 50
90.00000499999999
 41
0.7
  7
STANDARD1
  0
LINE
  5
4EF
  8
SIZE
  6
CONTINUOUS
 10
400.998322
 20
-300.008911
 30
0.0
 11
1058.810669
 21
-300.008911
 31
0.0
  0
LINE
  5
4F0
  8
SIZE
  6
CONTINUOUS
 10
405.498322
 20
-0.008922
 30
0.0
 11
1058.810669
 21
-0.008922
 31
0.0
  0
LINE
  5
4F1
  8
SIZE
  6
CONTINUOUS
 10
1056.810669
 20
-300.008911
 30
0.0
 11
1056.810669
 21
-0.008922
 31
0.0
  0
INSERT
  5
4F2
  8
SIZE
  2
DOT
 10
1056.810669
 20
-300.008911
 30
0.0
 50
270.0
  0
INSERT
  5
4F3
  8
SIZE
  2
DOT
 10
1056.810669
 20
-0.008922
 30
0.0
 50
90.0
  0
POINT
  5
4F4
  8
DEFPOINTS
  6
BYBLOCK
 10
404.498322
 20
-0.008922
 30
0.0
  0
POINT
  5
4F5
  8
DEFPOINTS
  6
BYBLOCK
 10
399.998322
 20
-300.008911
 30
0.0
  0
POINT
  5
4F6
  8
DEFPOINTS
  6
BYBLOCK
 10
1056.810669
 20
-300.008911
 30
0.0
  0
ENDBLK
  5
4F7
  8
SIZE
  0
BLOCK
  8
SIZE
  2
*D23
 70
     1
 10
0.0
 20
0.0
 30
0.0
  3
*D23
  1

  0
TEXT
  5
4FA
  8
SIZE
  6
CONTINUOUS
 10
1155.810645
 20
-202.948929
 30
0.0
 40
2.8
  1
600
 50
90.00000499999999
 41
0.7
  7
STANDARD1
  0
LINE
  5
4FB
  8
SIZE
  6
CONTINUOUS
 10
700.998352
 20
99.991081
 30
0.0
 11
1158.810669
 21
99.991081
 31
0.0
  0
LINE
  5
4FC
  8
SIZE
  6
CONTINUOUS
 10
700.998352
 20
-500.008911
 30
0.0
 11
1158.810669
 21
-500.008911
 31
0.0
  0
LINE
  5
4FD
  8
SIZE
  6
CONTINUOUS
 10
1156.810669
 20
99.991081
 30
0.0
 11
1156.810669
 21
-500.008911
 31
0.0
  0
INSERT
  5
4FE
  8
SIZE
  2
DOT
 10
1156.810669
 20
99.991081
 30
0.0
 50
90.0
  0
INSERT
  5
4FF
  8
SIZE
  2
DOT
 10
1156.810669
 20
-500.008911
 30
0.0
 50
270.0
  0
POINT
  5
500
  8
DEFPOINTS
  6
BYBLOCK
 10
699.998352
 20
-500.008911
 30
0.0
  0
POINT
  5
501
  8
DEFPOINTS
  6
BYBLOCK
 10
699.998352
 20
99.991081
 30
0.0
  0
POINT
  5
502
  8
DEFPOINTS
  6
BYBLOCK
 10
1156.810669
 20
99.991081
 30
0.0
  0
ENDBLK
  5
503
  8
SIZE
  0
BLOCK
  8
SIZE
  2
*D24
 70
     1
 10
0.0
 20
0.0
 30
0.0
  3
*D24
  1

  0
TEXT
  5
506
  8
SIZE
  6
CONTINUOUS
 10
166.362082
 20
-566.234131
 30
0.0
 40
2.8
  1
20
 50
90.00000499999999
 41
0.7
  7
STANDARD1
  0
LINE
  5
507
  8
SIZE
  6
CONTINUOUS
 10
398.998322
 20
-300.008911
 30
0.0
 11
165.362076
 21
-300.008911
 31
0.0
  0
LINE
  5
508
  8
SIZE
  6
CONTINUOUS
 10
-101.001671
 20
-320.008911
 30
0.0
 11
169.362076
 21
-320.008911
 31
0.0
  0
LINE
  5
509
  8
SIZE
  6
CONTINUOUS
 10
167.362076
 20
-295.008911
 30
0.0
 11
167.362076
 21
-567.634094
 31
0.0
  0
INSERT
  5
50A
  8
SIZE
  2
DOT
 10
167.362076
 20
-300.008911
 30
0.0
 50
90.0
  0
INSERT
  5
50B
  8
SIZE
  2
DOT
 10
167.362076
 20
-320.008911
 30
0.0
 50
270.0
  0
POINT
  5
50C
  8
DEFPOINTS
  6
BYBLOCK
 10
-102.001671
 20
-320.008911
 30
0.0
  0
POINT
  5
50D
  8
DEFPOINTS
  6
BYBLOCK
 10
399.998322
 20
-300.008911
 30
0.0
  0
POINT
  5
50E
  8
DEFPOINTS
  6
BYBLOCK
 10
167.362076
 20
-300.008911
 30
0.0
  0
ENDBLK
  5
50F
  8
SIZE
  0
BLOCK
  8
SIZE
  2
*D25
 70
     1
 10
0.0
 20
0.0
 30
0.0
  3
*D25
  1

  0
TEXT
  5
512
  8
SIZE
  6
CONTINUOUS
 10
-705.886011
 20
77.499809
 30
0.0
 40
2.8
  1
28
 50
90.00000499999999
 41
0.7
  7
STANDARD1
  0
LINE
  5
513
  8
SIZE
  6
CONTINUOUS
 10
-263.501678
 20
27.991077
 30
0.0
 11
-706.885986
 21
27.991077
 31
0.0
  0
LINE
  5
514
  8
SIZE
  6
CONTINUOUS
 10
-271.001678
 20
-0.008922
 30
0.0
 11
-706.885986
 21
-0.008922
 31
0.0
  0
LINE
  5
515
  8
SIZE
  6
CONTINUOUS
 10
-704.885986
 20
82.819809
 30
0.0
 11
-704.885986
 21
-5.008922
 31
0.0
  0
INSERT
  5
516
  8
SIZE
  2
DOT
 10
-704.885986
 20
27.991077
 30
0.0
 50
90.0
  0
INSERT
  5
517
  8
SIZE
  2
DOT
 10
-704.885986
 20
-0.008922
 30
0.0
 50
270.0
  0
POINT
  5
518
  8
DEFPOINTS
  6
BYBLOCK
 10
-270.001678
 20
-0.008922
 30
0.0
  0
POINT
  5
519
  8
DEFPOINTS
  6
BYBLOCK
 10
-262.501678
 20
27.991077
 30
0.0
  0
POINT
  5
51A
  8
DEFPOINTS
  6
BYBLOCK
 10
-704.885986
 20
27.991077
 30
0.0
  0
ENDBLK
  5
51B
  8
SIZE
  0
BLOCK
  8
SIZE
  2
*D26
 70
     1
 10
0.0
 20
0.0
 30
0.0
  3
*D26
  1

  0
TEXT
  5
51E
  8
SIZE
  6
CONTINUOUS
 10
955.810645
 20
60.79961
 30
0.0
 40
2.8
  1
10
 50
90.00000499999999
 41
0.7
  7
STANDARD1
  0
LINE
  5
51F
  8
SIZE
  6
CONTINUOUS
 10
270.998322
 20
9.991078
 30
0.0
 11
958.810669
 21
9.991078
 31
0.0
  0
LINE
  5
520
  8
SIZE
  6
CONTINUOUS
 10
270.998322
 20
-0.008922
 30
0.0
 11
958.810669
 21
-0.008922
 31
0.0
  0
LINE
  5
521
  8
SIZE
  6
CONTINUOUS
 10
956.810669
 20
66.119606
 30
0.0
 11
956.810669
 21
-5.008922
 31
0.0
  0
INSERT
  5
522
  8
SIZE
  2
DOT
 10
956.810669
 20
9.991078
 30
0.0
 50
90.0
  0
INSERT
  5
523
  8
SIZE
  2
DOT
 10
956.810669
 20
-0.008922
 30
0.0
 50
270.0
  0
POINT
  5
524
  8
DEFPOINTS
  6
BYBLOCK
 10
269.998322
 20
-0.008922
 30
0.0
  0
POINT
  5
525
  8
DEFPOINTS
  6
BYBLOCK
 10
269.998322
 20
9.991078
 30
0.0
  0
POINT
  5
526
  8
DEFPOINTS
  6
BYBLOCK
 10
956.810669
 20
9.991078
 30
0.0
  0
ENDBLK
  5
527
  8
SIZE
  0
BLOCK
  8
0
  2
_ORIGIN
 70
     0
 10
0.0
 20
0.0
 30
0.0
  3
_ORIGIN
  1

  0
CIRCLE
  5
52A
  8
0
  6
BYBLOCK
 62
     0
 10
0.0
 20
0.0
 30
0.0
 40
0.5
  0
LINE
  5
52B
  8
0
  6
BYBLOCK
 62
     0
 10
0.0
 20
0.0
 30
0.0
 11
-1.0
 21
0.0
 31
0.0
  0
ENDBLK
  5
52C
  8
0
  0
BLOCK
  8
0
  2
*D28
 70
     1
 10
0.0
 20
0.0
 30
0.0
  3
*D28
  1

  0
LINE
  5
52F
  8
0
  6
BYBLOCK
 62
     0
 10
279.998322
 20
-0.008922
 30
0.0
 11
966.910669
 21
-0.008922
 31
0.0
  0
LINE
  5
530
  8
0
  6
BYBLOCK
 62
     0
 10
279.998322
 20
9.991078
 30
0.0
 11
966.910669
 21
9.991078
 31
0.0
  0
LINE
  5
531
  8
0
  6
BYBLOCK
 62
     0
 10
954.410669
 20
-10.008922
 30
0.0
 11
954.410669
 21
-20.008922
 31
0.0
  0
LINE
  5
532
  8
0
  6
BYBLOCK
 62
     0
 10
954.410669
 20
19.991078
 30
0.0
 11
954.410669
 21
90.259609
 31
0.0
  0
LINE
  5
533
  8
0
  6
BYBLOCK
 62
     0
 10
954.410669
 20
-0.008922
 30
0.0
 11
954.410669
 21
9.991078
 31
0.0
  0
INSERT
  5
534
  8
0
  6
BYBLOCK
 62
     0
  2
_ORIGIN
 10
954.410669
 20
-0.008922
 30
0.0
 41
10.0
 42
10.0
 43
10.0
 50
90.0
  0
INSERT
  5
535
  8
0
  6
BYBLOCK
 62
     0
  2
_ORIGIN
 10
954.410669
 20
9.991078
 30
0.0
 41
10.0
 42
10.0
 43
10.0
 50
270.0
  0
TEXT
  5
536
  8
0
  6
BYBLOCK
 62
     0
 10
944.410669
 20
40.559609
 30
0.0
 40
30.0
  1
10
 50
90.0
 72
     1
 11
944.410669
 21
62.759609
 31
0.0
  0
POINT
  5
537
  8
DEFPOINTS
  6
BYBLOCK
 62
     0
 10
269.998322
 20
-0.008922
 30
0.0
  0
POINT
  5
538
  8
DEFPOINTS
  6
BYBLOCK
 62
     0
 10
269.998322
 20
9.991078
 30
0.0
  0
POINT
  5
539
  8
DEFPOINTS
  6
BYBLOCK
 62
     0
 10
954.410669
 20
9.991078
 30
0.0
  0
ENDBLK
  5
53A
  8
0
  0
BLOCK
  8
0
  2
*D29
 70
     1
 10
0.0
 20
0.0
 30
0.0
  3
*D29
  1

  0
LINE
  5
53D
  8
0
  6
BYBLOCK
 62
     0
 10
-280.001678
 20
-0.008922
 30
0.0
 11
-719.785986
 21
-0.008922
 31
0.0
  0
LINE
  5
53E
  8
0
  6
BYBLOCK
 62
     0
 10
-272.501678
 20
27.991077
 30
0.0
 11
-719.785986
 21
27.991077
 31
0.0
  0
LINE
  5
53F
  8
0
  6
BYBLOCK
 62
     0
 10
-707.285986
 20
-10.008922
 30
0.0
 11
-707.285986
 21
-20.008922
 31
0.0
  0
LINE
  5
540
  8
0
  6
BYBLOCK
 62
     0
 10
-707.285986
 20
37.991077
 30
0.0
 11
-707.285986
 21
117.991077
 31
0.0
  0
LINE
  5
541
  8
0
  6
BYBLOCK
 62
     0
 10
-707.285986
 20
-0.008922
 30
0.0
 11
-707.285986
 21
27.991077
 31
0.0
  0
INSERT
  5
542
  8
0
  6
BYBLOCK
 62
     0
  2
_ORIGIN
 10
-707.285986
 20
-0.008922
 30
0.0
 41
10.0
 42
10.0
 43
10.0
 50
90.0
  0
INSERT
  5
543
  8
0
  6
BYBLOCK
 62
     0
  2
_ORIGIN
 10
-707.285986
 20
27.991077
 30
0.0
 41
10.0
 42
10.0
 43
10.0
 50
270.0
  0
TEXT
  5
544
  8
0
  6
BYBLOCK
 62
     0
 10
-717.285986
 20
52.991077
 30
0.0
 40
30.0
  1
28
 50
90.0
 72
     1
 11
-717.285986
 21
82.991077
 31
0.0
  0
POINT
  5
545
  8
DEFPOINTS
  6
BYBLOCK
 62
     0
 10
-270.001678
 20
-0.008922
 30
0.0
  0
POINT
  5
546
  8
DEFPOINTS
  6
BYBLOCK
 62
     0
 10
-262.501678
 20
27.991077
 30
0.0
  0
POINT
  5
547
  8
DEFPOINTS
  6
BYBLOCK
 62
     0
 10
-707.285986
 20
27.991077
 30
0.0
  0
ENDBLK
  5
548
  8
0
  0
BLOCK
  8
0
  2
*D30
 70
     1
 10
0.0
 20
0.0
 30
0.0
  3
*D30
  1

  0
LINE
  5
54B
  8
0
  6
BYBLOCK
 62
     0
 10
-92.001671
 20
-320.008911
 30
0.0
 11
177.462076
 21
-320.008911
 31
0.0
  0
LINE
  5
54C
  8
0
  6
BYBLOCK
 62
     0
 10
389.998322
 20
-300.008911
 30
0.0
 11
152.462076
 21
-300.008911
 31
0.0
  0
LINE
  5
54D
  8
0
  6
BYBLOCK
 62
     0
 10
164.962076
 20
-290.008911
 30
0.0
 11
164.962076
 21
-280.008911
 31
0.0
  0
LINE
  5
54E
  8
0
  6
BYBLOCK
 62
     0
 10
164.962076
 20
-330.008911
 30
0.0
 11
164.962076
 21
-596.774109
 31
0.0
  0
LINE
  5
54F
  8
0
  6
BYBLOCK
 62
     0
 10
164.962076
 20
-300.008911
 30
0.0
 11
164.962076
 21
-320.008911
 31
0.0
  0
INSERT
  5
550
  8
0
  6
BYBLOCK
 62
     0
  2
_ORIGIN
 10
164.962076
 20
-300.008911
 30
0.0
 41
10.0
 42
10.0
 43
10.0
 50
270.0
  0
INSERT
  5
551
  8
0
  6
BYBLOCK
 62
     0
  2
_ORIGIN
 10
164.962076
 20
-320.008911
 30
0.0
 41
10.0
 42
10.0
 43
10.0
 50
90.0
  0
TEXT
  5
552
  8
0
  6
BYBLOCK
 62
     0
 10
154.962076
 20
-591.724109
 30
0.0
 40
30.0
  1
20
 50
90.0
 72
     1
 11
154.962076
 21
-564.274109
 31
0.0
  0
POINT
  5
553
  8
DEFPOINTS
  6
BYBLOCK
 62
     0
 10
-102.001671
 20
-320.008911
 30
0.0
  0
POINT
  5
554
  8
DEFPOINTS
  6
BYBLOCK
 62
     0
 10
399.998322
 20
-300.008911
 30
0.0
  0
POINT
  5
555
  8
DEFPOINTS
  6
BYBLOCK
 62
     0
 10
164.962076
 20
-300.008911
 30
0.0
  0
ENDBLK
  5
556
  8
0
  0
BLOCK
  8
0
  2
*D31
 70
     1
 10
0.0
 20
0.0
 30
0.0
  3
*D31
  1

  0
LINE
  5
559
  8
0
  6
BYBLOCK
 62
     0
 10
709.998352
 20
-500.008911
 30
0.0
 11
1166.910669
 21
-500.008911
 31
0.0
  0
LINE
  5
55A
  8
0
  6
BYBLOCK
 62
     0
 10
709.998352
 20
99.991081
 30
0.0
 11
1166.910669
 21
99.991081
 31
0.0
  0
LINE
  5
55B
  8
0
  6
BYBLOCK
 62
     0
 10
1154.410669
 20
-490.008911
 30
0.0
 11
1154.410669
 21
89.991081
 31
0.0
  0
INSERT
  5
55C
  8
0
  6
BYBLOCK
 62
     0
  2
_ORIGIN
 10
1154.410669
 20
-500.008911
 30
0.0
 41
10.0
 42
10.0
 43
10.0
 50
270.0
  0
INSERT
  5
55D
  8
0
  6
BYBLOCK
 62
     0
  2
_ORIGIN
 10
1154.410669
 20
99.991081
 30
0.0
 41
10.0
 42
10.0
 43
10.0
 50
90.0
  0
TEXT
  5
55E
  8
0
  6
BYBLOCK
 62
     0
 10
1144.410669
 20
-239.908927
 30
0.0
 40
30.0
  1
600
 50
90.0
 72
     1
 11
1144.410669
 21
-200.008927
 31
0.0
  0
POINT
  5
55F
  8
DEFPOINTS
  6
BYBLOCK
 62
     0
 10
699.998352
 20
-500.008911
 30
0.0
  0
POINT
  5
560
  8
DEFPOINTS
  6
BYBLOCK
 62
     0
 10
699.998352
 20
99.991081
 30
0.0
  0
POINT
  5
561
  8
DEFPOINTS
  6
BYBLOCK
 62
     0
 10
1154.410669
 20
99.991081
 30
0.0
  0
ENDBLK
  5
562
  8
0
  0
BLOCK
  8
0
  2
*D32
 70
     1
 10
0.0
 20
0.0
 30
0.0
  3
*D32
  1

  0
LINE
  5
565
  8
0
  6
BYBLOCK
 62
     0
 10
414.498322
 20
-0.008922
 30
0.0
 11
1066.910669
 21
-0.008922
 31
0.0
  0
LINE
  5
566
  8
0
  6
BYBLOCK
 62
     0
 10
409.998322
 20
-300.008911
 30
0.0
 11
1066.910669
 21
-300.008911
 31
0.0
  0
LINE
  5
567
  8
0
  6
BYBLOCK
 62
     0
 10
1054.410669
 20
-10.008922
 30
0.0
 11
1054.410669
 21
-290.008911
 31
0.0
  0
INSERT
  5
568
  8
0
  6
BYBLOCK
 62
     0
  2
_ORIGIN
 10
1054.410669
 20
-0.008922
 30
0.0
 41
10.0
 42
10.0
 43
10.0
 50
90.0
  0
INSERT
  5
569
  8
0
  6
BYBLOCK
 62
     0
  2
_ORIGIN
 10
1054.410669
 20
-300.008911
 30
0.0
 41
10.0
 42
10.0
 43
10.0
 50
270.0
  0
TEXT
  5
56A
  8
0
  6
BYBLOCK
 62
     0
 10
1044.410669
 20
-189.908927
 30
0.0
 40
30.0
  1
300
 50
90.0
 72
     1
 11
1044.410669
 21
-150.008927
 31
0.0
  0
POINT
  5
56B
  8
DEFPOINTS
  6
BYBLOCK
 62
     0
 10
404.498322
 20
-0.008922
 30
0.0
  0
POINT
  5
56C
  8
DEFPOINTS
  6
BYBLOCK
 62
     0
 10
399.998322
 20
-300.008911
 30
0.0
  0
POINT
  5
56D
  8
DEFPOINTS
  6
BYBLOCK
 62
     0
 10
1054.410669
 20
-300.008911
 30
0.0
  0
ENDBLK
  5
56E
  8
0
  0
BLOCK
  8
0
  2
*D33
 70
     1
 10
0.0
 20
0.0
 30
0.0
  3
*D33
  1

  0
LINE
  5
571
  8
0
  6
BYBLOCK
 62
     0
 10
414.498322
 20
-0.008922
 30
0.0
 11
1066.910669
 21
-0.008922
 31
0.0
  0
LINE
  5
572
  8
0
  6
BYBLOCK
 62
     0
 10
319.998322
 20
15.991078
 30
0.0
 11
1066.910669
 21
15.991078
 31
0.0
  0
LINE
  5
573
  8
0
  6
BYBLOCK
 62
     0
 10
1054.410669
 20
-10.008922
 30
0.0
 11
1054.410669
 21
-20.008922
 31
0.0
  0
LINE
  5
574
  8
0
  6
BYBLOCK
 62
     0
 10
1054.410669
 20
25.991078
 30
0.0
 11
1054.410669
 21
98.451073
 31
0.0
  0
LINE
  5
575
  8
0
  6
BYBLOCK
 62
     0
 10
1054.410669
 20
-0.008922
 30
0.0
 11
1054.410669
 21
15.991078
 31
0.0
  0
INSERT
  5
576
  8
0
  6
BYBLOCK
 62
     0
  2
_ORIGIN
 10
1054.410669
 20
-0.008922
 30
0.0
 41
10.0
 42
10.0
 43
10.0
 50
90.0
  0
INSERT
  5
577
  8
0
  6
BYBLOCK
 62
     0
  2
_ORIGIN
 10
1054.410669
 20
15.991078
 30
0.0
 41
10.0
 42
10.0
 43
10.0
 50
270.0
  0
TEXT
  5
578
  8
0
  6
BYBLOCK
 62
     0
 10
1044.410669
 20
43.701073
 30
0.0
 40
30.0
  1
16
 50
90.0
 72
     1
 11
1044.410669
 21
68.451073
 31
0.0
  0
POINT
  5
579
  8
DEFPOINTS
  6
BYBLOCK
 62
     0
 10
404.498322
 20
-0.008922
 30
0.0
  0
POINT
  5
57A
  8
DEFPOINTS
  6
BYBLOCK
 62
     0
 10
309.998322
 20
15.991078
 30
0.0
  0
POINT
  5
57B
  8
DEFPOINTS
  6
BYBLOCK
 62
     0
 10
1054.410669
 20
15.991078
 30
0.0
  0
ENDBLK
  5
57C
  8
0
  0
BLOCK
  8
0
  2
*D34
 70
     1
 10
0.0
 20
0.0
 30
0.0
  3
*D34
  1

  0
LINE
  5
57F
  8
0
  6
BYBLOCK
 62
     0
 10
469.53537
 20
-154.347519
 30
0.0
 11
966.910669
 21
-154.347519
 31
0.0
  0
LINE
  5
580
  8
0
  6
BYBLOCK
 62
     0
 10
269.998322
 20
-332.008911
 30
0.0
 11
966.910669
 21
-332.008911
 31
0.0
  0
LINE
  5
581
  8
0
  6
BYBLOCK
 62
     0
 10
954.410669
 20
-164.347519
 30
0.0
 11
954.410669
 21
-322.008911
 31
0.0
  0
INSERT
  5
582
  8
0
  6
BYBLOCK
 62
     0
  2
_ORIGIN
 10
954.410669
 20
-154.347519
 30
0.0
 41
10.0
 42
10.0
 43
10.0
 50
90.0
  0
INSERT
  5
583
  8
0
  6
BYBLOCK
 62
     0
  2
_ORIGIN
 10
954.410669
 20
-332.008911
 30
0.0
 41
10.0
 42
10.0
 43
10.0
 50
270.0
  0
TEXT
  5
584
  8
0
  6
BYBLOCK
 62
     0
 10
944.410669
 20
-282.928223
 30
0.0
 40
30.0
  1
178
 50
90.0
 72
     1
 11
944.410669
 21
-243.178223
 31
0.0
  0
POINT
  5
585
  8
DEFPOINTS
  6
BYBLOCK
 62
     0
 10
459.53537
 20
-154.347519
 30
0.0
  0
POINT
  5
586
  8
DEFPOINTS
  6
BYBLOCK
 62
     0
 10
259.998322
 20
-332.008911
 30
0.0
  0
POINT
  5
587
  8
DEFPOINTS
  6
BYBLOCK
 62
     0
 10
954.410669
 20
-332.008911
 30
0.0
  0
ENDBLK
  5
588
  8
0
  0
BLOCK
  8
0
  2
*D35
 70
     1
 10
0.0
 20
0.0
 30
0.0
  3
*D35
  1

  0
LINE
  5
58B
  8
0
  6
BYBLOCK
 62
     0
 10
469.53537
 20
-169.347519
 30
0.0
 11
866.910669
 21
-169.347519
 31
0.0
  0
LINE
  5
58C
  8
0
  6
BYBLOCK
 62
     0
 10
269.998322
 20
-332.008911
 30
0.0
 11
866.910669
 21
-332.008911
 31
0.0
  0
LINE
  5
58D
  8
0
  6
BYBLOCK
 62
     0
 10
854.410669
 20
-179.347519
 30
0.0
 11
854.410669
 21
-322.008911
 31
0.0
  0
INSERT
  5
58E
  8
0
  6
BYBLOCK
 62
     0
  2
_ORIGIN
 10
854.410669
 20
-169.347519
 30
0.0
 41
10.0
 42
10.0
 43
10.0
 50
90.0
  0
INSERT
  5
58F
  8
0
  6
BYBLOCK
 62
     0
  2
_ORIGIN
 10
854.410669
 20
-332.008911
 30
0.0
 41
10.0
 42
10.0
 43
10.0
 50
270.0
  0
TEXT
  5
590
  8
0
  6
BYBLOCK
 62
     0
 10
844.410669
 20
-290.428223
 30
0.0
 40
30.0
  1
163
 50
90.0
 72
     1
 11
844.410669
 21
-250.678223
 31
0.0
  0
POINT
  5
591
  8
DEFPOINTS
  6
BYBLOCK
 62
     0
 10
459.53537
 20
-169.347519
 30
0.0
  0
POINT
  5
592
  8
DEFPOINTS
  6
BYBLOCK
 62
     0
 10
259.998322
 20
-332.008911
 30
0.0
  0
POINT
  5
593
  8
DEFPOINTS
  6
BYBLOCK
 62
     0
 10
854.410669
 20
-332.008911
 30
0.0
  0
ENDBLK
  5
594
  8
0
  0
BLOCK
  8
0
  2
*D36
 70
     1
 10
0.0
 20
0.0
 30
0.0
  3
*D36
  1

  0
LINE
  5
597
  8
0
  6
BYBLOCK
 62
     0
 10
704.498352
 20
-510.008911
 30
0.0
 11
704.498352
 21
-740.779871
 31
0.0
  0
LINE
  5
598
  8
0
  6
BYBLOCK
 62
     0
 10
404.498322
 20
-510.008911
 30
0.0
 11
404.498322
 21
-740.779871
 31
0.0
  0
LINE
  5
599
  8
0
  6
BYBLOCK
 62
     0
 10
694.498352
 20
-728.279871
 30
0.0
 11
414.498322
 21
-728.279871
 31
0.0
  0
INSERT
  5
59A
  8
0
  6
BYBLOCK
 62
     0
  2
_ORIGIN
 10
704.498352
 20
-728.279871
 30
0.0
 41
10.0
 42
10.0
 43
10.0
  0
INSERT
  5
59B
  8
0
  6
BYBLOCK
 62
     0
  2
_ORIGIN
 10
404.498322
 20
-728.279871
 30
0.0
 41
10.0
 42
10.0
 43
10.0
 50
180.0
  0
TEXT
  5
59C
  8
0
  6
BYBLOCK
 62
     0
 10
514.598352
 20
-718.279871
 30
0.0
 40
30.0
  1
300
 72
     1
 11
554.498352
 21
-718.279871
 31
0.0
  0
POINT
  5
59D
  8
DEFPOINTS
  6
BYBLOCK
 62
     0
 10
704.498352
 20
-500.008911
 30
0.0
  0
POINT
  5
59E
  8
DEFPOINTS
  6
BYBLOCK
 62
     0
 10
404.498322
 20
-500.008911
 30
0.0
  0
POINT
  5
59F
  8
DEFPOINTS
  6
BYBLOCK
 62
     0
 10
404.498322
 20
-728.279871
 30
0.0
  0
ENDBLK
  5
5A0
  8
0
  0
BLOCK
  8
0
  2
*D37
 70
     1
 10
0.0
 20
0.0
 30
0.0
  3
*D37
  1

  0
LINE
  5
5A3
  8
0
  6
BYBLOCK
 62
     0
 10
404.498322
 20
-510.008911
 30
0.0
 11
404.498322
 21
-740.779871
 31
0.0
  0
LINE
  5
5A4
  8
0
  6
BYBLOCK
 62
     0
 10
-554.501648
 20
89.991081
 30
0.0
 11
-554.501648
 21
-740.779871
 31
0.0
  0
LINE
  5
5A5
  8
0
  6
BYBLOCK
 62
     0
 10
394.498322
 20
-728.279871
 30
0.0
 11
-544.501648
 21
-728.279871
 31
0.0
  0
INSERT
  5
5A6
  8
0
  6
BYBLOCK
 62
     0
  2
_ORIGIN
 10
404.498322
 20
-728.279871
 30
0.0
 41
10.0
 42
10.0
 43
10.0
  0
INSERT
  5
5A7
  8
0
  6
BYBLOCK
 62
     0
  2
_ORIGIN
 10
-554.501648
 20
-728.279871
 30
0.0
 41
10.0
 42
10.0
 43
10.0
 50
180.0
  0
TEXT
  5
5A8
  8
0
  6
BYBLOCK
 62
     0
 10
-120.001671
 20
-718.279871
 30
0.0
 40
30.0
  1
959
 72
     1
 11
-75.001671
 21
-718.279871
 31
0.0
  0
POINT
  5
5A9
  8
DEFPOINTS
  6
BYBLOCK
 62
     0
 10
404.498322
 20
-500.008911
 30
0.0
  0
POINT
  5
5AA
  8
DEFPOINTS
  6
BYBLOCK
 62
     0
 10
-554.501648
 20
99.991081
 30
0.0
  0
POINT
  5
5AB
  8
DEFPOINTS
  6
BYBLOCK
 62
     0
 10
-554.501648
 20
-728.279871
 30
0.0
  0
ENDBLK
  5
5AC
  8
0
  0
BLOCK
  8
0
  2
*D38
 70
     1
 10
0.0
 20
0.0
 30
0.0
  3
*D38
  1

  0
LINE
  5
5AF
  8
0
  6
BYBLOCK
 62
     0
 10
-404.501678
 20
-304.008911
 30
0.0
 11
-404.501678
 21
-640.779871
 31
0.0
  0
LINE
  5
5B0
  8
0
  6
BYBLOCK
 62
     0
 10
-102.001671
 20
-368.008911
 30
0.0
 11
-102.001671
 21
-640.779871
 31
0.0
  0
LINE
  5
5B1
  8
0
  6
BYBLOCK
 62
     0
 10
-394.501678
 20
-628.279871
 30
0.0
 11
-112.001671
 21
-628.279871
 31
0.0
  0
INSERT
  5
5B2
  8
0
  6
BYBLOCK
 62
     0
  2
_ORIGIN
 10
-404.501678
 20
-628.279871
 30
0.0
 41
10.0
 42
10.0
 43
10.0
 50
180.0
  0
INSERT
  5
5B3
  8
0
  6
BYBLOCK
 62
     0
  2
_ORIGIN
 10
-102.001671
 20
-628.279871
 30
0.0
 41
10.0
 42
10.0
 43
10.0
  0
TEXT
  5
5B4
  8
0
  6
BYBLOCK
 62
     0
 10
-295.701663
 20
-618.279871
 30
0.0
 40
30.0
  1
303
 72
     1
 11
-253.251663
 21
-618.279871
 31
0.0
  0
POINT
  5
5B5
  8
DEFPOINTS
  6
BYBLOCK
 62
     0
 10
-404.501678
 20
-294.008911
 30
0.0
  0
POINT
  5
5B6
  8
DEFPOINTS
  6
BYBLOCK
 62
     0
 10
-102.001671
 20
-358.008911
 30
0.0
  0
POINT
  5
5B7
  8
DEFPOINTS
  6
BYBLOCK
 62
     0
 10
-102.001671
 20
-628.279871
 30
0.0
  0
ENDBLK
  5
5B8
  8
0
  0
BLOCK
  8
0
  2
*D39
 70
     1
 10
0.0
 20
0.0
 30
0.0
  3
*D39
  1

  0
LINE
  5
5BB
  8
0
  6
BYBLOCK
 62
     0
 10
-270.001678
 20
-332.008911
 30
0.0
 11
-1019.785986
 21
-332.008911
 31
0.0
  0
LINE
  5
5BC
  8
0
  6
BYBLOCK
 62
     0
 10
-272.501678
 20
27.991077
 30
0.0
 11
-1019.785986
 21
27.991077
 31
0.0
  0
LINE
  5
5BD
  8
0
  6
BYBLOCK
 62
     0
 10
-1007.285986
 20
-322.008911
 30
0.0
 11
-1007.285986
 21
17.991077
 31
0.0
  0
INSERT
  5
5BE
  8
0
  6
BYBLOCK
 62
     0
  2
_ORIGIN
 10
-1007.285986
 20
-332.008911
 30
0.0
 41
10.0
 42
10.0
 43
10.0
 50
270.0
  0
INSERT
  5
5BF
  8
0
  6
BYBLOCK
 62
     0
  2
_ORIGIN
 10
-1007.285986
 20
27.991077
 30
0.0
 41
10.0
 42
10.0
 43
10.0
 50
90.0
  0
TEXT
  5
5C0
  8
0
  6
BYBLOCK
 62
     0
 10
-1017.285986
 20
-194.458927
 30
0.0
 40
30.0
  1
360
 50
90.0
 72
     1
 11
-1017.285986
 21
-152.008927
 31
0.0
  0
POINT
  5
5C1
  8
DEFPOINTS
  6
BYBLOCK
 62
     0
 10
-260.001678
 20
-332.008911
 30
0.0
  0
POINT
  5
5C2
  8
DEFPOINTS
  6
BYBLOCK
 62
     0
 10
-262.501678
 20
27.991077
 30
0.0
  0
POINT
  5
5C3
  8
DEFPOINTS
  6
BYBLOCK
 62
     0
 10
-1007.285986
 20
27.991077
 30
0.0
  0
ENDBLK
  5
5C4
  8
0
  0
BLOCK
  8
0
  2
*D40
 70
     1
 10
0.0
 20
0.0
 30
0.0
  3
*D40
  1

  0
LINE
  5
5C7
  8
0
  6
BYBLOCK
 62
     0
 10
-280.001678
 20
-320.008911
 30
0.0
 11
-919.785986
 21
-320.008911
 31
0.0
  0
LINE
  5
5C8
  8
0
  6
BYBLOCK
 62
     0
 10
-280.001678
 20
9.991078
 30
0.0
 11
-919.785986
 21
9.991078
 31
0.0
  0
LINE
  5
5C9
  8
0
  6
BYBLOCK
 62
     0
 10
-907.285986
 20
-310.008911
 30
0.0
 11
-907.285986
 21
-0.008922
 31
0.0
  0
INSERT
  5
5CA
  8
0
  6
BYBLOCK
 62
     0
  2
_ORIGIN
 10
-907.285986
 20
-320.008911
 30
0.0
 41
10.0
 42
10.0
 43
10.0
 50
270.0
  0
INSERT
  5
5CB
  8
0
  6
BYBLOCK
 62
     0
  2
_ORIGIN
 10
-907.285986
 20
9.991078
 30
0.0
 41
10.0
 42
10.0
 43
10.0
 50
90.0
  0
TEXT
  5
5CC
  8
0
  6
BYBLOCK
 62
     0
 10
-917.285986
 20
-197.458927
 30
0.0
 40
30.0
  1
330
 50
90.0
 72
     1
 11
-917.285986
 21
-155.008927
 31
0.0
  0
POINT
  5
5CD
  8
DEFPOINTS
  6
BYBLOCK
 62
     0
 10
-270.001678
 20
-320.008911
 30
0.0
  0
POINT
  5
5CE
  8
DEFPOINTS
  6
BYBLOCK
 62
     0
 10
-270.001678
 20
9.991078
 30
0.0
  0
POINT
  5
5CF
  8
DEFPOINTS
  6
BYBLOCK
 62
     0
 10
-907.285986
 20
9.991078
 30
0.0
  0
ENDBLK
  5
5D0
  8
0
  0
BLOCK
  8
0
  2
*D41
 70
     1
 10
0.0
 20
0.0
 30
0.0
  3
*D41
  1

  0
LINE
  5
5D3
  8
0
  6
BYBLOCK
 62
     0
 10
-560.001648
 20
-500.008911
 30
0.0
 11
-819.785986
 21
-500.008911
 31
0.0
  0
LINE
  5
5D4
  8
0
  6
BYBLOCK
 62
     0
 10
-564.501648
 20
-300.008911
 30
0.0
 11
-819.785986
 21
-300.008911
 31
0.0
  0
LINE
  5
5D5
  8
0
  6
BYBLOCK
 62
     0
 10
-807.285986
 20
-490.008911
 30
0.0
 11
-807.285986
 21
-310.008911
 31
0.0
  0
INSERT
  5
5D6
  8
0
  6
BYBLOCK
 62
     0
  2
_ORIGIN
 10
-807.285986
 20
-500.008911
 30
0.0
 41
10.0
 42
10.0
 43
10.0
 50
270.0
  0
INSERT
  5
5D7
  8
0
  6
BYBLOCK
 62
     0
  2
_ORIGIN
 10
-807.285986
 20
-300.008911
 30
0.0
 41
10.0
 42
10.0
 43
10.0
 50
90.0
  0
TEXT
  5
5D8
  8
0
  6
BYBLOCK
 62
     0
 10
-817.285986
 20
-439.908911
 30
0.0
 40
30.0
  1
200
 50
90.0
 72
     1
 11
-817.285986
 21
-400.008911
 31
0.0
  0
POINT
  5
5D9
  8
DEFPOINTS
  6
BYBLOCK
 62
     0
 10
-550.001648
 20
-500.008911
 30
0.0
  0
POINT
  5
5DA
  8
DEFPOINTS
  6
BYBLOCK
 62
     0
 10
-554.501648
 20
-300.008911
 30
0.0
  0
POINT
  5
5DB
  8
DEFPOINTS
  6
BYBLOCK
 62
     0
 10
-807.285986
 20
-300.008911
 30
0.0
  0
ENDBLK
  5
5DC
  8
0
  0
BLOCK
  8
0
  2
*D42
 70
     1
 10
0.0
 20
0.0
 30
0.0
  3
*D42
  1

  0
LINE
  5
5DF
  8
0
  6
BYBLOCK
 62
     0
 10
-564.501648
 20
-300.008911
 30
0.0
 11
-819.785986
 21
-300.008911
 31
0.0
  0
LINE
  5
5E0
  8
0
  6
BYBLOCK
 62
     0
 10
-564.501648
 20
-0.008922
 30
0.0
 11
-819.785986
 21
-0.008922
 31
0.0
  0
LINE
  5
5E1
  8
0
  6
BYBLOCK
 62
     0
 10
-807.285986
 20
-290.008911
 30
0.0
 11
-807.285986
 21
-10.008922
 31
0.0
  0
INSERT
  5
5E2
  8
0
  6
BYBLOCK
 62
     0
  2
_ORIGIN
 10
-807.285986
 20
-300.008911
 30
0.0
 41
10.0
 42
10.0
 43
10.0
 50
270.0
  0
INSERT
  5
5E3
  8
0
  6
BYBLOCK
 62
     0
  2
_ORIGIN
 10
-807.285986
 20
-0.008922
 30
0.0
 41
10.0
 42
10.0
 43
10.0
 50
90.0
  0
TEXT
  5
5E4
  8
0
  6
BYBLOCK
 62
     0
 10
-817.285986
 20
-189.908927
 30
0.0
 40
30.0
  1
300
 50
90.0
 72
     1
 11
-817.285986
 21
-150.008927
 31
0.0
  0
POINT
  5
5E5
  8
DEFPOINTS
  6
BYBLOCK
 62
     0
 10
-554.501648
 20
-300.008911
 30
0.0
  0
POINT
  5
5E6
  8
DEFPOINTS
  6
BYBLOCK
 62
     0
 10
-554.501648
 20
-0.008922
 30
0.0
  0
POINT
  5
5E7
  8
DEFPOINTS
  6
BYBLOCK
 62
     0
 10
-807.285986
 20
-0.008922
 30
0.0
  0
ENDBLK
  5
5E8
  8
0
  0
BLOCK
  8
0
  2
*D43
 70
     1
 10
0.0
 20
0.0
 30
0.0
  3
*D43
  1

  0
LINE
  5
5EB
  8
0
  6
BYBLOCK
 62
     0
 10
-564.501648
 20
-0.008922
 30
0.0
 11
-819.785986
 21
-0.008922
 31
0.0
  0
LINE
  5
5EC
  8
0
  6
BYBLOCK
 62
     0
 10
-560.001648
 20
99.991081
 30
0.0
 11
-819.785986
 21
99.991081
 31
0.0
  0
LINE
  5
5ED
  8
0
  6
BYBLOCK
 62
     0
 10
-807.285986
 20
9.991078
 30
0.0
 11
-807.285986
 21
89.991081
 31
0.0
  0
INSERT
  5
5EE
  8
0
  6
BYBLOCK
 62
     0
  2
_ORIGIN
 10
-807.285986
 20
-0.008922
 30
0.0
 41
10.0
 42
10.0
 43
10.0
 50
270.0
  0
INSERT
  5
5EF
  8
0
  6
BYBLOCK
 62
     0
  2
_ORIGIN
 10
-807.285986
 20
99.991081
 30
0.0
 41
10.0
 42
10.0
 43
10.0
 50
90.0
  0
TEXT
  5
5F0
  8
0
  6
BYBLOCK
 62
     0
 10
-817.285986
 20
15.341077
 30
0.0
 40
30.0
  1
100
 50
90.0
 72
     1
 11
-817.285986
 21
49.991077
 31
0.0
  0
POINT
  5
5F1
  8
DEFPOINTS
  6
BYBLOCK
 62
     0
 10
-554.501648
 20
-0.008922
 30
0.0
  0
POINT
  5
5F2
  8
DEFPOINTS
  6
BYBLOCK
 62
     0
 10
-550.001648
 20
99.991081
 30
0.0
  0
POINT
  5
5F3
  8
DEFPOINTS
  6
BYBLOCK
 62
     0
 10
-807.285986
 20
99.991081
 30
0.0
  0
ENDBLK
  5
5F4
  8
0
  0
BLOCK
  8
0
  2
*D44
 70
     1
 10
0.0
 20
0.0
 30
0.0
  3
*D44
  1

  0
LINE
  5
5F7
  8
0
  6
BYBLOCK
 62
     0
 10
-554.501648
 20
109.991081
 30
0.0
 11
-554.501648
 21
463.223151
 31
0.0
  0
LINE
  5
5F8
  8
0
  6
BYBLOCK
 62
     0
 10
-404.501678
 20
9.991078
 30
0.0
 11
-404.501678
 21
463.223151
 31
0.0
  0
LINE
  5
5F9
  8
0
  6
BYBLOCK
 62
     0
 10
-544.501648
 20
450.723151
 30
0.0
 11
-414.501678
 21
450.723151
 31
0.0
  0
INSERT
  5
5FA
  8
0
  6
BYBLOCK
 62
     0
  2
_ORIGIN
 10
-554.501648
 20
450.723151
 30
0.0
 41
10.0
 42
10.0
 43
10.0
 50
180.0
  0
INSERT
  5
5FB
  8
0
  6
BYBLOCK
 62
     0
  2
_ORIGIN
 10
-404.501678
 20
450.723151
 30
0.0
 41
10.0
 42
10.0
 43
10.0
  0
TEXT
  5
5FC
  8
0
  6
BYBLOCK
 62
     0
 10
-516.701679
 20
460.723151
 30
0.0
 40
30.0
  1
150
 72
     1
 11
-479.501679
 21
460.723151
 31
0.0
  0
POINT
  5
5FD
  8
DEFPOINTS
  6
BYBLOCK
 62
     0
 10
-554.501648
 20
99.991081
 30
0.0
  0
POINT
  5
5FE
  8
DEFPOINTS
  6
BYBLOCK
 62
     0
 10
-404.501678
 20
-0.008922
 30
0.0
  0
POINT
  5
5FF
  8
DEFPOINTS
  6
BYBLOCK
 62
     0
 10
-404.501678
 20
450.723151
 30
0.0
  0
ENDBLK
  5
600
  8
0
  0
BLOCK
  8
0
  2
*D45
 70
     1
 10
0.0
 20
0.0
 30
0.0
  3
*D45
  1

  0
LINE
  5
603
  8
0
  6
BYBLOCK
 62
     0
 10
-404.501678
 20
9.991078
 30
0.0
 11
-404.501678
 21
316.552496
 31
0.0
  0
LINE
  5
604
  8
0
  6
BYBLOCK
 62
     0
 10
-250.001663
 20
39.991077
 30
0.0
 11
-250.001663
 21
316.552496
 31
0.0
  0
LINE
  5
605
  8
0
  6
BYBLOCK
 62
     0
 10
-394.501678
 20
304.052496
 30
0.0
 11
-260.001663
 21
304.052496
 31
0.0
  0
INSERT
  5
606
  8
0
  6
BYBLOCK
 62
     0
  2
_ORIGIN
 10
-404.501678
 20
304.052496
 30
0.0
 41
10.0
 42
10.0
 43
10.0
 50
180.0
  0
INSERT
  5
607
  8
0
  6
BYBLOCK
 62
     0
  2
_ORIGIN
 10
-250.001663
 20
304.052496
 30
0.0
 41
10.0
 42
10.0
 43
10.0
  0
TEXT
  5
608
  8
0
  6
BYBLOCK
 62
     0
 10
-367.001679
 20
314.052496
 30
0.0
 40
30.0
  1
155
 72
     1
 11
-327.251679
 21
314.052496
 31
0.0
  0
POINT
  5
609
  8
DEFPOINTS
  6
BYBLOCK
 62
     0
 10
-404.501678
 20
-0.008922
 30
0.0
  0
POINT
  5
60A
  8
DEFPOINTS
  6
BYBLOCK
 62
     0
 10
-250.001663
 20
29.991077
 30
0.0
  0
POINT
  5
60B
  8
DEFPOINTS
  6
BYBLOCK
 62
     0
 10
-250.001663
 20
304.052496
 30
0.0
  0
ENDBLK
  5
60C
  8
0
  0
BLOCK
  8
0
  2
*D46
 70
     1
 10
0.0
 20
0.0
 30
0.0
  3
*D46
  1

  0
LINE
  5
60F
  8
0
  6
BYBLOCK
 62
     0
 10
404.498322
 20
109.991081
 30
0.0
 11
404.498322
 21
624.65885
 31
0.0
  0
LINE
  5
610
  8
0
  6
BYBLOCK
 62
     0
 10
-554.501648
 20
109.991081
 30
0.0
 11
-554.501648
 21
624.65885
 31
0.0
  0
LINE
  5
611
  8
0
  6
BYBLOCK
 62
     0
 10
394.498322
 20
612.15885
 30
0.0
 11
-544.501648
 21
612.15885
 31
0.0
  0
INSERT
  5
612
  8
0
  6
BYBLOCK
 62
     0
  2
_ORIGIN
 10
404.498322
 20
612.15885
 30
0.0
 41
10.0
 42
10.0
 43
10.0
  0
INSERT
  5
613
  8
0
  6
BYBLOCK
 62
     0
  2
_ORIGIN
 10
-554.501648
 20
612.15885
 30
0.0
 41
10.0
 42
10.0
 43
10.0
 50
180.0
  0
TEXT
  5
614
  8
0
  6
BYBLOCK
 62
     0
 10
-120.001671
 20
622.15885
 30
0.0
 40
30.0
  1
959
 72
     1
 11
-75.001671
 21
622.15885
 31
0.0
  0
POINT
  5
615
  8
DEFPOINTS
  6
BYBLOCK
 62
     0
 10
404.498322
 20
99.991081
 30
0.0
  0
POINT
  5
616
  8
DEFPOINTS
  6
BYBLOCK
 62
     0
 10
-554.501648
 20
99.991081
 30
0.0
  0
POINT
  5
617
  8
DEFPOINTS
  6
BYBLOCK
 62
     0
 10
-554.501648
 20
612.15885
 30
0.0
  0
ENDBLK
  5
618
  8
0
  0
BLOCK
  8
0
  2
*D47
 70
     1
 10
0.0
 20
0.0
 30
0.0
  3
*D47
  1

  0
LINE
  5
61B
  8
0
  6
BYBLOCK
 62
     0
 10
404.498322
 20
109.991081
 30
0.0
 11
404.498322
 21
463.223151
 31
0.0
  0
LINE
  5
61C
  8
0
  6
BYBLOCK
 62
     0
 10
-404.501678
 20
9.991078
 30
0.0
 11
-404.501678
 21
463.223151
 31
0.0
  0
LINE
  5
61D
  8
0
  6
BYBLOCK
 62
     0
 10
394.498322
 20
450.723151
 30
0.0
 11
-394.501678
 21
450.723151
 31
0.0
  0
INSERT
  5
61E
  8
0
  6
BYBLOCK
 62
     0
  2
_ORIGIN
 10
404.498322
 20
450.723151
 30
0.0
 41
10.0
 42
10.0
 43
10.0
  0
INSERT
  5
61F
  8
0
  6
BYBLOCK
 62
     0
  2
_ORIGIN
 10
-404.501678
 20
450.723151
 30
0.0
 41
10.0
 42
10.0
 43
10.0
 50
180.0
  0
TEXT
  5
620
  8
0
  6
BYBLOCK
 62
     0
 10
-42.45167
 20
460.723151
 30
0.0
 40
30.0
  1
809
 72
     1
 11
-0.00167
 21
460.723151
 31
0.0
  0
POINT
  5
621
  8
DEFPOINTS
  6
BYBLOCK
 62
     0
 10
404.498322
 20
99.991081
 30
0.0
  0
POINT
  5
622
  8
DEFPOINTS
  6
BYBLOCK
 62
     0
 10
-404.501678
 20
-0.008922
 30
0.0
  0
POINT
  5
623
  8
DEFPOINTS
  6
BYBLOCK
 62
     0
 10
-404.501678
 20
450.723151
 30
0.0
  0
ENDBLK
  5
624
  8
0
  0
BLOCK
  8
0
  2
*D48
 70
     1
 10
0.0
 20
0.0
 30
0.0
  3
*D48
  1

  0
LINE
  5
627
  8
0
  6
BYBLOCK
 62
     0
 10
-404.501678
 20
9.991078
 30
0.0
 11
-404.501678
 21
316.552496
 31
0.0
  0
LINE
  5
628
  8
0
  6
BYBLOCK
 62
     0
 10
-425.501678
 20
-111.483986
 30
0.0
 11
-425.501678
 21
316.552496
 31
0.0
  0
LINE
  5
629
  8
0
  6
BYBLOCK
 62
     0
 10
-394.501678
 20
304.052496
 30
0.0
 11
-384.501678
 21
304.052496
 31
0.0
  0
LINE
  5
62A
  8
0
  6
BYBLOCK
 62
     0
 10
-435.501678
 20
304.052496
 30
0.0
 11
-526.4758
 21
304.052496
 31
0.0
  0
LINE
  5
62B
  8
0
  6
BYBLOCK
 62
     0
 10
-404.501678
 20
304.052496
 30
0.0
 11
-425.501678
 21
304.052496
 31
0.0
  0
INSERT
  5
62C
  8
0
  6
BYBLOCK
 62
     0
  2
_ORIGIN
 10
-404.501678
 20
304.052496
 30
0.0
 41
10.0
 42
10.0
 43
10.0
 50
180.0
  0
INSERT
  5
62D
  8
0
  6
BYBLOCK
 62
     0
  2
_ORIGIN
 10
-425.501678
 20
304.052496
 30
0.0
 41
10.0
 42
10.0
 43
10.0
  0
TEXT
  5
62E
  8
0
  6
BYBLOCK
 62
     0
 10
-521.2258
 20
314.052496
 30
0.0
 40
30.0
  1
21
 72
     1
 11
-496.4758
 21
314.052496
 31
0.0
  0
POINT
  5
62F
  8
DEFPOINTS
  6
BYBLOCK
 62
     0
 10
-404.501678
 20
-0.008922
 30
0.0
  0
POINT
  5
630
  8
DEFPOINTS
  6
BYBLOCK
 62
     0
 10
-425.501678
 20
-121.483986
 30
0.0
  0
POINT
  5
631
  8
DEFPOINTS
  6
BYBLOCK
 62
     0
 10
-425.501678
 20
304.052496
 30
0.0
  0
ENDBLK
  5
632
  8
0
  0
BLOCK
  8
0
  2
*D49
 70
     1
 10
0.0
 20
0.0
 30
0.0
  3
*D49
  1

  0
LINE
  5
635
  8
0
  6
BYBLOCK
 62
     0
 10
404.53537
 20
-25.347511
 30
0.0
 11
404.53537
 21
462.223151
 31
0.0
  0
LINE
  5
636
  8
0
  6
BYBLOCK
 62
     0
 10
474.53537
 20
-86.190033
 30
0.0
 11
474.53537
 21
462.223151
 31
0.0
  0
LINE
  5
637
  8
0
  6
BYBLOCK
 62
     0
 10
414.53537
 20
449.723151
 30
0.0
 11
464.53537
 21
449.723151
 31
0.0
  0
INSERT
  5
638
  8
0
  6
BYBLOCK
 62
     0
  2
_ORIGIN
 10
404.53537
 20
449.723151
 30
0.0
 41
10.0
 42
10.0
 43
10.0
 50
180.0
  0
INSERT
  5
639
  8
0
  6
BYBLOCK
 62
     0
  2
_ORIGIN
 10
474.53537
 20
449.723151
 30
0.0
 41
10.0
 42
10.0
 43
10.0
  0
TEXT
  5
63A
  8
0
  6
BYBLOCK
 62
     0
 10
412.08537
 20
459.723151
 30
0.0
 40
30.0
  1
70
 72
     1
 11
439.53537
 21
459.723151
 31
0.0
  0
POINT
  5
63B
  8
DEFPOINTS
  6
BYBLOCK
 62
     0
 10
404.53537
 20
-35.347511
 30
0.0
  0
POINT
  5
63C
  8
DEFPOINTS
  6
BYBLOCK
 62
     0
 10
474.53537
 20
-96.190033
 30
0.0
  0
POINT
  5
63D
  8
DEFPOINTS
  6
BYBLOCK
 62
     0
 10
474.53537
 20
449.723151
 30
0.0
  0
ENDBLK
  5
63E
  8
0
  0
BLOCK
  8
0
  2
*D50
 70
     1
 10
0.0
 20
0.0
 30
0.0
  3
*D50
  1

  0
LINE
  5
641
  8
0
  6
BYBLOCK
 62
     0
 10
439.53537
 20
-123.347504
 30
0.0
 11
439.53537
 21
314.552496
 31
0.0
  0
LINE
  5
642
  8
0
  6
BYBLOCK
 62
     0
 10
404.53537
 20
-25.347511
 30
0.0
 11
404.53537
 21
314.552496
 31
0.0
  0
LINE
  5
643
  8
0
  6
BYBLOCK
 62
     0
 10
449.53537
 20
302.052496
 30
0.0
 11
459.53537
 21
302.052496
 31
0.0
  0
LINE
  5
644
  8
0
  6
BYBLOCK
 62
     0
 10
394.53537
 20
302.052496
 30
0.0
 11
282.472909
 21
302.052496
 31
0.0
  0
LINE
  5
645
  8
0
  6
BYBLOCK
 62
     0
 10
439.53537
 20
302.052496
 30
0.0
 11
404.53537
 21
302.052496
 31
0.0
  0
INSERT
  5
646
  8
0
  6
BYBLOCK
 62
     0
  2
_ORIGIN
 10
439.53537
 20
302.052496
 30
0.0
 41
10.0
 42
10.0
 43
10.0
 50
180.0
  0
INSERT
  5
647
  8
0
  6
BYBLOCK
 62
     0
  2
_ORIGIN
 10
404.53537
 20
302.052496
 30
0.0
 41
10.0
 42
10.0
 43
10.0
  0
TEXT
  5
648
  8
0
  6
BYBLOCK
 62
     0
 10
287.472909
 20
312.052496
 30
0.0
 40
30.0
  1
35
 72
     1
 11
317.472909
 21
312.052496
 31
0.0
  0
POINT
  5
649
  8
DEFPOINTS
  6
BYBLOCK
 62
     0
 10
439.53537
 20
-133.347504
 30
0.0
  0
POINT
  5
64A
  8
DEFPOINTS
  6
BYBLOCK
 62
     0
 10
404.53537
 20
-35.347511
 30
0.0
  0
POINT
  5
64B
  8
DEFPOINTS
  6
BYBLOCK
 62
     0
 10
404.53537
 20
302.052496
 30
0.0
  0
ENDBLK
  5
64C
  8
0
  0
BLOCK
  8
0
  2
*D51
 70
     1
 10
0.0
 20
0.0
 30
0.0
  3
*D51
  1

  0
LINE
  5
64F
  8
0
  6
BYBLOCK
 62
     0
 10
249.998337
 20
39.991077
 30
0.0
 11
249.998337
 21
316.552496
 31
0.0
  0
LINE
  5
650
  8
0
  6
BYBLOCK
 62
     0
 10
-250.001663
 20
39.991077
 30
0.0
 11
-250.001663
 21
316.552496
 31
0.0
  0
LINE
  5
651
  8
0
  6
BYBLOCK
 62
     0
 10
239.998337
 20
304.052496
 30
0.0
 11
-240.001663
 21
304.052496
 31
0.0
  0
INSERT
  5
652
  8
0
  6
BYBLOCK
 62
     0
  2
_ORIGIN
 10
249.998337
 20
304.052496
 30
0.0
 41
10.0
 42
10.0
 43
10.0
  0
INSERT
  5
653
  8
0
  6
BYBLOCK
 62
     0
  2
_ORIGIN
 10
-250.001663
 20
304.052496
 30
0.0
 41
10.0
 42
10.0
 43
10.0
 50
180.0
  0
TEXT
  5
654
  8
0
  6
BYBLOCK
 62
     0
 10
-39.90167
 20
314.052496
 30
0.0
 40
30.0
  1
500
 72
     1
 11
-0.00167
 21
314.052496
 31
0.0
  0
POINT
  5
655
  8
DEFPOINTS
  6
BYBLOCK
 62
     0
 10
249.998337
 20
29.991077
 30
0.0
  0
POINT
  5
656
  8
DEFPOINTS
  6
BYBLOCK
 62
     0
 10
-250.001663
 20
29.991077
 30
0.0
  0
POINT
  5
657
  8
DEFPOINTS
  6
BYBLOCK
 62
     0
 10
-250.001663
 20
304.052496
 30
0.0
  0
ENDBLK
  5
658
  8
0
  0
BLOCK
  8
0
  2
*D52
 70
     1
 10
0.0
 20
0.0
 30
0.0
  3
*D52
  1

  0
LINE
  5
65B
  8
0
  6
BYBLOCK
 62
     0
 10
229.998337
 20
-332.008911
 30
0.0
 11
229.998337
 21
-640.779871
 31
0.0
  0
LINE
  5
65C
  8
0
  6
BYBLOCK
 62
     0
 10
269.998322
 20
-332.008911
 30
0.0
 11
269.998322
 21
-640.779871
 31
0.0
  0
LINE
  5
65D
  8
0
  6
BYBLOCK
 62
     0
 10
219.998337
 20
-628.279871
 30
0.0
 11
209.998337
 21
-628.279871
 31
0.0
  0
LINE
  5
65E
  8
0
  6
BYBLOCK
 62
     0
 10
279.998322
 20
-628.279871
 30
0.0
 11
289.998322
 21
-628.279871
 31
0.0
  0
LINE
  5
65F
  8
0
  6
BYBLOCK
 62
     0
 10
229.998337
 20
-628.279871
 30
0.0
 11
269.998322
 21
-628.279871
 31
0.0
  0
INSERT
  5
660
  8
0
  6
BYBLOCK
 62
     0
  2
_ORIGIN
 10
229.998337
 20
-628.279871
 30
0.0
 41
10.0
 42
10.0
 43
10.0
  0
INSERT
  5
661
  8
0
  6
BYBLOCK
 62
     0
  2
_ORIGIN
 10
269.998322
 20
-628.279871
 30
0.0
 41
10.0
 42
10.0
 43
10.0
 50
180.0
  0
TEXT
  5
662
  8
0
  6
BYBLOCK
 62
     0
 10
222.548329
 20
-618.279871
 30
0.0
 40
30.0
  1
40
 72
     1
 11
249.998329
 21
-618.279871
 31
0.0
  0
POINT
  5
663
  8
DEFPOINTS
  6
BYBLOCK
 62
     0
 10
229.998337
 20
-322.008911
 30
0.0
  0
POINT
  5
664
  8
DEFPOINTS
  6
BYBLOCK
 62
     0
 10
269.998322
 20
-322.008911
 30
0.0
  0
POINT
  5
665
  8
DEFPOINTS
  6
BYBLOCK
 62
     0
 10
269.998322
 20
-628.279871
 30
0.0
  0
ENDBLK
  5
666
  8
0
  0
BLOCK
  8
0
  2
*D53
 70
     1
 10
0.0
 20
0.0
 30
0.0
  3
*D53
  1

  0
LINE
  5
669
  8
0
  6
BYBLOCK
 62
     0
 10
29.998331
 20
-40.708923
 30
0.0
 11
866.910669
 21
-40.708923
 31
0.0
  0
LINE
  5
66A
  8
0
  6
BYBLOCK
 62
     0
 10
414.498322
 20
-0.008922
 30
0.0
 11
866.910669
 21
-0.008922
 31
0.0
  0
LINE
  5
66B
  8
0
  6
BYBLOCK
 62
     0
 10
854.410669
 20
-30.708923
 30
0.0
 11
854.410669
 21
-10.008922
 31
0.0
  0
INSERT
  5
66C
  8
0
  6
BYBLOCK
 62
     0
  2
_ORIGIN
 10
854.410669
 20
-40.708923
 30
0.0
 41
10.0
 42
10.0
 43
10.0
 50
270.0
  0
INSERT
  5
66D
  8
0
  6
BYBLOCK
 62
     0
  2
_ORIGIN
 10
854.410669
 20
-0.008922
 30
0.0
 41
10.0
 42
10.0
 43
10.0
 50
90.0
  0
TEXT
  5
66E
  8
0
  6
BYBLOCK
 62
     0
 10
844.410669
 20
-45.108923
 30
0.0
 40
30.0
  1
41
 50
90.0
 72
     1
 11
844.410669
 21
-20.358923
 31
0.0
  0
POINT
  5
66F
  8
DEFPOINTS
  6
BYBLOCK
 62
     0
 10
19.998331
 20
-40.708923
 30
0.0
  0
POINT
  5
670
  8
DEFPOINTS
  6
BYBLOCK
 62
     0
 10
404.498322
 20
-0.008922
 30
0.0
  0
POINT
  5
671
  8
DEFPOINTS
  6
BYBLOCK
 62
     0
 10
854.410669
 20
-0.008922
 30
0.0
  0
ENDBLK
  5
672
  8
0
  0
ENDSEC
  0
SECTION
  2
ENTITIES
  0
LINE
  5
673
  8
OUTLINE
  6
CONTINUOUS
 10
384.5
 20
-300.3
 30
0.0
 11
270.0
 21
-300.3
 31
0.0
  0
LINE
  5
674
  8
OUTLINE
  6
CONTINUOUS
 10
384.5
 20
-0.3
 30
0.0
 11
270.0
 21
-0.3
 31
0.0
  0
ARC
  5
675
  8
OUTLINE
  6
CONTINUOUS
 10
384.5
 20
-280.3
 30
0.0
 40
20.0
 50
270.0
 51
0.0
  0
LINE
  5
676
  8
OUTLINE
  6
CONTINUOUS
 10
404.5
 20
-20.3
 30
0.0
 11
404.5
 21
-280.3
 31
0.0
  0
LINE
  5
677
  8
OUTLINE
  6
CONTINUOUS
 10
404.5
 20
-35.3
 30
0.0
 11
404.5
 21
-280.3
 31
0.0
  0
LINE
  5
678
  8
OUTLINE
  6
CONTINUOUS
 10
404.5
 20
-35.3
 30
0.0
 11
404.5
 21
-280.3
 31
0.0
  0
ARC
  5
679
  8
OUTLINE
  6
CONTINUOUS
 10
384.5
 20
-20.3
 30
0.0
 40
20.0
 50
0.0
 51
90.0
  0
LINE
  5
67A
  8
OUTLINE
  6
CONTINUOUS
 10
-425.5
 20
-169.824933
 30
0.0
 11
-404.5
 21
-188.3
 31
0.0
  0
LINE
  5
67B
  8
OUTLINE
  6
CONTINUOUS
 10
-425.5
 20
-121.775067
 30
0.0
 11
-404.5
 21
-103.3
 31
0.0
  0
LINE
  5
67C
  8
OUTLINE
  6
CONTINUOUS
 10
-425.5
 20
-121.775067
 30
0.0
 11
-425.5
 21
-169.824933
 31
0.0
  0
ARC
  5
67D
  8
OUTLINE
  6
CONTINUOUS
 10
-384.5
 20
-20.3
 30
0.0
 40
20.0
 50
90.0
 51
180.0
  0
ARC
  5
67E
  8
OUTLINE
  6
CONTINUOUS
 10
-384.5
 20
-280.3
 30
0.0
 40
20.0
 50
180.0
 51
270.0
  0
LINE
  5
67F
  8
OUTLINE
  6
CONTINUOUS
 10
-404.5
 20
-20.3
 30
0.0
 11
-404.5
 21
-280.3
 31
0.0
  0
LINE
  5
680
  8
OUTLINE
  6
CONTINUOUS
 10
-230.0
 20
5.2
 30
0.0
 11
-230.0
 21
-322.3
 31
0.0
  0
LINE
  5
681
  8
OUTLINE
  6
CONTINUOUS
 10
-270.0
 20
5.2
 30
0.0
 11
-270.0
 21
-322.3
 31
0.0
  0
ARC
  5
682
  8
OUTLINE
  6
CONTINUOUS
 10
-237.5
 20
20.2
 30
0.0
 40
7.5
 50
0.0
 51
180.0
  0
ARC
  5
683
  8
OUTLINE
  6
CONTINUOUS
 10
-262.5
 20
20.2
 30
0.0
 40
7.5
 50
0.0
 51
180.0
  0
LINE
  5
684
  8
OUTLINE
  6
CONTINUOUS
 10
-255.0
 20
9.7
 30
0.0
 11
-255.0
 21
20.2
 31
0.0
  0
LINE
  5
685
  8
OUTLINE
  6
CONTINUOUS
 10
-245.0
 20
9.7
 30
0.0
 11
-245.0
 21
20.2
 31
0.0
  0
ARC
  5
686
  8
OUTLINE
  6
CONTINUOUS
 10
-250.0
 20
9.7
 30
0.0
 40
5.0
 50
180.0
 51
0.0
  0
LINE
  5
687
  8
OUTLINE
  6
CONTINUOUS
 10
-270.0
 20
20.2
 30
0.0
 11
-270.0
 21
-322.3
 31
0.0
  0
LINE
  5
688
  8
OUTLINE
  6
CONTINUOUS
 10
-230.0
 20
20.2
 30
0.0
 11
-230.0
 21
-322.3
 31
0.0
  0
LINE
  5
689
  8
OUTLINE
  6
CONTINUOUS
 10
-230.0
 20
5.2
 30
0.0
 11
-230.0
 21
-322.3
 31
0.0
  0
ARC
  5
68A
  8
OUTLINE
  6
CONTINUOUS
 10
-240.0
 20
-322.3
 30
0.0
 40
10.0
 50
270.0
 51
0.0
  0
ARC
  5
68B
  8
OUTLINE
  6
CONTINUOUS
 10
-260.0
 20
-322.3
 30
0.0
 40
10.0
 50
180.0
 51
270.0
  0
LINE
  5
68C
  8
OUTLINE
  6
CONTINUOUS
 10
-240.0
 20
-332.3
 30
0.0
 11
-260.0
 21
-332.3
 31
0.0
  0
LINE
  5
68D
  8
OUTLINE
  6
CONTINUOUS
 10
-270.0
 20
5.2
 30
0.0
 11
-270.0
 21
-322.3
 31
0.0
  0
LINE
  5
68E
  8
OUTLINE
  6
CONTINUOUS
 10
230.0
 20
20.2
 30
0.0
 11
230.0
 21
-322.3
 31
0.0
  0
LINE
  5
68F
  8
OUTLINE
  6
CONTINUOUS
 10
270.0
 20
20.2
 30
0.0
 11
270.0
 21
-322.3
 31
0.0
  0
ARC
  5
690
  8
OUTLINE
  6
CONTINUOUS
 10
262.5
 20
20.2
 30
0.0
 40
7.5
 50
0.0
 51
180.0
  0
ARC
  5
691
  8
OUTLINE
  6
CONTINUOUS
 10
237.5
 20
20.2
 30
0.0
 40
7.5
 50
0.0
 51
180.0
  0
LINE
  5
692
  8
OUTLINE
  6
CONTINUOUS
 10
245.0
 20
9.7
 30
0.0
 11
245.0
 21
20.2
 31
0.0
  0
LINE
  5
693
  8
OUTLINE
  6
CONTINUOUS
 10
255.0
 20
9.7
 30
0.0
 11
255.0
 21
20.2
 31
0.0
  0
ARC
  5
694
  8
OUTLINE
  6
CONTINUOUS
 10
250.0
 20
9.7
 30
0.0
 40
5.0
 50
180.0
 51
0.0
  0
LINE
  5
695
  8
OUTLINE
  6
CONTINUOUS
 10
270.0
 20
5.2
 30
0.0
 11
270.0
 21
-322.3
 31
0.0
  0
LINE
  5
696
  8
OUTLINE
  6
CONTINUOUS
 10
230.0
 20
5.2
 30
0.0
 11
230.0
 21
-322.3
 31
0.0
  0
LINE
  5
697
  8
OUTLINE
  6
CONTINUOUS
 10
270.0
 20
5.2
 30
0.0
 11
270.0
 21
-322.3
 31
0.0
  0
ARC
  5
698
  8
OUTLINE
  6
CONTINUOUS
 10
260.0
 20
-322.3
 30
0.0
 40
10.0
 50
270.0
 51
0.0
  0
ARC
  5
699
  8
OUTLINE
  6
CONTINUOUS
 10
240.0
 20
-322.3
 30
0.0
 40
10.0
 50
180.0
 51
270.0
  0
LINE
  5
69A
  8
OUTLINE
  6
CONTINUOUS
 10
245.0
 20
-309.3
 30
0.0
 11
245.0
 21
-320.3
 31
0.0
  0
LINE
  5
69B
  8
OUTLINE
  6
CONTINUOUS
 10
255.0
 20
-309.3
 30
0.0
 11
255.0
 21
-320.3
 31
0.0
  0
ARC
  5
69C
  8
OUTLINE
  6
CONTINUOUS
 10
250.0
 20
-309.3
 30
0.0
 40
5.0
 50
0.0
 51
180.0
  0
ARC
  5
69D
  8
OUTLINE
  6
CONTINUOUS
 10
250.0
 20
-320.3
 30
0.0
 40
5.0
 50
180.0
 51
0.0
  0
LINE
  5
69E
  8
OUTLINE
  6
CONTINUOUS
 10
260.0
 20
-332.3
 30
0.0
 11
240.0
 21
-332.3
 31
0.0
  0
LINE
  5
69F
  8
OUTLINE
  6
CONTINUOUS
 10
230.0
 20
-0.3
 30
0.0
 11
-230.0
 21
-0.3
 31
0.0
  0
LINE
  5
6A0
  8
OUTLINE
  6
CONTINUOUS
 10
230.0
 20
-300.3
 30
0.0
 11
-230.0
 21
-300.3
 31
0.0
  0
LINE
  5
6A1
  8
OUTLINE
  6
CONTINUOUS
 10
-270.0
 20
-0.3
 30
0.0
 11
-384.5
 21
-0.3
 31
0.0
  0
LINE
  5
6A2
  8
OUTLINE
  6
CONTINUOUS
 10
-270.0
 20
-300.3
 30
0.0
 11
-384.5
 21
-300.3
 31
0.0
  0
LINE
  5
6A3
  8
OUTLINE
  6
CONTINUOUS
 10
-255.0
 20
-309.3
 30
0.0
 11
-255.0
 21
-320.3
 31
0.0
  0
LINE
  5
6A4
  8
OUTLINE
  6
CONTINUOUS
 10
-245.0
 20
-309.3
 30
0.0
 11
-245.0
 21
-320.3
 31
0.0
  0
ARC
  5
6A5
  8
OUTLINE
  6
CONTINUOUS
 10
-250.0
 20
-309.3
 30
0.0
 40
5.0
 50
0.0
 51
180.0
  0
ARC
  5
6A6
  8
OUTLINE
  6
CONTINUOUS
 10
-250.0
 20
-320.3
 30
0.0
 40
5.0
 50
180.0
 51
0.0
  0
LINE
  5
6A7
  8
OUTLINE
  6
CONTINUOUS
 10
310.0
 20
15.7
 30
0.0
 11
310.0
 21
-0.3
 31
0.0
  0
LINE
  5
6A8
  8
OUTLINE
  6
CONTINUOUS
 10
310.0
 20
15.7
 30
0.0
 11
270.0
 21
15.7
 31
0.0
  0
LINE
  5
6A9
  8
OUTLINE
  6
CONTINUOUS
 10
420.537024
 20
-114.714834
 30
0.0
 11
404.537024
 21
-100.638592
 31
0.0
  0
LINE
  5
6AA
  8
OUTLINE
  6
CONTINUOUS
 10
420.537024
 20
-114.714834
 30
0.0
 11
420.537024
 21
-171.56235
 31
0.0
  0
LINE
  5
6AB
  8
OUTLINE
  6
CONTINUOUS
 10
420.537024
 20
-171.56235
 30
0.0
 11
404.537024
 21
-185.638592
 31
0.0
  0
CIRCLE
  5
6AC
  8
DETAIL
  6
CONTINUOUS
 10
0.0
 20
-41.0
 30
0.0
 40
13.25
  0
LINE
  5
6AD
  8
DETAIL
  6
CONTINUOUS
 10
153.0
 20
-300.3
 30
0.0
 11
153.0
 21
-306.94372
 31
0.0
  0
LINE
  5
6AE
  8
DETAIL
  6
CONTINUOUS
 10
-364.5
 20
-300.3
 30
0.0
 11
-364.5
 21
-306.94372
 31
0.0
  0
ARC
  5
6AF
  8
DETAIL
  6
CONTINUOUS
 10
-106.5
 20
1852.7
 30
0.0
 40
2175.0
 50
263.187495
 51
265.688871
  0
ARC
  5
6B0
  8
DETAIL
  6
CONTINUOUS
 10
262.5
 20
20.2
 30
0.0
 40
7.5
 50
0.0
 51
180.0
  0
ARC
  5
6B1
  8
DETAIL
  6
CONTINUOUS
 10
237.5
 20
20.2
 30
0.0
 40
7.5
 50
0.0
 51
180.0
  0
ARC
  5
6B2
  8
DETAIL
  6
CONTINUOUS
 10
260.0
 20
-322.3
 30
0.0
 40
10.0
 50
270.0
 51
0.0
  0
ARC
  5
6B3
  8
DETAIL
  6
CONTINUOUS
 10
240.0
 20
-322.3
 30
0.0
 40
10.0
 50
180.0
 51
270.0
  0
LINE
  5
6B4
  8
DETAIL
  6
CONTINUOUS
 10
260.0
 20
-332.3
 30
0.0
 11
240.0
 21
-332.3
 31
0.0
  0
LINE
  5
6B5
  8
DETAIL
  6
CONTINUOUS
 10
245.0
 20
9.7
 30
0.0
 11
245.0
 21
20.2
 31
0.0
  0
LINE
  5
6B6
  8
DETAIL
  6
CONTINUOUS
 10
245.0
 20
-309.3
 30
0.0
 11
245.0
 21
-320.3
 31
0.0
  0
LINE
  5
6B7
  8
DETAIL
  6
CONTINUOUS
 10
255.0
 20
9.7
 30
0.0
 11
255.0
 21
20.2
 31
0.0
  0
LINE
  5
6B8
  8
DETAIL
  6
CONTINUOUS
 10
255.0
 20
-309.3
 30
0.0
 11
255.0
 21
-320.3
 31
0.0
  0
ARC
  5
6B9
  8
DETAIL
  6
CONTINUOUS
 10
250.0
 20
9.7
 30
0.0
 40
5.0
 50
180.0
 51
0.0
  0
ARC
  5
6BA
  8
DETAIL
  6
CONTINUOUS
 10
250.0
 20
-309.3
 30
0.0
 40
5.0
 50
0.0
 51
180.0
  0
ARC
  5
6BB
  8
DETAIL
  6
CONTINUOUS
 10
250.0
 20
-320.3
 30
0.0
 40
5.0
 50
180.0
 51
0.0
  0
LINE
  5
6BC
  8
DETAIL
  6
CONTINUOUS
 10
384.5
 20
-300.3
 30
0.0
 11
270.0
 21
-300.3
 31
0.0
  0
LINE
  5
6BD
  8
DETAIL
  6
CONTINUOUS
 10
384.5
 20
-0.3
 30
0.0
 11
270.0
 21
-0.3
 31
0.0
  0
LINE
  5
6BE
  8
DETAIL
  6
CONTINUOUS
 10
-404.5
 20
-20.3
 30
0.0
 11
-404.5
 21
-280.3
 31
0.0
  0
LINE
  5
6BF
  8
DETAIL
  6
CONTINUOUS
 10
404.5
 20
-20.3
 30
0.0
 11
404.5
 21
-280.3
 31
0.0
  0
LINE
  5
6C0
  8
DETAIL
  6
CONTINUOUS
 10
230.0
 20
20.2
 30
0.0
 11
230.0
 21
-322.3
 31
0.0
  0
LINE
  5
6C1
  8
DETAIL
  6
CONTINUOUS
 10
270.0
 20
20.2
 30
0.0
 11
270.0
 21
-322.3
 31
0.0
  0
ARC
  5
6C2
  8
DETAIL
  6
CONTINUOUS
 10
384.5
 20
-20.3
 30
0.0
 40
20.0
 50
0.0
 51
90.0
  0
ARC
  5
6C3
  8
DETAIL
  6
CONTINUOUS
 10
384.5
 20
-280.3
 30
0.0
 40
20.0
 50
270.0
 51
0.0
  0
ARC
  5
6C4
  8
DETAIL
  6
CONTINUOUS
 10
-384.5
 20
-280.3
 30
0.0
 40
20.0
 50
180.0
 51
270.0
  0
ARC
  5
6C5
  8
DETAIL
  6
CONTINUOUS
 10
-384.5
 20
-20.3
 30
0.0
 40
20.0
 50
90.0
 51
180.0
  0
LINE
  5
6C6
  8
DETAIL
  6
CONTINUOUS
 10
-425.5
 20
-121.775067
 30
0.0
 11
-425.5
 21
-169.824933
 31
0.0
  0
LINE
  5
6C7
  8
DETAIL
  6
CONTINUOUS
 10
-425.5
 20
-121.775067
 30
0.0
 11
-404.5
 21
-103.3
 31
0.0
  0
LINE
  5
6C8
  8
DETAIL
  6
CONTINUOUS
 10
-425.5
 20
-169.824933
 30
0.0
 11
-404.5
 21
-188.3
 31
0.0
  0
LINE
  5
6C9
  8
DETAIL
  6
CONTINUOUS
 10
230.0
 20
-0.3
 30
0.0
 11
-230.0
 21
-0.3
 31
0.0
  0
LINE
  5
6CA
  8
DETAIL
  6
CONTINUOUS
 10
230.0
 20
-300.3
 30
0.0
 11
-230.0
 21
-300.3
 31
0.0
  0
LINE
  5
6CB
  8
DETAIL
  6
CONTINUOUS
 10
-230.0
 20
20.2
 30
0.0
 11
-230.0
 21
-322.3
 31
0.0
  0
ARC
  5
6CC
  8
DETAIL
  6
CONTINUOUS
 10
-240.0
 20
-322.3
 30
0.0
 40
10.0
 50
270.0
 51
0.0
  0
ARC
  5
6CD
  8
DETAIL
  6
CONTINUOUS
 10
-260.0
 20
-322.3
 30
0.0
 40
10.0
 50
180.0
 51
270.0
  0
LINE
  5
6CE
  8
DETAIL
  6
CONTINUOUS
 10
-240.0
 20
-332.3
 30
0.0
 11
-260.0
 21
-332.3
 31
0.0
  0
LINE
  5
6CF
  8
DETAIL
  6
CONTINUOUS
 10
-255.0
 20
-309.3
 30
0.0
 11
-255.0
 21
-320.3
 31
0.0
  0
LINE
  5
6D0
  8
DETAIL
  6
CONTINUOUS
 10
-245.0
 20
-309.3
 30
0.0
 11
-245.0
 21
-320.3
 31
0.0
  0
ARC
  5
6D1
  8
DETAIL
  6
CONTINUOUS
 10
-250.0
 20
-309.3
 30
0.0
 40
5.0
 50
0.0
 51
180.0
  0
ARC
  5
6D2
  8
DETAIL
  6
CONTINUOUS
 10
-250.0
 20
-320.3
 30
0.0
 40
5.0
 50
180.0
 51
0.0
  0
LINE
  5
6D3
  8
DETAIL
  6
CONTINUOUS
 10
-270.0
 20
20.2
 30
0.0
 11
-270.0
 21
-322.3
 31
0.0
  0
ARC
  5
6D4
  8
DETAIL
  6
CONTINUOUS
 10
-237.5
 20
20.2
 30
0.0
 40
7.5
 50
0.0
 51
180.0
  0
ARC
  5
6D5
  8
DETAIL
  6
CONTINUOUS
 10
-262.5
 20
20.2
 30
0.0
 40
7.5
 50
0.0
 51
180.0
  0
LINE
  5
6D6
  8
DETAIL
  6
CONTINUOUS
 10
-255.0
 20
9.7
 30
0.0
 11
-255.0
 21
20.2
 31
0.0
  0
LINE
  5
6D7
  8
DETAIL
  6
CONTINUOUS
 10
-245.0
 20
9.7
 30
0.0
 11
-245.0
 21
20.2
 31
0.0
  0
ARC
  5
6D8
  8
DETAIL
  6
CONTINUOUS
 10
-250.0
 20
9.7
 30
0.0
 40
5.0
 50
180.0
 51
0.0
  0
LINE
  5
6D9
  8
DETAIL
  6
CONTINUOUS
 10
-270.0
 20
-0.3
 30
0.0
 11
-384.5
 21
-0.3
 31
0.0
  0
LINE
  5
6DA
  8
DETAIL
  6
CONTINUOUS
 10
-270.0
 20
-300.3
 30
0.0
 11
-384.5
 21
-300.3
 31
0.0
  0
ARC
  5
6DB
  8
DETAIL
  6
CONTINUOUS
 10
-102.0
 20
1854.7
 30
0.0
 40
2175.0
 50
266.626161
 51
276.812505
  0
LINE
  5
6DC
  8
DETAIL
  6
CONTINUOUS
 10
310.0
 20
15.7
 30
0.0
 11
310.0
 21
-0.3
 31
0.0
  0
LINE
  5
6DD
  8
DETAIL
  6
CONTINUOUS
 10
270.0
 20
15.7
 30
0.0
 11
310.0
 21
15.7
 31
0.0
  0
ARC
  5
6DE
  8
DETAIL
  6
DASHED
 10
426.687024
 20
-172.138592
 30
0.0
 40
2.0
 50
270.0
 51
0.0
  0
LINE
  5
6DF
  8
DETAIL
  6
DASHED
 10
426.687024
 20
-174.138592
 30
0.0
 11
404.537024
 21
-174.138592
 31
0.0
  0
LINE
  5
6E0
  8
DETAIL
  6
DASHED
 10
440.387024
 20
-193.138592
 30
0.0
 11
404.537024
 21
-193.138592
 31
0.0
  0
ARC
  5
6E1
  8
DETAIL
  6
DASHED
 10
440.387024
 20
-183.138592
 30
0.0
 40
10.0
 50
270.0
 51
0.0
  0
LINE
  5
6E2
  8
DETAIL
  6
DASHED
 10
428.687024
 20
-168.638592
 30
0.0
 11
428.687024
 21
-172.138592
 31
0.0
  0
LINE
  5
6E3
  8
DETAIL
  6
DASHED
 10
429.420733
 20
-154.638592
 30
0.0
 11
428.687024
 21
-168.638592
 31
0.0
  0
LINE
  5
6E4
  8
DETAIL
  6
DASHED
 10
450.387024
 20
-168.638592
 30
0.0
 11
450.387024
 21
-183.138592
 31
0.0
  0
LINE
  5
6E5
  8
DETAIL
  6
DASHED
 10
429.473141
 20
-154.638592
 30
0.0
 11
449.600908
 21
-154.638592
 31
0.0
  0
LINE
  5
6E6
  8
DETAIL
  6
DASHED
 10
449.653315
 20
-154.638592
 30
0.0
 11
450.387024
 21
-168.638592
 31
0.0
  0
LINE
  5
6E7
  8
DETAIL
  6
DASHED
 10
429.420733
 20
-169.638592
 30
0.0
 11
428.687024
 21
-183.638592
 31
0.0
  0
LINE
  5
6E8
  8
DETAIL
  6
DASHED
 10
428.687024
 20
-183.638592
 30
0.0
 11
450.387024
 21
-183.638592
 31
0.0
  0
LINE
  5
6E9
  8
DETAIL
  6
DASHED
 10
449.653315
 20
-169.638592
 30
0.0
 11
450.387024
 21
-183.638592
 31
0.0
  0
LINE
  5
6EA
  8
DETAIL
  6
DASHED
 10
429.473141
 20
-169.638592
 30
0.0
 11
449.600908
 21
-169.638592
 31
0.0
  0
LINE
  5
6EB
  8
DETAIL
  6
DASHED
 10
450.387024
 20
-183.638592
 30
0.0
 11
450.387024
 21
-198.138592
 31
0.0
  0
LINE
  5
6EC
  8
DETAIL
  6
DASHED
 10
428.687024
 20
-183.638592
 30
0.0
 11
428.687024
 21
-187.138592
 31
0.0
  0
LINE
  5
6ED
  8
DETAIL
  6
DASHED
 10
426.687024
 20
-189.138592
 30
0.0
 11
404.537024
 21
-189.138592
 31
0.0
  0
LINE
  5
6EE
  8
DETAIL
  6
DASHED
 10
440.387024
 20
-208.138592
 30
0.0
 11
404.537024
 21
-208.138592
 31
0.0
  0
ARC
  5
6EF
  8
DETAIL
  6
DASHED
 10
426.687024
 20
-187.138592
 30
0.0
 40
2.0
 50
270.0
 51
0.0
  0
ARC
  5
6F0
  8
DETAIL
  6
DASHED
 10
440.387024
 20
-198.138592
 30
0.0
 40
10.0
 50
270.0
 51
0.0
  0
LINE
  5
6F1
  8
DETAIL
  6
CONTINUOUS
 10
404.537024
 20
-94.481112
 30
0.0
 11
474.537024
 21
-96.481112
 31
0.0
  0
LINE
  5
6F2
  8
DETAIL
  6
CONTINUOUS
 10
404.537024
 20
-248.946362
 30
0.0
 11
470.229154
 21
-243.115188
 31
0.0
  0
POLYLINE
  5
6F3
  8
DETAIL
  6
CONTINUOUS
 66
     1
 10
0.0
 20
0.0
 30
0.0
  0
VERTEX
  5
8BC
  8
DETAIL
  6
CONTINUOUS
 10
474.537024
 20
-96.481112
 30
0.0
  0
VERTEX
  5
8BD
  8
DETAIL
  6
CONTINUOUS
 10
474.940887
 20
-125.123685
 30
0.0
  0
VERTEX
  5
8BE
  8
DETAIL
  6
CONTINUOUS
 10
474.890404
 20
-140.811326
 30
0.0
  0
VERTEX
  5
8BF
  8
DETAIL
  6
CONTINUOUS
 10
474.537024
 20
-158.138592
 30
0.0
  0
VERTEX
  5
8C0
  8
DETAIL
  6
CONTINUOUS
 10
474.537024
 20
-158.138592
 30
0.0
  0
VERTEX
  5
8C1
  8
DETAIL
  6
CONTINUOUS
 10
473.813437
 20
-177.469845
 30
0.0
  0
VERTEX
  5
8C2
  8
DETAIL
  6
CONTINUOUS
 10
472.786952
 20
-198.440723
 30
0.0
  0
VERTEX
  5
8C3
  8
DETAIL
  6
CONTINUOUS
 10
470.229154
 20
-243.115188
 30
0.0
  0
SEQEND
  5
8C6
  8
DETAIL
  6
CONTINUOUS
  0
LINE
  5
6FD
  8
DETAIL
  6
CONTINUOUS
 10
420.537024
 20
-114.714834
 30
0.0
 11
404.537024
 21
-100.638592
 31
0.0
  0
LINE
  5
6FE
  8
DETAIL
  6
CONTINUOUS
 10
420.537024
 20
-114.714834
 30
0.0
 11
420.537024
 21
-171.56235
 31
0.0
  0
LINE
  5
6FF
  8
DETAIL
  6
CONTINUOUS
 10
420.537024
 20
-171.56235
 30
0.0
 11
404.537024
 21
-185.638592
 31
0.0
  0
LINE
  5
700
  8
BASIS
  6
DASHDOT
 10
-102.0
 20
-258.3
 30
0.0
 11
-102.0
 21
-358.3
 31
0.0
  0
LINE
  5
701
  8
BASIS
  6
DASHDOT
 10
0.0
 20
67.7
 30
0.0
 11
0.0
 21
-364.3
 31
0.0
  0
LINE
  5
702
  8
SIZE
  6
CONTINUOUS
 62
    30
 10
30.0
 20
-41.000001
 30
0.0
 11
866.912338
 21
-41.000001
 31
0.0
  0
LINE
  5
703
  8
SIZE
  6
CONTINUOUS
 62
    30
 10
414.499991
 20
-0.3
 30
0.0
 11
866.912338
 21
-0.3
 31
0.0
  0
LINE
  5
704
  8
SIZE
  6
CONTINUOUS
 62
    30
 10
854.412338
 20
-31.000001
 30
0.0
 11
854.412338
 21
-10.3
 31
0.0
  0
CIRCLE
  5
705
  8
SIZE
  6
CONTINUOUS
 62
    30
 10
854.412338
 20
-41.000001
 30
0.0
 40
5.0
  0
LINE
  5
706
  8
SIZE
  6
CONTINUOUS
 62
    30
 10
854.412338
 20
-41.000001
 30
0.0
 11
854.412338
 21
-31.000001
 31
0.0
  0
CIRCLE
  5
707
  8
SIZE
  6
CONTINUOUS
 62
    30
 10
854.412338
 20
-0.3
 30
0.0
 40
5.0
  0
LINE
  5
708
  8
SIZE
  6
CONTINUOUS
 62
    30
 10
854.412338
 20
-0.3
 30
0.0
 11
854.412338
 21
-10.3
 31
0.0
  0
TEXT
  5
709
  8
SIZE
  6
CONTINUOUS
 62
    30
 10
844.412338
 20
-44.93571528571429
 30
0.0
 40
30.0
  1
41
 50
90.0
 72
     1
 11
844.412338
 21
-20.650001
 31
0.0
  0
POINT
  5
70A
  8
DEFPOINTS
  6
CONTINUOUS
 62
    30
 10
20.0
 20
-41.000001
 30
0.0
  0
POINT
  5
70B
  8
DEFPOINTS
  6
CONTINUOUS
 62
    30
 10
404.499991
 20
-0.3
 30
0.0
  0
POINT
  5
70C
  8
DEFPOINTS
  6
CONTINUOUS
 62
    30
 10
854.412338
 20
-0.3
 30
0.0
  0
LINE
  5
70D
  8
SIZE
  6
CONTINUOUS
 62
    30
 10
230.000006
 20
-332.299989
 30
0.0
 11
230.000006
 21
-641.0709489999999
 31
0.0
  0
LINE
  5
70E
  8
SIZE
  6
CONTINUOUS
 62
    30
 10
269.999991
 20
-332.299989
 30
0.0
 11
269.999991
 21
-641.0709489999999
 31
0.0
  0
LINE
  5
70F
  8
SIZE
  6
CONTINUOUS
 62
    30
 10
220.000006
 20
-628.5709489999999
 30
0.0
 11
210.000006
 21
-628.5709489999999
 31
0.0
  0
LINE
  5
710
  8
SIZE
  6
CONTINUOUS
 62
    30
 10
279.999991
 20
-628.5709489999999
 30
0.0
 11
289.999991
 21
-628.5709489999999
 31
0.0
  0
LINE
  5
711
  8
SIZE
  6
CONTINUOUS
 62
    30
 10
230.000006
 20
-628.5709489999999
 30
0.0
 11
269.999991
 21
-628.5709489999999
 31
0.0
  0
CIRCLE
  5
712
  8
SIZE
  6
CONTINUOUS
 62
    30
 10
230.000006
 20
-628.5709489999999
 30
0.0
 40
5.0
  0
LINE
  5
713
  8
SIZE
  6
CONTINUOUS
 62
    30
 10
230.000006
 20
-628.5709489999999
 30
0.0
 11
220.000006
 21
-628.5709489999999
 31
0.0
  0
CIRCLE
  5
714
  8
SIZE
  6
CONTINUOUS
 62
    30
 10
269.999991
 20
-628.5709489999999
 30
0.0
 40
5.0
  0
LINE
  5
715
  8
SIZE
  6
CONTINUOUS
 62
    30
 10
269.999991
 20
-628.5709489999999
 30
0.0
 11
279.999991
 21
-628.5709489999999
 31
0.0
  0
TEXT
  5
716
  8
SIZE
  6
CONTINUOUS
 62
    30
 10
221.4285694285714
 20
-618.5709489999999
 30
0.0
 40
30.0
  1
40
 72
     1
 11
249.999998
 21
-618.5709489999999
 31
0.0
  0
POINT
  5
717
  8
DEFPOINTS
  6
CONTINUOUS
 62
    30
 10
230.000006
 20
-322.299989
 30
0.0
  0
POINT
  5
718
  8
DEFPOINTS
  6
CONTINUOUS
 62
    30
 10
269.999991
 20
-322.299989
 30
0.0
  0
POINT
  5
719
  8
DEFPOINTS
  6
CONTINUOUS
 62
    30
 10
269.999991
 20
-628.5709489999999
 30
0.0
  0
LINE
  5
71A
  8
SIZE
  6
CONTINUOUS
 62
    30
 10
250.000006
 20
39.699999
 30
0.0
 11
250.000006
 21
316.261418
 31
0.0
  0
LINE
  5
71B
  8
SIZE
  6
CONTINUOUS
 62
    30
 10
-249.999994
 20
39.699999
 30
0.0
 11
-249.999994
 21
316.261418
 31
0.0
  0
LINE
  5
71C
  8
SIZE
  6
CONTINUOUS
 62
    30
 10
240.000006
 20
303.761418
 30
0.0
 11
-239.999994
 21
303.761418
 31
0.0
  0
CIRCLE
  5
71D
  8
SIZE
  6
CONTINUOUS
 62
    30
 10
250.000006
 20
303.761418
 30
0.0
 40
5.0
  0
LINE
  5
71E
  8
SIZE
  6
CONTINUOUS
 62
    30
 10
250.000006
 20
303.761418
 30
0.0
 11
240.000006
 21
303.761418
 31
0.0
  0
CIRCLE
  5
71F
  8
SIZE
  6
CONTINUOUS
 62
    30
 10
-249.999994
 20
303.761418
 30
0.0
 40
5.0
  0
LINE
  5
720
  8
SIZE
  6
CONTINUOUS
 62
    30
 10
-249.999994
 20
303.761418
 30
0.0
 11
-239.999994
 21
303.761418
 31
0.0
  0
TEXT
  5
721
  8
SIZE
  6
CONTINUOUS
 62
    30
 10
-42.85714385714286
 20
313.761418
 30
0.0
 40
30.0
  1
500
 72
     1
 11
-0.000001
 21
313.761418
 31
0.0
  0
POINT
  5
722
  8
DEFPOINTS
  6
CONTINUOUS
 62
    30
 10
250.000006
 20
29.699999
 30
0.0
  0
POINT
  5
723
  8
DEFPOINTS
  6
CONTINUOUS
 62
    30
 10
-249.999994
 20
29.699999
 30
0.0
  0
POINT
  5
724
  8
DEFPOINTS
  6
CONTINUOUS
 62
    30
 10
-249.999994
 20
303.761418
 30
0.0
  0
LINE
  5
725
  8
SIZE
  6
CONTINUOUS
 62
    30
 10
439.537039
 20
-123.638582
 30
0.0
 11
439.537039
 21
314.261418
 31
0.0
  0
LINE
  5
726
  8
SIZE
  6
CONTINUOUS
 62
    30
 10
404.537039
 20
-25.638589
 30
0.0
 11
404.537039
 21
314.261418
 31
0.0
  0
LINE
  5
727
  8
SIZE
  6
CONTINUOUS
 62
    30
 10
449.537039
 20
301.761418
 30
0.0
 11
459.537039
 21
301.761418
 31
0.0
  0
LINE
  5
728
  8
SIZE
  6
CONTINUOUS
 62
    30
 10
394.537039
 20
301.761418
 30
0.0
 11
282.474578
 21
301.761418
 31
0.0
  0
LINE
  5
729
  8
SIZE
  6
CONTINUOUS
 62
    30
 10
439.537039
 20
301.761418
 30
0.0
 11
404.537039
 21
301.761418
 31
0.0
  0
CIRCLE
  5
72A
  8
SIZE
  6
CONTINUOUS
 62
    30
 10
439.537039
 20
301.761418
 30
0.0
 40
5.0
  0
LINE
  5
72B
  8
SIZE
  6
CONTINUOUS
 62
    30
 10
439.537039
 20
301.761418
 30
0.0
 11
449.537039
 21
301.761418
 31
0.0
  0
CIRCLE
  5
72C
  8
SIZE
  6
CONTINUOUS
 62
    30
 10
404.537039
 20
301.761418
 30
0.0
 40
5.0
  0
LINE
  5
72D
  8
SIZE
  6
CONTINUOUS
 62
    30
 10
404.537039
 20
301.761418
 30
0.0
 11
394.537039
 21
301.761418
 31
0.0
  0
TEXT
  5
72E
  8
SIZE
  6
CONTINUOUS
 62
    30
 10
288.9031494285715
 20
311.761418
 30
0.0
 40
30.0
  1
35
 72
     1
 11
317.474578
 21
311.761418
 31
0.0
  0
POINT
  5
72F
  8
DEFPOINTS
  6
CONTINUOUS
 62
    30
 10
439.537039
 20
-133.638582
 30
0.0
  0
POINT
  5
730
  8
DEFPOINTS
  6
CONTINUOUS
 62
    30
 10
404.537039
 20
-35.638589
 30
0.0
  0
POINT
  5
731
  8
DEFPOINTS
  6
CONTINUOUS
 62
    30
 10
404.537039
 20
301.761418
 30
0.0
  0
LINE
  5
732
  8
SIZE
  6
CONTINUOUS
 62
    30
 10
404.537039
 20
-25.638589
 30
0.0
 11
404.537039
 21
461.9320729999999
 31
0.0
  0
LINE
  5
733
  8
SIZE
  6
CONTINUOUS
 62
    30
 10
474.537039
 20
-86.481111
 30
0.0
 11
474.537039
 21
461.9320729999999
 31
0.0
  0
LINE
  5
734
  8
SIZE
  6
CONTINUOUS
 62
    30
 10
414.537039
 20
449.4320729999999
 30
0.0
 11
464.537039
 21
449.4320729999999
 31
0.0
  0
CIRCLE
  5
735
  8
SIZE
  6
CONTINUOUS
 62
    30
 10
404.537039
 20
449.4320729999999
 30
0.0
 40
5.0
  0
LINE
  5
736
  8
SIZE
  6
CONTINUOUS
 62
    30
 10
404.537039
 20
449.4320729999999
 30
0.0
 11
414.537039
 21
449.4320729999999
 31
0.0
  0
CIRCLE
  5
737
  8
SIZE
  6
CONTINUOUS
 62
    30
 10
474.537039
 20
449.4320729999999
 30
0.0
 40
5.0
  0
LINE
  5
738
  8
SIZE
  6
CONTINUOUS
 62
    30
 10
474.537039
 20
449.4320729999999
 30
0.0
 11
464.537039
 21
449.4320729999999
 31
0.0
  0
TEXT
  5
739
  8
SIZE
  6
CONTINUOUS
 62
    30
 10
410.9656104285714
 20
459.4320729999999
 30
0.0
 40
30.0
  1
70
 72
     1
 11
439.537039
 21
459.4320729999999
 31
0.0
  0
POINT
  5
73A
  8
DEFPOINTS
  6
CONTINUOUS
 62
    30
 10
404.537039
 20
-35.638589
 30
0.0
  0
POINT
  5
73B
  8
DEFPOINTS
  6
CONTINUOUS
 62
    30
 10
474.537039
 20
-96.481111
 30
0.0
  0
POINT
  5
73C
  8
DEFPOINTS
  6
CONTINUOUS
 62
    30
 10
474.537039
 20
449.4320729999999
 30
0.0
  0
LINE
  5
73D
  8
SIZE
  6
CONTINUOUS
 62
    30
 10
-404.500009
 20
9.7
 30
0.0
 11
-404.500009
 21
316.261418
 31
0.0
  0
LINE
  5
73E
  8
SIZE
  6
CONTINUOUS
 62
    30
 10
-425.500009
 20
-111.775064
 30
0.0
 11
-425.500009
 21
316.261418
 31
0.0
  0
LINE
  5
73F
  8
SIZE
  6
CONTINUOUS
 62
    30
 10
-394.500009
 20
303.761418
 30
0.0
 11
-384.500009
 21
303.761418
 31
0.0
  0
LINE
  5
740
  8
SIZE
  6
CONTINUOUS
 62
    30
 10
-435.500009
 20
303.761418
 30
0.0
 11
-526.474131
 21
303.761418
 31
0.0
  0
LINE
  5
741
  8
SIZE
  6
CONTINUOUS
 62
    30
 10
-404.500009
 20
303.761418
 30
0.0
 11
-425.500009
 21
303.761418
 31
0.0
  0
CIRCLE
  5
742
  8
SIZE
  6
CONTINUOUS
 62
    30
 10
-404.500009
 20
303.761418
 30
0.0
 40
5.0
  0
LINE
  5
743
  8
SIZE
  6
CONTINUOUS
 62
    30
 10
-404.500009
 20
303.761418
 30
0.0
 11
-394.500009
 21
303.761418
 31
0.0
  0
CIRCLE
  5
744
  8
SIZE
  6
CONTINUOUS
 62
    30
 10
-425.500009
 20
303.761418
 30
0.0
 40
5.0
  0
LINE
  5
745
  8
SIZE
  6
CONTINUOUS
 62
    30
 10
-425.500009
 20
303.761418
 30
0.0
 11
-435.500009
 21
303.761418
 31
0.0
  0
TEXT
  5
746
  8
SIZE
  6
CONTINUOUS
 62
    30
 10
-520.7598452857143
 20
313.761418
 30
0.0
 40
30.0
  1
21
 72
     1
 11
-496.474131
 21
313.761418
 31
0.0
  0
POINT
  5
747
  8
DEFPOINTS
  6
CONTINUOUS
 62
    30
 10
-404.500009
 20
-0.3
 30
0.0
  0
POINT
  5
748
  8
DEFPOINTS
  6
CONTINUOUS
 62
    30
 10
-425.500009
 20
-121.775064
 30
0.0
  0
POINT
  5
749
  8
DEFPOINTS
  6
CONTINUOUS
 62
    30
 10
-425.500009
 20
303.761418
 30
0.0
  0
LINE
  5
74A
  8
SIZE
  6
CONTINUOUS
 62
    30
 10
404.499991
 20
109.700003
 30
0.0
 11
404.499991
 21
462.9320729999999
 31
0.0
  0
LINE
  5
74B
  8
SIZE
  6
CONTINUOUS
 62
    30
 10
-404.500009
 20
9.7
 30
0.0
 11
-404.500009
 21
462.9320729999999
 31
0.0
  0
LINE
  5
74C
  8
SIZE
  6
CONTINUOUS
 62
    30
 10
394.499991
 20
450.4320729999999
 30
0.0
 11
-394.500009
 21
450.4320729999999
 31
0.0
  0
CIRCLE
  5
74D
  8
SIZE
  6
CONTINUOUS
 62
    30
 10
404.499991
 20
450.4320729999999
 30
0.0
 40
5.0
  0
LINE
  5
74E
  8
SIZE
  6
CONTINUOUS
 62
    30
 10
404.499991
 20
450.4320729999999
 30
0.0
 11
394.499991
 21
450.4320729999999
 31
0.0
  0
CIRCLE
  5
74F
  8
SIZE
  6
CONTINUOUS
 62
    30
 10
-404.500009
 20
450.4320729999999
 30
0.0
 40
5.0
  0
LINE
  5
750
  8
SIZE
  6
CONTINUOUS
 62
    30
 10
-404.500009
 20
450.4320729999999
 30
0.0
 11
-394.500009
 21
450.4320729999999
 31
0.0
  0
TEXT
  5
751
  8
SIZE
  6
CONTINUOUS
 62
    30
 10
-42.14285814285714
 20
460.4320729999999
 30
0.0
 40
30.0
  1
809
 72
     1
 11
-0.000001
 21
460.4320729999999
 31
0.0
  0
POINT
  5
752
  8
DEFPOINTS
  6
CONTINUOUS
 62
    30
 10
404.499991
 20
99.700003
 30
0.0
  0
POINT
  5
753
  8
DEFPOINTS
  6
CONTINUOUS
 62
    30
 10
-404.500009
 20
-0.3
 30
0.0
  0
POINT
  5
754
  8
DEFPOINTS
  6
CONTINUOUS
 62
    30
 10
-404.500009
 20
450.4320729999999
 30
0.0
  0
LINE
  5
755
  8
SIZE
  6
CONTINUOUS
 62
    30
 10
404.499991
 20
109.700003
 30
0.0
 11
404.499991
 21
624.3677720000001
 31
0.0
  0
LINE
  5
756
  8
SIZE
  6
CONTINUOUS
 62
    30
 10
-554.499979
 20
109.700003
 30
0.0
 11
-554.499979
 21
624.3677720000001
 31
0.0
  0
LINE
  5
757
  8
SIZE
  6
CONTINUOUS
 62
    30
 10
394.499991
 20
611.8677720000001
 30
0.0
 11
-544.499979
 21
611.8677720000001
 31
0.0
  0
CIRCLE
  5
758
  8
SIZE
  6
CONTINUOUS
 62
    30
 10
404.499991
 20
611.8677720000001
 30
0.0
 40
5.0
  0
LINE
  5
759
  8
SIZE
  6
CONTINUOUS
 62
    30
 10
404.499991
 20
611.8677720000001
 30
0.0
 11
394.499991
 21
611.8677720000001
 31
0.0
  0
CIRCLE
  5
75A
  8
SIZE
  6
CONTINUOUS
 62
    30
 10
-554.499979
 20
611.8677720000001
 30
0.0
 40
5.0
  0
LINE
  5
75B
  8
SIZE
  6
CONTINUOUS
 62
    30
 10
-554.499979
 20
611.8677720000001
 30
0.0
 11
-544.499979
 21
611.8677720000001
 31
0.0
  0
TEXT
  5
75C
  8
SIZE
  6
CONTINUOUS
 62
    30
 10
-117.1428591428571
 20
621.8677720000001
 30
0.0
 40
30.0
  1
959
 72
     1
 11
-75.000002
 21
621.8677720000001
 31
0.0
  0
POINT
  5
75D
  8
DEFPOINTS
  6
CONTINUOUS
 62
    30
 10
404.499991
 20
99.700003
 30
0.0
  0
POINT
  5
75E
  8
DEFPOINTS
  6
CONTINUOUS
 62
    30
 10
-554.499979
 20
99.700003
 30
0.0
  0
POINT
  5
75F
  8
DEFPOINTS
  6
CONTINUOUS
 62
    30
 10
-554.499979
 20
611.8677720000001
 30
0.0
  0
LINE
  5
760
  8
SIZE
  6
CONTINUOUS
 62
    30
 10
-404.500009
 20
9.7
 30
0.0
 11
-404.500009
 21
316.261418
 31
0.0
  0
LINE
  5
761
  8
SIZE
  6
CONTINUOUS
 62
    30
 10
-249.999994
 20
39.699999
 30
0.0
 11
-249.999994
 21
316.261418
 31
0.0
  0
LINE
  5
762
  8
SIZE
  6
CONTINUOUS
 62
    30
 10
-394.500009
 20
303.761418
 30
0.0
 11
-259.999994
 21
303.761418
 31
0.0
  0
CIRCLE
  5
763
  8
SIZE
  6
CONTINUOUS
 62
    30
 10
-404.500009
 20
303.761418
 30
0.0
 40
5.0
  0
LINE
  5
764
  8
SIZE
  6
CONTINUOUS
 62
    30
 10
-404.500009
 20
303.761418
 30
0.0
 11
-394.500009
 21
303.761418
 31
0.0
  0
CIRCLE
  5
765
  8
SIZE
  6
CONTINUOUS
 62
    30
 10
-249.999994
 20
303.761418
 30
0.0
 40
5.0
  0
LINE
  5
766
  8
SIZE
  6
CONTINUOUS
 62
    30
 10
-249.999994
 20
303.761418
 30
0.0
 11
-259.999994
 21
303.761418
 31
0.0
  0
TEXT
  5
767
  8
SIZE
  6
CONTINUOUS
 62
    30
 10
-372.25001
 20
313.761418
 30
0.0
 40
30.0
  1
155
 72
     1
 11
-327.25001
 21
313.761418
 31
0.0
  0
POINT
  5
768
  8
DEFPOINTS
  6
CONTINUOUS
 62
    30
 10
-404.500009
 20
-0.3
 30
0.0
  0
POINT
  5
769
  8
DEFPOINTS
  6
CONTINUOUS
 62
    30
 10
-249.999994
 20
29.699999
 30
0.0
  0
POINT
  5
76A
  8
DEFPOINTS
  6
CONTINUOUS
 62
    30
 10
-249.999994
 20
303.761418
 30
0.0
  0
LINE
  5
76B
  8
SIZE
  6
CONTINUOUS
 62
    30
 10
-554.499979
 20
109.700003
 30
0.0
 11
-554.499979
 21
462.9320729999999
 31
0.0
  0
LINE
  5
76C
  8
SIZE
  6
CONTINUOUS
 62
    30
 10
-404.500009
 20
9.7
 30
0.0
 11
-404.500009
 21
462.9320729999999
 31
0.0
  0
LINE
  5
76D
  8
SIZE
  6
CONTINUOUS
 62
    30
 10
-544.499979
 20
450.4320729999999
 30
0.0
 11
-414.500009
 21
450.4320729999999
 31
0.0
  0
CIRCLE
  5
76E
  8
SIZE
  6
CONTINUOUS
 62
    30
 10
-554.499979
 20
450.4320729999999
 30
0.0
 40
5.0
  0
LINE
  5
76F
  8
SIZE
  6
CONTINUOUS
 62
    30
 10
-554.499979
 20
450.4320729999999
 30
0.0
 11
-544.499979
 21
450.4320729999999
 31
0.0
  0
CIRCLE
  5
770
  8
SIZE
  6
CONTINUOUS
 62
    30
 10
-404.500009
 20
450.4320729999999
 30
0.0
 40
5.0
  0
LINE
  5
771
  8
SIZE
  6
CONTINUOUS
 62
    30
 10
-404.500009
 20
450.4320729999999
 30
0.0
 11
-414.500009
 21
450.4320729999999
 31
0.0
  0
TEXT
  5
772
  8
SIZE
  6
CONTINUOUS
 62
    30
 10
-524.50001
 20
460.4320729999999
 30
0.0
 40
30.0
  1
150
 72
     1
 11
-479.50001
 21
460.4320729999999
 31
0.0
  0
POINT
  5
773
  8
DEFPOINTS
  6
CONTINUOUS
 62
    30
 10
-554.499979
 20
99.700003
 30
0.0
  0
POINT
  5
774
  8
DEFPOINTS
  6
CONTINUOUS
 62
    30
 10
-404.500009
 20
-0.3
 30
0.0
  0
POINT
  5
775
  8
DEFPOINTS
  6
CONTINUOUS
 62
    30
 10
-404.500009
 20
450.4320729999999
 30
0.0
  0
LINE
  5
776
  8
SIZE
  6
CONTINUOUS
 62
    30
 10
-564.499979
 20
-0.3
 30
0.0
 11
-819.784317
 21
-0.3
 31
0.0
  0
LINE
  5
777
  8
SIZE
  6
CONTINUOUS
 62
    30
 10
-559.999979
 20
99.700003
 30
0.0
 11
-819.784317
 21
99.700003
 31
0.0
  0
LINE
  5
778
  8
SIZE
  6
CONTINUOUS
 62
    30
 10
-807.284317
 20
9.7
 30
0.0
 11
-807.284317
 21
89.700003
 31
0.0
  0
CIRCLE
  5
779
  8
SIZE
  6
CONTINUOUS
 62
    30
 10
-807.284317
 20
-0.3
 30
0.0
 40
5.0
  0
LINE
  5
77A
  8
SIZE
  6
CONTINUOUS
 62
    30
 10
-807.284317
 20
-0.3
 30
0.0
 11
-807.284317
 21
9.7
 31
0.0
  0
CIRCLE
  5
77B
  8
SIZE
  6
CONTINUOUS
 62
    30
 10
-807.284317
 20
99.700003
 30
0.0
 40
5.0
  0
LINE
  5
77C
  8
SIZE
  6
CONTINUOUS
 62
    30
 10
-807.284317
 20
99.700003
 30
0.0
 11
-807.284317
 21
89.700003
 31
0.0
  0
TEXT
  5
77D
  8
SIZE
  6
CONTINUOUS
 62
    30
 10
-817.284317
 20
4.699998999999998
 30
0.0
 40
30.0
  1
100
 50
90.0
 72
     1
 11
-817.284317
 21
49.699999
 31
0.0
  0
POINT
  5
77E
  8
DEFPOINTS
  6
CONTINUOUS
 62
    30
 10
-554.499979
 20
-0.3
 30
0.0
  0
POINT
  5
77F
  8
DEFPOINTS
  6
CONTINUOUS
 62
    30
 10
-549.999979
 20
99.700003
 30
0.0
  0
POINT
  5
780
  8
DEFPOINTS
  6
CONTINUOUS
 62
    30
 10
-807.284317
 20
99.700003
 30
0.0
  0
LINE
  5
781
  8
SIZE
  6
CONTINUOUS
 62
    30
 10
-564.499979
 20
-300.299989
 30
0.0
 11
-819.784317
 21
-300.299989
 31
0.0
  0
LINE
  5
782
  8
SIZE
  6
CONTINUOUS
 62
    30
 10
-564.499979
 20
-0.3
 30
0.0
 11
-819.784317
 21
-0.3
 31
0.0
  0
LINE
  5
783
  8
SIZE
  6
CONTINUOUS
 62
    30
 10
-807.284317
 20
-290.299989
 30
0.0
 11
-807.284317
 21
-10.3
 31
0.0
  0
CIRCLE
  5
784
  8
SIZE
  6
CONTINUOUS
 62
    30
 10
-807.284317
 20
-300.299989
 30
0.0
 40
5.0
  0
LINE
  5
785
  8
SIZE
  6
CONTINUOUS
 62
    30
 10
-807.284317
 20
-300.299989
 30
0.0
 11
-807.284317
 21
-290.299989
 31
0.0
  0
CIRCLE
  5
786
  8
SIZE
  6
CONTINUOUS
 62
    30
 10
-807.284317
 20
-0.3
 30
0.0
 40
5.0
  0
LINE
  5
787
  8
SIZE
  6
CONTINUOUS
 62
    30
 10
-807.284317
 20
-0.3
 30
0.0
 11
-807.284317
 21
-10.3
 31
0.0
  0
TEXT
  5
788
  8
SIZE
  6
CONTINUOUS
 62
    30
 10
-817.284317
 20
-193.1571478571429
 30
0.0
 40
30.0
  1
300
 50
90.0
 72
     1
 11
-817.284317
 21
-150.300005
 31
0.0
  0
POINT
  5
789
  8
DEFPOINTS
  6
CONTINUOUS
 62
    30
 10
-554.499979
 20
-300.299989
 30
0.0
  0
POINT
  5
78A
  8
DEFPOINTS
  6
CONTINUOUS
 62
    30
 10
-554.499979
 20
-0.3
 30
0.0
  0
POINT
  5
78B
  8
DEFPOINTS
  6
CONTINUOUS
 62
    30
 10
-807.284317
 20
-0.3
 30
0.0
  0
LINE
  5
78C
  8
SIZE
  6
CONTINUOUS
 62
    30
 10
-559.999979
 20
-500.299989
 30
0.0
 11
-819.784317
 21
-500.299989
 31
0.0
  0
LINE
  5
78D
  8
SIZE
  6
CONTINUOUS
 62
    30
 10
-564.499979
 20
-300.299989
 30
0.0
 11
-819.784317
 21
-300.299989
 31
0.0
  0
LINE
  5
78E
  8
SIZE
  6
CONTINUOUS
 62
    30
 10
-807.284317
 20
-490.299989
 30
0.0
 11
-807.284317
 21
-310.299989
 31
0.0
  0
CIRCLE
  5
78F
  8
SIZE
  6
CONTINUOUS
 62
    30
 10
-807.284317
 20
-500.299989
 30
0.0
 40
5.0
  0
LINE
  5
790
  8
SIZE
  6
CONTINUOUS
 62
    30
 10
-807.284317
 20
-500.299989
 30
0.0
 11
-807.284317
 21
-490.299989
 31
0.0
  0
CIRCLE
  5
791
  8
SIZE
  6
CONTINUOUS
 62
    30
 10
-807.284317
 20
-300.299989
 30
0.0
 40
5.0
  0
LINE
  5
792
  8
SIZE
  6
CONTINUOUS
 62
    30
 10
-807.284317
 20
-300.299989
 30
0.0
 11
-807.284317
 21
-310.299989
 31
0.0
  0
TEXT
  5
793
  8
SIZE
  6
CONTINUOUS
 62
    30
 10
-817.284317
 20
-443.1571318571429
 30
0.0
 40
30.0
  1
200
 50
90.0
 72
     1
 11
-817.284317
 21
-400.299989
 31
0.0
  0
POINT
  5
794
  8
DEFPOINTS
  6
CONTINUOUS
 62
    30
 10
-549.999979
 20
-500.299989
 30
0.0
  0
POINT
  5
795
  8
DEFPOINTS
  6
CONTINUOUS
 62
    30
 10
-554.499979
 20
-300.299989
 30
0.0
  0
POINT
  5
796
  8
DEFPOINTS
  6
CONTINUOUS
 62
    30
 10
-807.284317
 20
-300.299989
 30
0.0
  0
LINE
  5
797
  8
SIZE
  6
CONTINUOUS
 62
    30
 10
-280.000009
 20
-320.299989
 30
0.0
 11
-919.784317
 21
-320.299989
 31
0.0
  0
LINE
  5
798
  8
SIZE
  6
CONTINUOUS
 62
    30
 10
-280.000009
 20
9.7
 30
0.0
 11
-919.784317
 21
9.7
 31
0.0
  0
LINE
  5
799
  8
SIZE
  6
CONTINUOUS
 62
    30
 10
-907.284317
 20
-310.299989
 30
0.0
 11
-907.284317
 21
-0.3
 31
0.0
  0
CIRCLE
  5
79A
  8
SIZE
  6
CONTINUOUS
 62
    30
 10
-907.284317
 20
-320.299989
 30
0.0
 40
5.0
  0
LINE
  5
79B
  8
SIZE
  6
CONTINUOUS
 62
    30
 10
-907.284317
 20
-320.299989
 30
0.0
 11
-907.284317
 21
-310.299989
 31
0.0
  0
CIRCLE
  5
79C
  8
SIZE
  6
CONTINUOUS
 62
    30
 10
-907.284317
 20
9.7
 30
0.0
 40
5.0
  0
LINE
  5
79D
  8
SIZE
  6
CONTINUOUS
 62
    30
 10
-907.284317
 20
9.7
 30
0.0
 11
-907.284317
 21
-0.3
 31
0.0
  0
TEXT
  5
79E
  8
SIZE
  6
CONTINUOUS
 62
    30
 10
-917.284317
 20
-198.1571478571429
 30
0.0
 40
30.0
  1
330
 50
90.0
 72
     1
 11
-917.284317
 21
-155.300005
 31
0.0
  0
POINT
  5
79F
  8
DEFPOINTS
  6
CONTINUOUS
 62
    30
 10
-270.000009
 20
-320.299989
 30
0.0
  0
POINT
  5
7A0
  8
DEFPOINTS
  6
CONTINUOUS
 62
    30
 10
-270.000009
 20
9.7
 30
0.0
  0
POINT
  5
7A1
  8
DEFPOINTS
  6
CONTINUOUS
 62
    30
 10
-907.284317
 20
9.7
 30
0.0
  0
LINE
  5
7A2
  8
SIZE
  6
CONTINUOUS
 62
    30
 10
-270.000009
 20
-332.299989
 30
0.0
 11
-1019.784317
 21
-332.299989
 31
0.0
  0
LINE
  5
7A3
  8
SIZE
  6
CONTINUOUS
 62
    30
 10
-272.500009
 20
27.699999
 30
0.0
 11
-1019.784317
 21
27.699999
 31
0.0
  0
LINE
  5
7A4
  8
SIZE
  6
CONTINUOUS
 62
    30
 10
-1007.284317
 20
-322.299989
 30
0.0
 11
-1007.284317
 21
17.699999
 31
0.0
  0
CIRCLE
  5
7A5
  8
SIZE
  6
CONTINUOUS
 62
    30
 10
-1007.284317
 20
-332.299989
 30
0.0
 40
5.0
  0
LINE
  5
7A6
  8
SIZE
  6
CONTINUOUS
 62
    30
 10
-1007.284317
 20
-332.299989
 30
0.0
 11
-1007.284317
 21
-322.299989
 31
0.0
  0
CIRCLE
  5
7A7
  8
SIZE
  6
CONTINUOUS
 62
    30
 10
-1007.284317
 20
27.699999
 30
0.0
 40
5.0
  0
LINE
  5
7A8
  8
SIZE
  6
CONTINUOUS
 62
    30
 10
-1007.284317
 20
27.699999
 30
0.0
 11
-1007.284317
 21
17.699999
 31
0.0
  0
TEXT
  5
7A9
  8
SIZE
  6
CONTINUOUS
 62
    30
 10
-1017.284317
 20
-195.1571478571429
 30
0.0
 40
30.0
  1
360
 50
90.0
 72
     1
 11
-1017.284317
 21
-152.300005
 31
0.0
  0
POINT
  5
7AA
  8
DEFPOINTS
  6
CONTINUOUS
 62
    30
 10
-260.000009
 20
-332.299989
 30
0.0
  0
POINT
  5
7AB
  8
DEFPOINTS
  6
CONTINUOUS
 62
    30
 10
-262.500009
 20
27.699999
 30
0.0
  0
POINT
  5
7AC
  8
DEFPOINTS
  6
CONTINUOUS
 62
    30
 10
-1007.284317
 20
27.699999
 30
0.0
  0
LINE
  5
7AD
  8
SIZE
  6
CONTINUOUS
 62
    30
 10
-404.500009
 20
-304.299989
 30
0.0
 11
-404.500009
 21
-641.0709489999999
 31
0.0
  0
LINE
  5
7AE
  8
SIZE
  6
CONTINUOUS
 62
    30
 10
-102.000002
 20
-368.299989
 30
0.0
 11
-102.000002
 21
-641.0709489999999
 31
0.0
  0
LINE
  5
7AF
  8
SIZE
  6
CONTINUOUS
 62
    30
 10
-394.500009
 20
-628.5709489999999
 30
0.0
 11
-112.000002
 21
-628.5709489999999
 31
0.0
  0
CIRCLE
  5
7B0
  8
SIZE
  6
CONTINUOUS
 62
    30
 10
-404.500009
 20
-628.5709489999999
 30
0.0
 40
5.0
  0
LINE
  5
7B1
  8
SIZE
  6
CONTINUOUS
 62
    30
 10
-404.500009
 20
-628.5709489999999
 30
0.0
 11
-394.500009
 21
-628.5709489999999
 31
0.0
  0
CIRCLE
  5
7B2
  8
SIZE
  6
CONTINUOUS
 62
    30
 10
-102.000002
 20
-628.5709489999999
 30
0.0
 40
5.0
  0
LINE
  5
7B3
  8
SIZE
  6
CONTINUOUS
 62
    30
 10
-102.000002
 20
-628.5709489999999
 30
0.0
 11
-112.000002
 21
-628.5709489999999
 31
0.0
  0
TEXT
  5
7B4
  8
SIZE
  6
CONTINUOUS
 62
    30
 10
-296.1071368571429
 20
-618.5709489999999
 30
0.0
 40
30.0
  1
303
 72
     1
 11
-253.249994
 21
-618.5709489999999
 31
0.0
  0
POINT
  5
7B5
  8
DEFPOINTS
  6
CONTINUOUS
 62
    30
 10
-404.500009
 20
-294.299989
 30
0.0
  0
POINT
  5
7B6
  8
DEFPOINTS
  6
CONTINUOUS
 62
    30
 10
-102.000002
 20
-358.299989
 30
0.0
  0
POINT
  5
7B7
  8
DEFPOINTS
  6
CONTINUOUS
 62
    30
 10
-102.000002
 20
-628.5709489999999
 30
0.0
  0
LINE
  5
7B8
  8
SIZE
  6
CONTINUOUS
 62
    30
 10
404.499991
 20
-510.299989
 30
0.0
 11
404.499991
 21
-741.0709489999999
 31
0.0
  0
LINE
  5
7B9
  8
SIZE
  6
CONTINUOUS
 62
    30
 10
-554.499979
 20
89.700003
 30
0.0
 11
-554.499979
 21
-741.0709489999999
 31
0.0
  0
LINE
  5
7BA
  8
SIZE
  6
CONTINUOUS
 62
    30
 10
394.499991
 20
-728.5709489999999
 30
0.0
 11
-544.499979
 21
-728.5709489999999
 31
0.0
  0
CIRCLE
  5
7BB
  8
SIZE
  6
CONTINUOUS
 62
    30
 10
404.499991
 20
-728.5709489999999
 30
0.0
 40
5.0
  0
LINE
  5
7BC
  8
SIZE
  6
CONTINUOUS
 62
    30
 10
404.499991
 20
-728.5709489999999
 30
0.0
 11
394.499991
 21
-728.5709489999999
 31
0.0
  0
CIRCLE
  5
7BD
  8
SIZE
  6
CONTINUOUS
 62
    30
 10
-554.499979
 20
-728.5709489999999
 30
0.0
 40
5.0
  0
LINE
  5
7BE
  8
SIZE
  6
CONTINUOUS
 62
    30
 10
-554.499979
 20
-728.5709489999999
 30
0.0
 11
-544.499979
 21
-728.5709489999999
 31
0.0
  0
TEXT
  5
7BF
  8
SIZE
  6
CONTINUOUS
 62
    30
 10
-117.1428591428571
 20
-718.5709489999999
 30
0.0
 40
30.0
  1
959
 72
     1
 11
-75.000002
 21
-718.5709489999999
 31
0.0
  0
POINT
  5
7C0
  8
DEFPOINTS
  6
CONTINUOUS
 62
    30
 10
404.499991
 20
-500.299989
 30
0.0
  0
POINT
  5
7C1
  8
DEFPOINTS
  6
CONTINUOUS
 62
    30
 10
-554.499979
 20
99.700003
 30
0.0
  0
POINT
  5
7C2
  8
DEFPOINTS
  6
CONTINUOUS
 62
    30
 10
-554.499979
 20
-728.5709489999999
 30
0.0
  0
LINE
  5
7C3
  8
SIZE
  6
CONTINUOUS
 62
    30
 10
704.500021
 20
-510.299989
 30
0.0
 11
704.500021
 21
-741.0709489999999
 31
0.0
  0
LINE
  5
7C4
  8
SIZE
  6
CONTINUOUS
 62
    30
 10
404.499991
 20
-510.299989
 30
0.0
 11
404.499991
 21
-741.0709489999999
 31
0.0
  0
LINE
  5
7C5
  8
SIZE
  6
CONTINUOUS
 62
    30
 10
694.500021
 20
-728.5709489999999
 30
0.0
 11
414.499991
 21
-728.5709489999999
 31
0.0
  0
CIRCLE
  5
7C6
  8
SIZE
  6
CONTINUOUS
 62
    30
 10
704.500021
 20
-728.5709489999999
 30
0.0
 40
5.0
  0
LINE
  5
7C7
  8
SIZE
  6
CONTINUOUS
 62
    30
 10
704.500021
 20
-728.5709489999999
 30
0.0
 11
694.500021
 21
-728.5709489999999
 31
0.0
  0
CIRCLE
  5
7C8
  8
SIZE
  6
CONTINUOUS
 62
    30
 10
404.499991
 20
-728.5709489999999
 30
0.0
 40
5.0
  0
LINE
  5
7C9
  8
SIZE
  6
CONTINUOUS
 62
    30
 10
404.499991
 20
-728.5709489999999
 30
0.0
 11
414.499991
 21
-728.5709489999999
 31
0.0
  0
TEXT
  5
7CA
  8
SIZE
  6
CONTINUOUS
 62
    30
 10
511.6428781428571
 20
-718.5709489999999
 30
0.0
 40
30.0
  1
300
 72
     1
 11
554.500021
 21
-718.5709489999999
 31
0.0
  0
POINT
  5
7CB
  8
DEFPOINTS
  6
CONTINUOUS
 62
    30
 10
704.500021
 20
-500.299989
 30
0.0
  0
POINT
  5
7CC
  8
DEFPOINTS
  6
CONTINUOUS
 62
    30
 10
404.499991
 20
-500.299989
 30
0.0
  0
POINT
  5
7CD
  8
DEFPOINTS
  6
CONTINUOUS
 62
    30
 10
404.499991
 20
-728.5709489999999
 30
0.0
  0
LINE
  5
7CE
  8
SIZE
  6
CONTINUOUS
 62
    30
 10
469.537039
 20
-169.638597
 30
0.0
 11
866.912338
 21
-169.638597
 31
0.0
  0
LINE
  5
7CF
  8
SIZE
  6
CONTINUOUS
 62
    30
 10
269.999991
 20
-332.299989
 30
0.0
 11
866.912338
 21
-332.299989
 31
0.0
  0
LINE
  5
7D0
  8
SIZE
  6
CONTINUOUS
 62
    30
 10
854.412338
 20
-179.638597
 30
0.0
 11
854.412338
 21
-322.299989
 31
0.0
  0
CIRCLE
  5
7D1
  8
SIZE
  6
CONTINUOUS
 62
    30
 10
854.412338
 20
-169.638597
 30
0.0
 40
5.0
  0
LINE
  5
7D2
  8
SIZE
  6
CONTINUOUS
 62
    30
 10
854.412338
 20
-169.638597
 30
0.0
 11
854.412338
 21
-179.638597
 31
0.0
  0
CIRCLE
  5
7D3
  8
SIZE
  6
CONTINUOUS
 62
    30
 10
854.412338
 20
-332.299989
 30
0.0
 40
5.0
  0
LINE
  5
7D4
  8
SIZE
  6
CONTINUOUS
 62
    30
 10
854.412338
 20
-332.299989
 30
0.0
 11
854.412338
 21
-322.299989
 31
0.0
  0
TEXT
  5
7D5
  8
SIZE
  6
CONTINUOUS
 62
    30
 10
844.412338
 20
-295.969301
 30
0.0
 40
30.0
  1
163
 50
90.0
 72
     1
 11
844.412338
 21
-250.969301
 31
0.0
  0
POINT
  5
7D6
  8
DEFPOINTS
  6
CONTINUOUS
 62
    30
 10
459.537039
 20
-169.638597
 30
0.0
  0
POINT
  5
7D7
  8
DEFPOINTS
  6
CONTINUOUS
 62
    30
 10
259.999991
 20
-332.299989
 30
0.0
  0
POINT
  5
7D8
  8
DEFPOINTS
  6
CONTINUOUS
 62
    30
 10
854.412338
 20
-332.299989
 30
0.0
  0
LINE
  5
7D9
  8
SIZE
  6
CONTINUOUS
 62
    30
 10
469.537039
 20
-154.638597
 30
0.0
 11
966.912338
 21
-154.638597
 31
0.0
  0
LINE
  5
7DA
  8
SIZE
  6
CONTINUOUS
 62
    30
 10
269.999991
 20
-332.299989
 30
0.0
 11
966.912338
 21
-332.299989
 31
0.0
  0
LINE
  5
7DB
  8
SIZE
  6
CONTINUOUS
 62
    30
 10
954.412338
 20
-164.638597
 30
0.0
 11
954.412338
 21
-322.299989
 31
0.0
  0
CIRCLE
  5
7DC
  8
SIZE
  6
CONTINUOUS
 62
    30
 10
954.412338
 20
-154.638597
 30
0.0
 40
5.0
  0
LINE
  5
7DD
  8
SIZE
  6
CONTINUOUS
 62
    30
 10
954.412338
 20
-154.638597
 30
0.0
 11
954.412338
 21
-164.638597
 31
0.0
  0
CIRCLE
  5
7DE
  8
SIZE
  6
CONTINUOUS
 62
    30
 10
954.412338
 20
-332.299989
 30
0.0
 40
5.0
  0
LINE
  5
7DF
  8
SIZE
  6
CONTINUOUS
 62
    30
 10
954.412338
 20
-332.299989
 30
0.0
 11
954.412338
 21
-322.299989
 31
0.0
  0
TEXT
  5
7E0
  8
SIZE
  6
CONTINUOUS
 62
    30
 10
944.412338
 20
-288.469301
 30
0.0
 40
30.0
  1
178
 50
90.0
 72
     1
 11
944.412338
 21
-243.469301
 31
0.0
  0
POINT
  5
7E1
  8
DEFPOINTS
  6
CONTINUOUS
 62
    30
 10
459.537039
 20
-154.638597
 30
0.0
  0
POINT
  5
7E2
  8
DEFPOINTS
  6
CONTINUOUS
 62
    30
 10
259.999991
 20
-332.299989
 30
0.0
  0
POINT
  5
7E3
  8
DEFPOINTS
  6
CONTINUOUS
 62
    30
 10
954.412338
 20
-332.299989
 30
0.0
  0
LINE
  5
7E4
  8
SIZE
  6
CONTINUOUS
 62
    30
 10
414.499991
 20
-0.3
 30
0.0
 11
1066.912338
 21
-0.3
 31
0.0
  0
LINE
  5
7E5
  8
SIZE
  6
CONTINUOUS
 62
    30
 10
319.999991
 20
15.7
 30
0.0
 11
1066.912338
 21
15.7
 31
0.0
  0
LINE
  5
7E6
  8
SIZE
  6
CONTINUOUS
 62
    30
 10
1054.412338
 20
-10.3
 30
0.0
 11
1054.412338
 21
-20.3
 31
0.0
  0
LINE
  5
7E7
  8
SIZE
  6
CONTINUOUS
 62
    30
 10
1054.412338
 20
25.7
 30
0.0
 11
1054.412338
 21
98.159995
 31
0.0
  0
LINE
  5
7E8
  8
SIZE
  6
CONTINUOUS
 62
    30
 10
1054.412338
 20
-0.3
 30
0.0
 11
1054.412338
 21
15.7
 31
0.0
  0
CIRCLE
  5
7E9
  8
SIZE
  6
CONTINUOUS
 62
    30
 10
1054.412338
 20
-0.3
 30
0.0
 40
5.0
  0
LINE
  5
7EA
  8
SIZE
  6
CONTINUOUS
 62
    30
 10
1054.412338
 20
-0.3
 30
0.0
 11
1054.412338
 21
-10.3
 31
0.0
  0
CIRCLE
  5
7EB
  8
SIZE
  6
CONTINUOUS
 62
    30
 10
1054.412338
 20
15.7
 30
0.0
 40
5.0
  0
LINE
  5
7EC
  8
SIZE
  6
CONTINUOUS
 62
    30
 10
1054.412338
 20
15.7
 30
0.0
 11
1054.412338
 21
25.7
 31
0.0
  0
TEXT
  5
7ED
  8
SIZE
  6
CONTINUOUS
 62
    30
 10
1044.412338
 20
37.44570928571428
 30
0.0
 40
30.0
  1
16
 50
90.0
 72
     1
 11
1044.412338
 21
68.159995
 31
0.0
  0
POINT
  5
7EE
  8
DEFPOINTS
  6
CONTINUOUS
 62
    30
 10
404.499991
 20
-0.3
 30
0.0
  0
POINT
  5
7EF
  8
DEFPOINTS
  6
CONTINUOUS
 62
    30
 10
309.999991
 20
15.7
 30
0.0
  0
POINT
  5
7F0
  8
DEFPOINTS
  6
CONTINUOUS
 62
    30
 10
1054.412338
 20
15.7
 30
0.0
  0
LINE
  5
7F1
  8
SIZE
  6
CONTINUOUS
 62
    30
 10
414.499991
 20
-0.3
 30
0.0
 11
1066.912338
 21
-0.3
 31
0.0
  0
LINE
  5
7F2
  8
SIZE
  6
CONTINUOUS
 62
    30
 10
409.999991
 20
-300.299989
 30
0.0
 11
1066.912338
 21
-300.299989
 31
0.0
  0
LINE
  5
7F3
  8
SIZE
  6
CONTINUOUS
 62
    30
 10
1054.412338
 20
-10.3
 30
0.0
 11
1054.412338
 21
-290.299989
 31
0.0
  0
CIRCLE
  5
7F4
  8
SIZE
  6
CONTINUOUS
 62
    30
 10
1054.412338
 20
-0.3
 30
0.0
 40
5.0
  0
LINE
  5
7F5
  8
SIZE
  6
CONTINUOUS
 62
    30
 10
1054.412338
 20
-0.3
 30
0.0
 11
1054.412338
 21
-10.3
 31
0.0
  0
CIRCLE
  5
7F6
  8
SIZE
  6
CONTINUOUS
 62
    30
 10
1054.412338
 20
-300.299989
 30
0.0
 40
5.0
  0
LINE
  5
7F7
  8
SIZE
  6
CONTINUOUS
 62
    30
 10
1054.412338
 20
-300.299989
 30
0.0
 11
1054.412338
 21
-290.299989
 31
0.0
  0
TEXT
  5
7F8
  8
SIZE
  6
CONTINUOUS
 62
    30
 10
1044.412338
 20
-193.1571478571429
 30
0.0
 40
30.0
  1
300
 50
90.0
 72
     1
 11
1044.412338
 21
-150.300005
 31
0.0
  0
POINT
  5
7F9
  8
DEFPOINTS
  6
CONTINUOUS
 62
    30
 10
404.499991
 20
-0.3
 30
0.0
  0
POINT
  5
7FA
  8
DEFPOINTS
  6
CONTINUOUS
 62
    30
 10
399.999991
 20
-300.299989
 30
0.0
  0
POINT
  5
7FB
  8
DEFPOINTS
  6
CONTINUOUS
 62
    30
 10
1054.412338
 20
-300.299989
 30
0.0
  0
LINE
  5
7FC
  8
SIZE
  6
CONTINUOUS
 62
    30
 10
710.000021
 20
-500.299989
 30
0.0
 11
1166.912338
 21
-500.299989
 31
0.0
  0
LINE
  5
7FD
  8
SIZE
  6
CONTINUOUS
 62
    30
 10
710.000021
 20
99.700003
 30
0.0
 11
1166.912338
 21
99.700003
 31
0.0
  0
LINE
  5
7FE
  8
SIZE
  6
CONTINUOUS
 62
    30
 10
1154.412338
 20
-490.299989
 30
0.0
 11
1154.412338
 21
89.700003
 31
0.0
  0
CIRCLE
  5
7FF
  8
SIZE
  6
CONTINUOUS
 62
    30
 10
1154.412338
 20
-500.299989
 30
0.0
 40
5.0
  0
LINE
  5
800
  8
SIZE
  6
CONTINUOUS
 62
    30
 10
1154.412338
 20
-500.299989
 30
0.0
 11
1154.412338
 21
-490.299989
 31
0.0
  0
CIRCLE
  5
801
  8
SIZE
  6
CONTINUOUS
 62
    30
 10
1154.412338
 20
99.700003
 30
0.0
 40
5.0
  0
LINE
  5
802
  8
SIZE
  6
CONTINUOUS
 62
    30
 10
1154.412338
 20
99.700003
 30
0.0
 11
1154.412338
 21
89.700003
 31
0.0
  0
TEXT
  5
803
  8
SIZE
  6
CONTINUOUS
 62
    30
 10
1144.412338
 20
-243.8714335714286
 30
0.0
 40
30.0
  1
600
 50
90.0
 72
     1
 11
1144.412338
 21
-200.300005
 31
0.0
  0
POINT
  5
804
  8
DEFPOINTS
  6
CONTINUOUS
 62
    30
 10
700.000021
 20
-500.299989
 30
0.0
  0
POINT
  5
805
  8
DEFPOINTS
  6
CONTINUOUS
 62
    30
 10
700.000021
 20
99.700003
 30
0.0
  0
POINT
  5
806
  8
DEFPOINTS
  6
CONTINUOUS
 62
    30
 10
1154.412338
 20
99.700003
 30
0.0
  0
LINE
  5
807
  8
SIZE
  6
CONTINUOUS
 62
    30
 10
-92.000002
 20
-320.299989
 30
0.0
 11
177.463745
 21
-320.299989
 31
0.0
  0
LINE
  5
808
  8
SIZE
  6
CONTINUOUS
 62
    30
 10
389.999991
 20
-300.299989
 30
0.0
 11
152.463745
 21
-300.299989
 31
0.0
  0
LINE
  5
809
  8
SIZE
  6
CONTINUOUS
 62
    30
 10
164.963745
 20
-290.299989
 30
0.0
 11
164.963745
 21
-280.299989
 31
0.0
  0
LINE
  5
80A
  8
SIZE
  6
CONTINUOUS
 62
    30
 10
164.963745
 20
-330.299989
 30
0.0
 11
164.963745
 21
-597.0651869999999
 31
0.0
  0
LINE
  5
80B
  8
SIZE
  6
CONTINUOUS
 62
    30
 10
164.963745
 20
-300.299989
 30
0.0
 11
164.963745
 21
-320.299989
 31
0.0
  0
CIRCLE
  5
80C
  8
SIZE
  6
CONTINUOUS
 62
    30
 10
164.963745
 20
-300.299989
 30
0.0
 40
5.0
  0
LINE
  5
80D
  8
SIZE
  6
CONTINUOUS
 62
    30
 10
164.963745
 20
-300.299989
 30
0.0
 11
164.963745
 21
-290.299989
 31
0.0
  0
CIRCLE
  5
80E
  8
SIZE
  6
CONTINUOUS
 62
    30
 10
164.963745
 20
-320.299989
 30
0.0
 40
5.0
  0
LINE
  5
80F
  8
SIZE
  6
CONTINUOUS
 62
    30
 10
164.963745
 20
-320.299989
 30
0.0
 11
164.963745
 21
-330.299989
 31
0.0
  0
TEXT
  5
810
  8
SIZE
  6
CONTINUOUS
 62
    30
 10
154.963745
 20
-593.1366155714285
 30
0.0
 40
30.0
  1
20
 50
90.0
 72
     1
 11
154.963745
 21
-564.5651869999999
 31
0.0
  0
POINT
  5
811
  8
DEFPOINTS
  6
CONTINUOUS
 62
    30
 10
-102.000002
 20
-320.299989
 30
0.0
  0
POINT
  5
812
  8
DEFPOINTS
  6
CONTINUOUS
 62
    30
 10
399.999991
 20
-300.299989
 30
0.0
  0
POINT
  5
813
  8
DEFPOINTS
  6
CONTINUOUS
 62
    30
 10
164.963745
 20
-300.299989
 30
0.0
  0
LINE
  5
814
  8
SIZE
  6
CONTINUOUS
 62
    30
 10
-280.000009
 20
-0.3
 30
0.0
 11
-719.784317
 21
-0.3
 31
0.0
  0
LINE
  5
815
  8
SIZE
  6
CONTINUOUS
 62
    30
 10
-272.500009
 20
27.699999
 30
0.0
 11
-719.784317
 21
27.699999
 31
0.0
  0
LINE
  5
816
  8
SIZE
  6
CONTINUOUS
 62
    30
 10
-707.284317
 20
-10.3
 30
0.0
 11
-707.284317
 21
-20.3
 31
0.0
  0
LINE
  5
817
  8
SIZE
  6
CONTINUOUS
 62
    30
 10
-707.284317
 20
37.699999
 30
0.0
 11
-707.284317
 21
117.699999
 31
0.0
  0
LINE
  5
818
  8
SIZE
  6
CONTINUOUS
 62
    30
 10
-707.284317
 20
-0.3
 30
0.0
 11
-707.284317
 21
27.699999
 31
0.0
  0
CIRCLE
  5
819
  8
SIZE
  6
CONTINUOUS
 62
    30
 10
-707.284317
 20
-0.3
 30
0.0
 40
5.0
  0
LINE
  5
81A
  8
SIZE
  6
CONTINUOUS
 62
    30
 10
-707.284317
 20
-0.3
 30
0.0
 11
-707.284317
 21
-10.3
 31
0.0
  0
CIRCLE
  5
81B
  8
SIZE
  6
CONTINUOUS
 62
    30
 10
-707.284317
 20
27.699999
 30
0.0
 40
5.0
  0
LINE
  5
81C
  8
SIZE
  6
CONTINUOUS
 62
    30
 10
-707.284317
 20
27.699999
 30
0.0
 11
-707.284317
 21
37.699999
 31
0.0
  0
TEXT
  5
81D
  8
SIZE
  6
CONTINUOUS
 62
    30
 10
-717.284317
 20
54.12857042857144
 30
0.0
 40
30.0
  1
28
 50
90.0
 72
     1
 11
-717.284317
 21
82.699999
 31
0.0
  0
POINT
  5
81E
  8
DEFPOINTS
  6
CONTINUOUS
 62
    30
 10
-270.000009
 20
-0.3
 30
0.0
  0
POINT
  5
81F
  8
DEFPOINTS
  6
CONTINUOUS
 62
    30
 10
-262.500009
 20
27.699999
 30
0.0
  0
POINT
  5
820
  8
DEFPOINTS
  6
CONTINUOUS
 62
    30
 10
-707.284317
 20
27.699999
 30
0.0
  0
LINE
  5
821
  8
SIZE
  6
CONTINUOUS
 62
    30
 10
279.999991
 20
-0.3
 30
0.0
 11
966.912338
 21
-0.3
 31
0.0
  0
LINE
  5
822
  8
SIZE
  6
CONTINUOUS
 62
    30
 10
279.999991
 20
9.7
 30
0.0
 11
966.912338
 21
9.7
 31
0.0
  0
LINE
  5
823
  8
SIZE
  6
CONTINUOUS
 62
    30
 10
954.412338
 20
-10.3
 30
0.0
 11
954.412338
 21
-20.3
 31
0.0
  0
LINE
  5
824
  8
SIZE
  6
CONTINUOUS
 62
    30
 10
954.412338
 20
19.7
 30
0.0
 11
954.412338
 21
89.968531
 31
0.0
  0
LINE
  5
825
  8
SIZE
  6
CONTINUOUS
 62
    30
 10
954.412338
 20
-0.3
 30
0.0
 11
954.412338
 21
9.7
 31
0.0
  0
CIRCLE
  5
826
  8
SIZE
  6
CONTINUOUS
 62
    30
 10
954.412338
 20
-0.3
 30
0.0
 40
5.0
  0
LINE
  5
827
  8
SIZE
  6
CONTINUOUS
 62
    30
 10
954.412338
 20
-0.3
 30
0.0
 11
954.412338
 21
-10.3
 31
0.0
  0
CIRCLE
  5
828
  8
SIZE
  6
CONTINUOUS
 62
    30
 10
954.412338
 20
9.7
 30
0.0
 40
5.0
  0
LINE
  5
829
  8
SIZE
  6
CONTINUOUS
 62
    30
 10
954.412338
 20
9.7
 30
0.0
 11
954.412338
 21
19.7
 31
0.0
  0
TEXT
  5
82A
  8
SIZE
  6
CONTINUOUS
 62
    30
 10
944.412338
 20
31.75424528571428
 30
0.0
 40
30.0
  1
10
 50
90.0
 72
     1
 11
944.412338
 21
62.468531
 31
0.0
  0
POINT
  5
82B
  8
DEFPOINTS
  6
CONTINUOUS
 62
    30
 10
269.999991
 20
-0.3
 30
0.0
  0
POINT
  5
82C
  8
DEFPOINTS
  6
CONTINUOUS
 62
    30
 10
269.999991
 20
9.7
 30
0.0
  0
POINT
  5
82D
  8
DEFPOINTS
  6
CONTINUOUS
 62
    30
 10
954.412338
 20
9.7
 30
0.0
  0
TEXT
  5
82E
  8
NOTE
  6
CONTINUOUS
 10
1205.701376
 20
-402.183748
 30
0.0
 40
40.0
  1
メンテナンススペース
 50
90.00000499999999
 41
0.84375
  7
STANDARD1
  0
TEXT
  5
82F
  8
NOTE
  6
CONTINUOUS
 10
334.507803
 20
-786.099306
 30
0.0
 40
39.99999999999999
  1
メンテナンススペース
 50
0.0000028316468405
 41
0.8437500000000001
  7
STANDARD1
  0
TEXT
  5
830
  8
NOTE
  6
CONTINUOUS
 10
-270.304148
 20
-784.866395
 30
0.0
 40
39.99999999999999
  1
メンテナンススペース
 50
0.0000028316468405
 41
0.8437500000000001
  7
STANDARD1
  0
TEXT
  5
831
  8
NOTE
  6
CONTINUOUS
 10
-754.55253
 20
-741.171022
 30
0.0
 40
40.0
  1
メンテナンススペース
 50
90.00000499999999
 41
0.84375
  7
STANDARD1
  0
TEXT
  5
832
  8
NOTE
  6
CONTINUOUS
 10
-766.523477
 20
-298.537294
 30
0.0
 40
28.0
  1
メンテナンススペース
 50
90.00000499999999
 41
0.84375
  7
STANDARD1
  0
TEXT
  5
833
  8
NOTE
  6
CONTINUOUS
 10
-287.774057
 20
557.400023
 30
0.0
 40
39.99999999999999
  1
メンテナンススペース
 50
0.0000028316468405
 41
0.8437500000000001
  7
STANDARD1
  0
TEXT
  5
834
  8
NOTE
  6
CONTINUOUS
 10
-758.905313
 20
30.018698
 30
0.0
 40
40.0
  1
メンテナンススペース
 50
90.00000499999999
 41
0.84375
  7
STANDARD1
  0
LINE
  5
835
  8
NOTE
  6
CONTINUOUS
 10
-690.494364
 20
199.699996
 30
0.0
 11
-532.244364
 21
199.699996
 31
0.0
  0
LINE
  5
836
  8
NOTE
  6
CONTINUOUS
 10
-532.244364
 20
199.699996
 30
0.0
 11
-254.499994
 21
9.699999
 31
0.0
  0
LINE
  5
837
  8
NOTE
  6
CONTINUOUS
 10
-254.499994
 20
9.699999
 30
0.0
 11
-256.386725
 21
10.36351
 31
0.0
  0
LINE
  5
838
  8
NOTE
  6
CONTINUOUS
 10
-254.499994
 20
9.699999
 30
0.0
 11
-255.802196
 21
11.217982
 31
0.0
  0
TEXT
  5
839
  8
NOTE
  6
CONTINUOUS
 10
-690.494364
 20
200.699996
 30
0.0
 40
40.0
  1
4-AH
 50
359.9999959954467
 41
0.6125
  7
STANDARD1
  0
LINE
  5
83A
  8
NOTE
  6
CONTINUOUS
 10
195.307715
 20
159.699996
 30
0.0
 11
-52.442285
 21
159.699996
 31
0.0
  0
LINE
  5
83B
  8
NOTE
  6
CONTINUOUS
 10
-52.442285
 20
159.699996
 30
0.0
 11
0.0
 21
-41.000001
 31
0.0
  0
LINE
  5
83C
  8
NOTE
  6
CONTINUOUS
 10
0.0
 20
-41.000001
 30
0.0
 11
-0.989213
 21
-39.261767
 31
0.0
  0
LINE
  5
83D
  8
NOTE
  6
CONTINUOUS
 10
0.0
 20
-41.000001
 30
0.0
 11
0.012433
 21
-39.00004
 31
0.0
  0
TEXT
  5
83E
  8
NOTE
  6
CONTINUOUS
 10
8.307715
 20
160.699996
 30
0.0
 40
40.0
  1
D φ26.5
 50
359.9999959954467
 41
0.689338
  7
STANDARD1
  0
LINE
  5
83F
  8
NOTE
  6
CONTINUOUS
 10
270.0
 20
-320.3
 30
0.0
 11
230.0
 21
-320.3
 31
0.0
  0
LINE
  5
840
  8
NOTE
  6
CONTINUOUS
 10
250.0
 20
-340.3
 30
0.0
 11
250.0
 21
-300.3
 31
0.0
  0
LINE
  5
841
  8
NOTE
  6
CONTINUOUS
 10
270.0
 20
9.7
 30
0.0
 11
230.0
 21
9.7
 31
0.0
  0
LINE
  5
842
  8
NOTE
  6
CONTINUOUS
 10
20.0
 20
-41.0
 30
0.0
 11
-20.0
 21
-41.0
 31
0.0
  0
LINE
  5
843
  8
NOTE
  6
CONTINUOUS
 10
250.0
 20
29.7
 30
0.0
 11
250.0
 21
-10.3
 31
0.0
  0
LINE
  5
844
  8
NOTE
  6
CONTINUOUS
 10
0.0
 20
-21.0
 30
0.0
 11
0.0
 21
-61.0
 31
0.0
  0
LINE
  5
845
  8
NOTE
  6
CONTINUOUS
 10
-230.0
 20
9.7
 30
0.0
 11
-270.0
 21
9.7
 31
0.0
  0
LINE
  5
846
  8
NOTE
  6
CONTINUOUS
 10
-250.0
 20
29.7
 30
0.0
 11
-250.0
 21
-10.3
 31
0.0
  0
LINE
  5
847
  8
NOTE
  6
CONTINUOUS
 10
-230.0
 20
-320.3
 30
0.0
 11
-270.0
 21
-320.3
 31
0.0
  0
LINE
  5
848
  8
NOTE
  6
CONTINUOUS
 10
-250.0
 20
-340.3
 30
0.0
 11
-250.0
 21
-300.3
 31
0.0
  0
TEXT
  5
849
  8
NOTE
  6
CONTINUOUS
 10
-824.071451
 20
468.884947
 30
0.0
 40
39.99999999999999
  1
メンテナンススペース
 50
0.0000028316468405
 41
0.8437500000000001
  7
STANDARD1
  0
LINE
  5
84A
  8
NOTE
  6
CONTINUOUS
 10
459.537024
 20
-169.638592
 30
0.0
 11
419.537024
 21
-169.638592
 31
0.0
  0
LINE
  5
84B
  8
NOTE
  6
CONTINUOUS
 10
1125.958578
 20
333.361388
 30
0.0
 11
618.2087
 21
333.361388
 31
0.0
  0
LINE
  5
84C
  8
NOTE
  6
CONTINUOUS
 10
618.2087
 20
333.361388
 30
0.0
 11
439.537039
 21
-154.638597
 31
0.0
  0
LINE
  5
84D
  8
NOTE
  6
CONTINUOUS
 10
439.537039
 20
-154.638597
 30
0.0
 11
439.715148
 21
-152.646543
 31
0.0
  0
LINE
  5
84E
  8
NOTE
  6
CONTINUOUS
 10
439.537039
 20
-154.638597
 30
0.0
 11
440.687313
 21
-153.002483
 31
0.0
  0
TEXT
  5
84F
  8
NOTE
  6
CONTINUOUS
 10
678.9587
 20
384.361388
 30
0.0
 40
40.0
  1
貯湯ﾀﾝｸﾕﾆｯﾄ接続口(A)
 50
359.9999959054455
 41
0.8475379999999999
  7
STANDARD1
  0
TEXT
  5
850
  8
NOTE
  6
CONTINUOUS
 10
678.9587
 20
334.361388
 30
0.0
 40
40.0
  1
R1/2(φ21.7)
 50
359.9999960875177
 41
0.637277
  7
STANDARD1
  0
LINE
  5
851
  8
NOTE
  6
CONTINUOUS
 10
439.537024
 20
-185.638592
 30
0.0
 11
439.537024
 21
-145.638592
 31
0.0
  0
LINE
  5
852
  8
NOTE
  6
CONTINUOUS
 10
1125.958578
 20
183.361403
 30
0.0
 11
618.2087
 21
183.361403
 31
0.0
  0
LINE
  5
853
  8
NOTE
  6
CONTINUOUS
 10
618.2087
 20
183.361403
 30
0.0
 11
439.537039
 21
-169.638597
 31
0.0
  0
LINE
  5
854
  8
NOTE
  6
CONTINUOUS
 10
439.537039
 20
-169.638597
 30
0.0
 11
439.947614
 21
-167.681194
 31
0.0
  0
LINE
  5
855
  8
NOTE
  6
CONTINUOUS
 10
439.537039
 20
-169.638597
 30
0.0
 11
440.871309
 21
-168.148724
 31
0.0
  0
TEXT
  5
856
  8
NOTE
  6
CONTINUOUS
 10
678.9587
 20
234.361403
 30
0.0
 40
40.0
  1
貯湯ﾀﾝｸﾕﾆｯﾄ接続口(B)
 50
359.9999959054455
 41
0.8475379999999999
  7
STANDARD1
  0
TEXT
  5
857
  8
NOTE
  6
CONTINUOUS
 10
678.9587
 20
184.361403
 30
0.0
 40
40.0
  1
R1/2(φ21.7)
 50
359.9999960875177
 41
0.637277
  7
STANDARD1
  0
LINE
  5
858
  8
NOTE
  6
CONTINUOUS
 10
459.537024
 20
-154.638592
 30
0.0
 11
419.537024
 21
-154.638592
 31
0.0
  0
LINE
  5
859
  8
NOTE
  6
CONTINUOUS
 10
439.537024
 20
-173.638592
 30
0.0
 11
439.537024
 21
-133.638592
 31
0.0
  0
CIRCLE
  5
85A
  8
ARRANGE
  6
CONTINUOUS
 10
0.0
 20
0.0
 30
0.0
 40
15.0
  0
CIRCLE
  5
85B
  8
FIX
  6
CONTINUOUS
 10
-250.0
 20
-320.3
 30
0.0
 40
4.0
  0
CIRCLE
  5
85C
  8
FIX
  6
CONTINUOUS
 10
-250.0
 20
9.7
 30
0.0
 40
4.0
  0
CIRCLE
  5
85D
  8
FIX
  6
CONTINUOUS
 10
250.0
 20
9.7
 30
0.0
 40
4.0
  0
CIRCLE
  5
85E
  8
FIX
  6
CONTINUOUS
 10
250.0
 20
-320.3
 30
0.0
 40
4.0
  0
LINE
  5
85F
  8
SERVICESPACE
  6
DASHDOT
 10
-554.5
 20
-0.3
 30
0.0
 11
404.5
 21
-0.3
 31
0.0
  0
LINE
  5
860
  8
SERVICESPACE
  6
DASHDOT
 10
-554.5
 20
-300.3
 30
0.0
 11
400.0
 21
-300.3
 31
0.0
  0
LINE
  5
861
  8
SERVICESPACE
  6
DASHDOT
 10
-554.5
 20
-500.3
 30
0.0
 11
-554.5
 21
99.7
 31
0.0
  0
LINE
  5
862
  8
SERVICESPACE
  6
DASHDOT
 10
-550.0
 20
99.7
 30
0.0
 11
700.0
 21
99.7
 31
0.0
  0
LINE
  5
863
  8
SERVICESPACE
  6
DASHDOT
 10
404.5
 20
-500.3
 30
0.0
 11
404.5
 21
99.7
 31
0.0
  0
LINE
  5
864
  8
SERVICESPACE
  6
DASHDOT
 10
-404.5
 20
-294.3
 30
0.0
 11
-404.5
 21
-0.3
 31
0.0
  0
LINE
  5
865
  8
SERVICESPACE
  6
DASHDOT
 10
704.5
 20
-500.3
 30
0.0
 11
704.5
 21
99.7
 31
0.0
  0
LINE
  5
866
  8
SERVICESPACE
  6
DASHDOT
 10
-550.0
 20
-500.3
 30
0.0
 11
700.0
 21
-500.3
 31
0.0
  0
LINE
  5
867
  8
SERVICESPACE
  6
DASHDOT
 10
404.5
 20
99.7
 30
0.0
 11
704.5
 21
-500.3
 31
0.0
  0
LINE
  5
868
  8
SERVICESPACE
  6
DASHDOT
 10
404.5
 20
-500.3
 30
0.0
 11
704.5
 21
99.7
 31
0.0
  0
LINE
  5
869
  8
SERVICESPACE
  6
DASHDOT
 10
404.5
 20
99.7
 30
0.0
 11
-554.5
 21
-0.3
 31
0.0
  0
LINE
  5
86A
  8
SERVICESPACE
  6
DASHDOT
 10
-554.5
 20
99.7
 30
0.0
 11
404.5
 21
-0.3
 31
0.0
  0
LINE
  5
86B
  8
SERVICESPACE
  6
DASHDOT
 10
-554.5
 20
-0.3
 30
0.0
 11
-404.5
 21
-294.3
 31
0.0
  0
LINE
  5
86C
  8
SERVICESPACE
  6
DASHDOT
 10
-554.5
 20
-300.3
 30
0.0
 11
-404.5
 21
-0.3
 31
0.0
  0
LINE
  5
86D
  8
SERVICESPACE
  6
DASHDOT
 10
-554.5
 20
-300.3
 30
0.0
 11
404.5
 21
-500.3
 31
0.0
  0
LINE
  5
86E
  8
SERVICESPACE
  6
DASHDOT
 10
400.0
 20
-300.3
 30
0.0
 11
-554.5
 21
-500.3
 31
0.0
  0
TEXT
  5
86F
  8
ETC
  6
CONTINUOUS
 10
750.399984
 20
616.62329
 30
0.0
 40
39.99999999999999
  1
THPUK45A56
 50
0.0000029575586669
 41
0.6125000000000002
  7
STANDARD1
  0
TEXT
  5
870
  8
ETC
  6
CONTINUOUS
 10
750.399984
 20
546.62329
 30
0.0
 40
39.99999999999999
  1
ヒートポンプユニット
 50
0.0000028316468405
 41
0.8437500000000001
  7
STANDARD1
  0
ENDSEC
  0
EOF
