  0
SECTION
  2
HEADER
  9
$ACADVER
  1
AC1009
  9
$DWGCODEPAGE
  3
dos932
  9
$INSBASE
 10
0.0
 20
0.0
 30
0.0
  9
$EXTMIN
 10
-797.735328327697
 20
-560.1873808191466
 30
-0.0015258207003583
  9
$EXTMAX
 10
888.5356528868004
 20
1151.34154611641
 30
0.0000000349246037
  9
$LIMMIN
 10
0.0
 20
0.0
  9
$LIMMAX
 10
12.0
 20
9.0
  9
$ORTHOMODE
 70
     0
  9
$REGENMODE
 70
     1
  9
$FILLMODE
 70
     1
  9
$QTEXTMODE
 70
     0
  9
$MIRRTEXT
 70
     0
  9
$DRAGMODE
 70
     2
  9
$LTSCALE
 40
1.0
  9
$OSMODE
 70
    37
  9
$ATTMODE
 70
     1
  9
$TEXTSIZE
 40
2.799999952316284
  9
$TRACEWID
 40
0.05
  9
$TEXTSTYLE
  7
STANDARD1
  9
$CLAYER
  8
0
  9
$CELTYPE
  6
CONTINUOUS
  9
$CECOLOR
 62
   256
  9
$DIMSCALE
 40
1.0
  9
$DIMASZ
 40
10.0
  9
$DIMEXO
 40
10.0
  9
$DIMDLI
 40
8.0
  9
$DIMRND
 40
0.0
  9
$DIMDLE
 40
0.0
  9
$DIMEXE
 40
12.5
  9
$DIMTP
 40
0.0
  9
$DIMTM
 40
0.0
  9
$DIMTXT
 40
30.0
  9
$DIMCEN
 40
2.5
  9
$DIMTSZ
 40
0.0
  9
$DIMTOL
 70
     0
  9
$DIMLIM
 70
     0
  9
$DIMTIH
 70
     0
  9
$DIMTOH
 70
     0
  9
$DIMSE1
 70
     0
  9
$DIMSE2
 70
     0
  9
$DIMTAD
 70
     3
  9
$DIMZIN
 70
    12
  9
$DIMBLK
  1

  9
$DIMASO
 70
     1
  9
$DIMSHO
 70
     1
  9
$DIMPOST
  1

  9
$DIMAPOST
  1

  9
$DIMALT
 70
     0
  9
$DIMALTD
 70
     4
  9
$DIMALTF
 40
25.4
  9
$DIMLFAC
 40
1.0
  9
$DIMTOFL
 70
     1
  9
$DIMTVP
 40
0.0
  9
$DIMTIX
 70
     0
  9
$DIMSOXD
 70
     0
  9
$DIMSAH
 70
     1
  9
$DIMBLK1
  1
ORIGIN
  9
$DIMBLK2
  1
ORIGIN
  9
$DIMSTYLE
  2
STANDARD
  9
$DIMCLRD
 70
     0
  9
$DIMCLRE
 70
     0
  9
$DIMCLRT
 70
     0
  9
$DIMTFAC
 40
0.7142857313156129
  9
$DIMGAP
 40
10.0
  9
$LUNITS
 70
     2
  9
$LUPREC
 70
     3
  9
$SKETCHINC
 40
0.1
  9
$FILLETRAD
 40
0.0
  9
$AUNITS
 70
     0
  9
$AUPREC
 70
     0
  9
$MENU
  1
.
  9
$ELEVATION
 40
0.0
  9
$PELEVATION
 40
0.0
  9
$THICKNESS
 40
0.0
  9
$LIMCHECK
 70
     0
  9
$CHAMFERA
 40
0.0
  9
$CHAMFERB
 40
0.0
  9
$SKPOLY
 70
     0
  9
$TDCREATE
 40
2456808.659971968
  9
$TDUPDATE
 40
2457459.559203623
  9
$TDINDWG
 40
0.0001647454
  9
$TDUSRTIMER
 40
0.0001647454
  9
$USRTIMER
 70
     1
  9
$ANGBASE
 50
0.0
  9
$ANGDIR
 70
     0
  9
$PDMODE
 70
     0
  9
$PDSIZE
 40
0.0
  9
$PLINEWID
 40
0.0
  9
$COORDS
 70
     1
  9
$SPLFRAME
 70
     0
  9
$SPLINETYPE
 70
     6
  9
$SPLINESEGS
 70
     8
  9
$ATTDIA
 70
     0
  9
$ATTREQ
 70
     1
  9
$HANDLING
 70
     1
  9
$HANDSEED
  5
86E
  9
$SURFTAB1
 70
     6
  9
$SURFTAB2
 70
     6
  9
$SURFTYPE
 70
     6
  9
$SURFU
 70
     6
  9
$SURFV
 70
     6
  9
$UCSNAME
  2

  9
$UCSORG
 10
0.0
 20
0.0
 30
0.0
  9
$UCSXDIR
 10
1.0
 20
0.0
 30
0.0
  9
$UCSYDIR
 10
0.0
 20
1.0
 30
0.0
  9
$PUCSNAME
  2

  9
$PUCSORG
 10
0.0
 20
0.0
 30
0.0
  9
$PUCSXDIR
 10
1.0
 20
0.0
 30
0.0
  9
$PUCSYDIR
 10
0.0
 20
1.0
 30
0.0
  9
$USERI1
 70
     0
  9
$USERI2
 70
     0
  9
$USERI3
 70
     0
  9
$USERI4
 70
     0
  9
$USERI5
 70
     0
  9
$USERR1
 40
0.0
  9
$USERR2
 40
0.0
  9
$USERR3
 40
0.0
  9
$USERR4
 40
0.0
  9
$USERR5
 40
0.0
  9
$WORLDVIEW
 70
     1
  9
$SHADEDGE
 70
     3
  9
$SHADEDIF
 70
    70
  9
$TILEMODE
 70
     1
  9
$MAXACTVP
 70
    64
  9
$PLIMCHECK
 70
     0
  9
$PEXTMIN
 10
1.000000000000000E+20
 20
1.000000000000000E+20
 30
1.000000000000000E+20
  9
$PEXTMAX
 10
-1.000000000000000E+20
 20
-1.000000000000000E+20
 30
-1.000000000000000E+20
  9
$PLIMMIN
 10
0.0
 20
0.0
  9
$PLIMMAX
 10
12.0
 20
9.0
  9
$UNITMODE
 70
     0
  9
$VISRETAIN
 70
     1
  9
$PLINEGEN
 70
     0
  9
$PSLTSCALE
 70
     1
  0
ENDSEC
  0
SECTION
  2
TABLES
  0
TABLE
  2
VPORT
 70
     1
  0
VPORT
  2
*ACTIVE
 70
     0
 10
0.0
 20
0.0
 11
1.0
 21
1.0
 12
45.40016227955173
 22
295.5770826486319
 13
0.0
 23
0.0
 14
1.0
 24
1.0
 15
0.0
 25
0.0
 16
0.0
 26
0.0
 36
1.0
 17
0.0
 27
0.0
 37
0.0
 40
1725.951923510857
 41
0.9971870604781997
 42
50.0
 43
0.0
 44
0.0
 50
0.0
 51
0.0
 71
     0
 72
   100
 73
     1
 74
     1
 75
     0
 76
     0
 77
     0
 78
     0
  0
ENDTAB
  0
TABLE
  2
LTYPE
 70
     4
  0
LTYPE
  2
CONTINUOUS
 70
     0
  3
Solid line
 72
    65
 73
     0
 40
0.0
  0
LTYPE
  2
DASHED
 70
     0
  3
-- -- -- -- -- -- -- -- -- -- -- -- -- -- --
 72
    65
 73
     2
 40
0.75
 49
0.5
 49
-0.25
  0
LTYPE
  2
DASHDOT
 70
     0
  3
__ . __ . __ . __ . __ . __ . __ . __ . __ . __
 72
    65
 73
     4
 40
125.0
 49
80.0
 49
-20.0
 49
5.0
 49
-20.0
  0
LTYPE
  2
DIVIDE
 70
     0
  3
__ . . __ . . __ . . __ . . __ . . __ . . __
 72
    65
 73
     6
 40
1.25
 49
0.5
 49
-0.25
 49
0.0
 49
-0.25
 49
0.0
 49
-0.25
  0
ENDTAB
  0
TABLE
  2
LAYER
 70
    12
  0
LAYER
  2
0
 70
     0
 62
     3
  6
CONTINUOUS
  0
LAYER
  2
OUTLINE
 70
     0
 62
     3
  6
CONTINUOUS
  0
LAYER
  2
DETAIL
 70
     0
 62
     5
  6
CONTINUOUS
  0
LAYER
  2
BASIS
 70
     0
 62
     6
  6
CONTINUOUS
  0
LAYER
  2
SIZE
 70
     0
 62
    30
  6
CONTINUOUS
  0
LAYER
  2
NOTE
 70
     0
 62
     4
  6
CONTINUOUS
  0
LAYER
  2
ARRANGE
 70
     0
 62
     1
  6
CONTINUOUS
  0
LAYER
  2
FIX
 70
     0
 62
    11
  6
CONTINUOUS
  0
LAYER
  2
SERVICESPACE
 70
     0
 62
     2
  6
CONTINUOUS
  0
LAYER
  2
ETC
 70
     0
 62
    61
  6
CONTINUOUS
  0
LAYER
  2
SYMBOLLINE
 70
     0
 62
     7
  6
CONTINUOUS
  0
LAYER
  2
DEFPOINTS
 70
     0
 62
     7
  6
CONTINUOUS
  0
ENDTAB
  0
TABLE
  2
STYLE
 70
     5
  0
STYLE
  2
STANDARD
 70
     0
 40
0.0
 41
1.0
 50
0.0
 71
     0
 42
0.2
  3
txt
  4

  0
STYLE
  2
STANDARD1
 70
     0
 40
0.0
 41
1.0
 50
0.0
 71
     0
 42
2.799999952316284
  3
MONOTXT
  4
BIGFONT
  0
STYLE
  2
STANDARD2
 70
     4
 40
0.0
 41
1.0
 50
0.0
 71
     0
 42
2.799999952316284
  3
MONOTXT
  4
BIGFONT
  0
STYLE
  2
STANDARD3
 70
     0
 40
0.0
 41
1.0
 50
0.0
 71
     0
 42
2.799999952316284
  3
MONOTXT
  4

  0
STYLE
  2
STANDARD4
 70
     4
 40
0.0
 41
1.0
 50
0.0
 71
     0
 42
2.799999952316284
  3
MONOTXT
  4

  0
ENDTAB
  0
TABLE
  2
VIEW
 70
     0
  0
ENDTAB
  0
TABLE
  2
UCS
 70
     0
  0
ENDTAB
  0
TABLE
  2
APPID
 70
     1
  0
APPID
  2
ACAD
 70
     0
  0
ENDTAB
  0
TABLE
  2
DIMSTYLE
 70
     1
  0
DIMSTYLE
  2
STANDARD
 70
     0
  3

  4

  5

  6

  7

 40
1.0
 41
0.18
 42
0.0625
 43
0.38
 44
0.18
 45
0.0
 46
0.0
 47
0.0
 48
0.0
140
0.18
141
0.09
142
0.0
143
25.4
144
1.0
145
0.0
146
1.0
147
0.09
 71
     0
 72
     0
 73
     1
 74
     1
 75
     0
 76
     0
 77
     0
 78
     0
170
     0
171
     2
172
     0
173
     0
174
     0
175
     0
176
     0
177
     0
178
     0
  0
ENDTAB
  0
ENDSEC
  0
SECTION
  2
BLOCKS
  0
BLOCK
  8
0
  2
$MODEL_SPACE
 70
     0
 10
0.0
 20
0.0
 30
0.0
  3
$MODEL_SPACE
  1

  0
ENDBLK
  5
846
  8
0
  0
BLOCK
 67
     1
  8
0
  2
$PAPER_SPACE
 70
     0
 10
0.0
 20
0.0
 30
0.0
  3
$PAPER_SPACE
  1

  0
ENDBLK
  5
848
 67
     1
  8
0
  0
BLOCK
  8
SIZE
  2
*D0
 70
     1
 10
0.0
 20
0.0
 30
0.0
  3
*D0
  1

  0
TEXT
  5
3E1
  8
SIZE
  6
CONTINUOUS
 10
194.6007903814316
 20
60.5248681338665
 30
0.0
 40
2.799999952316284
  1
127
 50
90.00000500895634
 41
0.6999999829701011
  7
STANDARD1
  0
LINE
  5
3E2
  8
SIZE
  6
CONTINUOUS
 10
-135.0297241210937
 20
126.9648666381836
 30
0.0
 11
197.6007843017578
 21
126.9648666381836
 31
0.0
  0
LINE
  5
3E3
  8
SIZE
  6
CONTINUOUS
 10
28.97027015686035
 20
-0.035135135054588
 30
0.0
 11
197.6007843017578
 21
-0.035135135054588
 31
0.0
  0
LINE
  5
3E4
  8
SIZE
  6
CONTINUOUS
 10
195.6007843017578
 20
126.9648666381836
 30
0.0
 11
195.6007843017578
 21
-0.035135135054588
 31
0.0
  0
CIRCLE
  5
3E5
  8
SIZE
  6
CONTINUOUS
 10
195.6007843017578
 20
126.9648666381836
 30
0.0
 40
0.5
  0
CIRCLE
  5
3E6
  8
SIZE
  6
CONTINUOUS
 10
195.6007843017578
 20
126.9648666381836
 30
0.0
 40
0.4
  0
CIRCLE
  5
3E7
  8
SIZE
  6
CONTINUOUS
 10
195.6007843017578
 20
126.9648666381836
 30
0.0
 40
0.3
  0
CIRCLE
  5
3E8
  8
SIZE
  6
CONTINUOUS
 10
195.6007843017578
 20
126.9648666381836
 30
0.0
 40
0.2
  0
CIRCLE
  5
3E9
  8
SIZE
  6
CONTINUOUS
 10
195.6007843017578
 20
126.9648666381836
 30
0.0
 40
0.1
  0
CIRCLE
  5
3EA
  8
SIZE
  6
CONTINUOUS
 10
195.6007843017578
 20
-0.035135135054588
 30
0.0
 40
0.5
  0
CIRCLE
  5
3EB
  8
SIZE
  6
CONTINUOUS
 10
195.6007843017578
 20
-0.035135135054588
 30
0.0
 40
0.4
  0
CIRCLE
  5
3EC
  8
SIZE
  6
CONTINUOUS
 10
195.6007843017578
 20
-0.035135135054588
 30
0.0
 40
0.3
  0
CIRCLE
  5
3ED
  8
SIZE
  6
CONTINUOUS
 10
195.6007843017578
 20
-0.035135135054588
 30
0.0
 40
0.2
  0
CIRCLE
  5
3EE
  8
SIZE
  6
CONTINUOUS
 10
195.6007843017578
 20
-0.035135135054588
 30
0.0
 40
0.1
  0
POINT
  5
3EF
  8
DEFPOINTS
  6
BYBLOCK
 10
27.97027015686035
 20
-0.035135135054588
 30
0.0
  0
POINT
  5
3F0
  8
DEFPOINTS
  6
BYBLOCK
 10
-136.0297241210937
 20
126.9648666381836
 30
0.0
  0
POINT
  5
3F1
  8
DEFPOINTS
  6
BYBLOCK
 10
195.6007843017578
 20
126.9648666381836
 30
0.0
  0
ENDBLK
  5
3F2
  8
SIZE
  0
BLOCK
  8
SIZE
  2
*D1
 70
     1
 10
0.0
 20
0.0
 30
0.0
  3
*D1
  1

  0
TEXT
  5
3F5
  8
SIZE
  6
CONTINUOUS
 10
294.0166076421738
 20
100.5248643191692
 30
0.0
 40
2.799999952316284
  1
207
 50
90.00000500895634
 41
0.6999999829701011
  7
STANDARD1
  0
LINE
  5
3F6
  8
SIZE
  6
CONTINUOUS
 10
-147.0297241210937
 20
206.964859008789
 30
0.0
 11
297.0166015624999
 21
206.964859008789
 31
0.0
  0
LINE
  5
3F7
  8
SIZE
  6
CONTINUOUS
 10
28.97027015686035
 20
-0.035135135054588
 30
0.0
 11
297.0166015624999
 21
-0.035135135054588
 31
0.0
  0
LINE
  5
3F8
  8
SIZE
  6
CONTINUOUS
 10
295.0166015624999
 20
206.964859008789
 30
0.0
 11
295.0166015624999
 21
-0.035135135054588
 31
0.0
  0
CIRCLE
  5
3F9
  8
SIZE
  6
CONTINUOUS
 10
295.0166015624999
 20
206.964859008789
 30
0.0
 40
0.5
  0
CIRCLE
  5
3FA
  8
SIZE
  6
CONTINUOUS
 10
295.0166015624999
 20
206.964859008789
 30
0.0
 40
0.4
  0
CIRCLE
  5
3FB
  8
SIZE
  6
CONTINUOUS
 10
295.0166015624999
 20
206.964859008789
 30
0.0
 40
0.3
  0
CIRCLE
  5
3FC
  8
SIZE
  6
CONTINUOUS
 10
295.0166015624999
 20
206.964859008789
 30
0.0
 40
0.2
  0
CIRCLE
  5
3FD
  8
SIZE
  6
CONTINUOUS
 10
295.0166015624999
 20
206.964859008789
 30
0.0
 40
0.1
  0
CIRCLE
  5
3FE
  8
SIZE
  6
CONTINUOUS
 10
295.0166015624999
 20
-0.035135135054588
 30
0.0
 40
0.5
  0
CIRCLE
  5
3FF
  8
SIZE
  6
CONTINUOUS
 10
295.0166015624999
 20
-0.035135135054588
 30
0.0
 40
0.4
  0
CIRCLE
  5
400
  8
SIZE
  6
CONTINUOUS
 10
295.0166015624999
 20
-0.035135135054588
 30
0.0
 40
0.3
  0
CIRCLE
  5
401
  8
SIZE
  6
CONTINUOUS
 10
295.0166015624999
 20
-0.035135135054588
 30
0.0
 40
0.2
  0
CIRCLE
  5
402
  8
SIZE
  6
CONTINUOUS
 10
295.0166015624999
 20
-0.035135135054588
 30
0.0
 40
0.1
  0
POINT
  5
403
  8
DEFPOINTS
  6
BYBLOCK
 10
27.97027015686035
 20
-0.035135135054588
 30
0.0
  0
POINT
  5
404
  8
DEFPOINTS
  6
BYBLOCK
 10
-148.0297241210937
 20
206.964859008789
 30
0.0
  0
POINT
  5
405
  8
DEFPOINTS
  6
BYBLOCK
 10
295.0166015624999
 20
206.964859008789
 30
0.0
  0
ENDBLK
  5
406
  8
SIZE
  0
BLOCK
  8
SIZE
  2
*D2
 70
     1
 10
0.0
 20
0.0
 30
0.0
  3
*D2
  1

  0
TEXT
  5
409
  8
SIZE
  6
CONTINUOUS
 10
-246.969726501304
 20
-249.0351623296738
 30
0.0
 40
2.799999952316284
  1
176
 50
0.000002504478167
 41
0.6999999829701011
  7
STANDARD1
  0
LINE
  5
40A
  8
SIZE
  6
CONTINUOUS
 10
-156.0297241210937
 20
105.9648666381836
 30
0.0
 11
-156.0297241210937
 21
-252.03515625
 31
0.0
  0
LINE
  5
40B
  8
SIZE
  6
CONTINUOUS
 10
-332.0297241210937
 20
-1.035135135054588
 30
0.0
 11
-332.0297241210937
 21
-252.03515625
 31
0.0
  0
LINE
  5
40C
  8
SIZE
  6
CONTINUOUS
 10
-156.0297241210937
 20
-250.03515625
 30
0.0
 11
-332.0297241210937
 21
-250.03515625
 31
0.0
  0
CIRCLE
  5
40D
  8
SIZE
  6
CONTINUOUS
 10
-156.0297241210937
 20
-250.03515625
 30
0.0
 40
0.5
  0
CIRCLE
  5
40E
  8
SIZE
  6
CONTINUOUS
 10
-156.0297241210937
 20
-250.03515625
 30
0.0
 40
0.4
  0
CIRCLE
  5
40F
  8
SIZE
  6
CONTINUOUS
 10
-156.0297241210937
 20
-250.03515625
 30
0.0
 40
0.3
  0
CIRCLE
  5
410
  8
SIZE
  6
CONTINUOUS
 10
-156.0297241210937
 20
-250.03515625
 30
0.0
 40
0.2
  0
CIRCLE
  5
411
  8
SIZE
  6
CONTINUOUS
 10
-156.0297241210937
 20
-250.03515625
 30
0.0
 40
0.1
  0
CIRCLE
  5
412
  8
SIZE
  6
CONTINUOUS
 10
-332.0297241210937
 20
-250.03515625
 30
0.0
 40
0.5
  0
CIRCLE
  5
413
  8
SIZE
  6
CONTINUOUS
 10
-332.0297241210937
 20
-250.03515625
 30
0.0
 40
0.4
  0
CIRCLE
  5
414
  8
SIZE
  6
CONTINUOUS
 10
-332.0297241210937
 20
-250.03515625
 30
0.0
 40
0.3
  0
CIRCLE
  5
415
  8
SIZE
  6
CONTINUOUS
 10
-332.0297241210937
 20
-250.03515625
 30
0.0
 40
0.2
  0
CIRCLE
  5
416
  8
SIZE
  6
CONTINUOUS
 10
-332.0297241210937
 20
-250.03515625
 30
0.0
 40
0.1
  0
POINT
  5
417
  8
DEFPOINTS
  6
BYBLOCK
 10
-332.0297241210937
 20
-0.035135135054588
 30
0.0
  0
POINT
  5
418
  8
DEFPOINTS
  6
BYBLOCK
 10
-156.0297241210937
 20
106.9648666381836
 30
0.0
  0
POINT
  5
419
  8
DEFPOINTS
  6
BYBLOCK
 10
-156.0297241210937
 20
-250.03515625
 30
0.0
  0
ENDBLK
  5
41A
  8
SIZE
  0
BLOCK
  8
SIZE
  2
*D3
 70
     1
 10
0.0
 20
0.0
 30
0.0
  3
*D3
  1

  0
TEXT
  5
41D
  8
SIZE
  6
CONTINUOUS
 10
-252.969726501304
 20
-149.0351623296737
 30
0.0
 40
2.799999952316284
  1
164
 50
0.000002504478167
 41
0.6999999829701011
  7
STANDARD1
  0
LINE
  5
41E
  8
SIZE
  6
CONTINUOUS
 10
-168.0297241210937
 20
185.964859008789
 30
0.0
 11
-168.0297241210937
 21
-152.03515625
 31
0.0
  0
LINE
  5
41F
  8
SIZE
  6
CONTINUOUS
 10
-332.0297241210937
 20
-1.035135135054588
 30
0.0
 11
-332.0297241210937
 21
-152.03515625
 31
0.0
  0
LINE
  5
420
  8
SIZE
  6
CONTINUOUS
 10
-168.0297241210937
 20
-150.03515625
 30
0.0
 11
-332.0297241210937
 21
-150.03515625
 31
0.0
  0
CIRCLE
  5
421
  8
SIZE
  6
CONTINUOUS
 10
-168.0297241210937
 20
-150.03515625
 30
0.0
 40
0.5
  0
CIRCLE
  5
422
  8
SIZE
  6
CONTINUOUS
 10
-168.0297241210937
 20
-150.03515625
 30
0.0
 40
0.4
  0
CIRCLE
  5
423
  8
SIZE
  6
CONTINUOUS
 10
-168.0297241210937
 20
-150.03515625
 30
0.0
 40
0.3
  0
CIRCLE
  5
424
  8
SIZE
  6
CONTINUOUS
 10
-168.0297241210937
 20
-150.03515625
 30
0.0
 40
0.2
  0
CIRCLE
  5
425
  8
SIZE
  6
CONTINUOUS
 10
-168.0297241210937
 20
-150.03515625
 30
0.0
 40
0.1
  0
CIRCLE
  5
426
  8
SIZE
  6
CONTINUOUS
 10
-332.0297241210937
 20
-150.03515625
 30
0.0
 40
0.5
  0
CIRCLE
  5
427
  8
SIZE
  6
CONTINUOUS
 10
-332.0297241210937
 20
-150.03515625
 30
0.0
 40
0.4
  0
CIRCLE
  5
428
  8
SIZE
  6
CONTINUOUS
 10
-332.0297241210937
 20
-150.03515625
 30
0.0
 40
0.3
  0
CIRCLE
  5
429
  8
SIZE
  6
CONTINUOUS
 10
-332.0297241210937
 20
-150.03515625
 30
0.0
 40
0.2
  0
CIRCLE
  5
42A
  8
SIZE
  6
CONTINUOUS
 10
-332.0297241210937
 20
-150.03515625
 30
0.0
 40
0.1
  0
POINT
  5
42B
  8
DEFPOINTS
  6
BYBLOCK
 10
-332.0297241210937
 20
-0.035135135054588
 30
0.0
  0
POINT
  5
42C
  8
DEFPOINTS
  6
BYBLOCK
 10
-168.0297241210937
 20
186.964859008789
 30
0.0
  0
POINT
  5
42D
  8
DEFPOINTS
  6
BYBLOCK
 10
-168.0297241210937
 20
-150.03515625
 30
0.0
  0
ENDBLK
  5
42E
  8
SIZE
  0
BLOCK
  8
SIZE
  2
*D4
 70
     1
 10
0.0
 20
0.0
 30
0.0
  3
*D4
  1

  0
TEXT
  5
431
  8
SIZE
  6
CONTINUOUS
 10
390.0368713140488
 20
-32.99513613859444
 30
0.0
 40
2.799999952316284
  1
62
 50
90.00000500895634
 41
0.6999999829701011
  7
STANDARD1
  0
LINE
  5
432
  8
SIZE
  6
CONTINUOUS
 10
28.97027015686035
 20
-0.035135135054588
 30
0.0
 11
393.0368652343751
 21
-0.035135135054588
 31
0.0
  0
LINE
  5
433
  8
SIZE
  6
CONTINUOUS
 10
-27.22973060607911
 20
-62.0351333618164
 30
0.0
 11
393.0368652343751
 21
-62.0351333618164
 31
0.0
  0
LINE
  5
434
  8
SIZE
  6
CONTINUOUS
 10
391.036865234375
 20
-0.035135135054588
 30
0.0
 11
391.036865234375
 21
-62.0351333618164
 31
0.0
  0
CIRCLE
  5
435
  8
SIZE
  6
CONTINUOUS
 10
391.036865234375
 20
-0.035135135054588
 30
0.0
 40
0.5
  0
CIRCLE
  5
436
  8
SIZE
  6
CONTINUOUS
 10
391.036865234375
 20
-0.035135135054588
 30
0.0
 40
0.4
  0
CIRCLE
  5
437
  8
SIZE
  6
CONTINUOUS
 10
391.036865234375
 20
-0.035135135054588
 30
0.0
 40
0.3
  0
CIRCLE
  5
438
  8
SIZE
  6
CONTINUOUS
 10
391.036865234375
 20
-0.035135135054588
 30
0.0
 40
0.2
  0
CIRCLE
  5
439
  8
SIZE
  6
CONTINUOUS
 10
391.036865234375
 20
-0.035135135054588
 30
0.0
 40
0.1
  0
CIRCLE
  5
43A
  8
SIZE
  6
CONTINUOUS
 10
391.036865234375
 20
-62.0351333618164
 30
0.0
 40
0.5
  0
CIRCLE
  5
43B
  8
SIZE
  6
CONTINUOUS
 10
391.036865234375
 20
-62.0351333618164
 30
0.0
 40
0.4
  0
CIRCLE
  5
43C
  8
SIZE
  6
CONTINUOUS
 10
391.036865234375
 20
-62.0351333618164
 30
0.0
 40
0.3
  0
CIRCLE
  5
43D
  8
SIZE
  6
CONTINUOUS
 10
391.036865234375
 20
-62.0351333618164
 30
0.0
 40
0.2
  0
CIRCLE
  5
43E
  8
SIZE
  6
CONTINUOUS
 10
391.036865234375
 20
-62.0351333618164
 30
0.0
 40
0.1
  0
POINT
  5
43F
  8
DEFPOINTS
  6
BYBLOCK
 10
-28.22973060607911
 20
-62.0351333618164
 30
0.0
  0
POINT
  5
440
  8
DEFPOINTS
  6
BYBLOCK
 10
27.97027015686035
 20
-0.035135135054588
 30
0.0
  0
POINT
  5
441
  8
DEFPOINTS
  6
BYBLOCK
 10
391.036865234375
 20
-0.035135135054588
 30
0.0
  0
ENDBLK
  5
442
  8
SIZE
  0
BLOCK
  8
SIZE
  2
*D5
 70
     1
 10
0.0
 20
0.0
 30
0.0
  3
*D5
  1

  0
TEXT
  5
445
  8
SIZE
  6
CONTINUOUS
 10
-26.08972924788609
 20
-149.0351623296737
 30
0.0
 40
2.799999952316284
  1
48
 50
0.000002504478167
 41
0.6999999829701011
  7
STANDARD1
  0
LINE
  5
446
  8
SIZE
  6
CONTINUOUS
 10
-48.22972869873047
 20
-83.0351333618164
 30
0.0
 11
-48.22972869873047
 21
-152.03515625
 31
0.0
  0
LINE
  5
447
  8
SIZE
  6
CONTINUOUS
 10
-0.029729733243585
 20
-1.035135135054588
 30
0.0
 11
-0.029729733243585
 21
-152.03515625
 31
0.0
  0
LINE
  5
448
  8
SIZE
  6
CONTINUOUS
 10
-48.22972869873047
 20
-150.03515625
 30
0.0
 11
-0.029729733243585
 21
-150.03515625
 31
0.0
  0
CIRCLE
  5
449
  8
SIZE
  6
CONTINUOUS
 10
-48.22972869873047
 20
-150.03515625
 30
0.0
 40
0.5
  0
CIRCLE
  5
44A
  8
SIZE
  6
CONTINUOUS
 10
-48.22972869873047
 20
-150.03515625
 30
0.0
 40
0.4
  0
CIRCLE
  5
44B
  8
SIZE
  6
CONTINUOUS
 10
-48.22972869873047
 20
-150.03515625
 30
0.0
 40
0.3
  0
CIRCLE
  5
44C
  8
SIZE
  6
CONTINUOUS
 10
-48.22972869873047
 20
-150.03515625
 30
0.0
 40
0.2
  0
CIRCLE
  5
44D
  8
SIZE
  6
CONTINUOUS
 10
-48.22972869873047
 20
-150.03515625
 30
0.0
 40
0.1
  0
CIRCLE
  5
44E
  8
SIZE
  6
CONTINUOUS
 10
-0.029729733243585
 20
-150.03515625
 30
0.0
 40
0.5
  0
CIRCLE
  5
44F
  8
SIZE
  6
CONTINUOUS
 10
-0.029729733243585
 20
-150.03515625
 30
0.0
 40
0.4
  0
CIRCLE
  5
450
  8
SIZE
  6
CONTINUOUS
 10
-0.029729733243585
 20
-150.03515625
 30
0.0
 40
0.3
  0
CIRCLE
  5
451
  8
SIZE
  6
CONTINUOUS
 10
-0.029729733243585
 20
-150.03515625
 30
0.0
 40
0.2
  0
CIRCLE
  5
452
  8
SIZE
  6
CONTINUOUS
 10
-0.029729733243585
 20
-150.03515625
 30
0.0
 40
0.1
  0
POINT
  5
453
  8
DEFPOINTS
  6
BYBLOCK
 10
-0.029729733243585
 20
-0.035135135054588
 30
0.0
  0
POINT
  5
454
  8
DEFPOINTS
  6
BYBLOCK
 10
-48.22972869873047
 20
-82.0351333618164
 30
0.0
  0
POINT
  5
455
  8
DEFPOINTS
  6
BYBLOCK
 10
-48.22972869873047
 20
-150.03515625
 30
0.0
  0
ENDBLK
  5
456
  8
SIZE
  0
BLOCK
  8
SIZE
  2
*D6
 70
     1
 10
0.0
 20
0.0
 30
0.0
  3
*D6
  1

  0
TEXT
  5
459
  8
SIZE
  6
CONTINUOUS
 10
-82.05485528548373
 20
-249.0351623296738
 30
0.0
 40
2.799999952316284
  1
28
 50
0.000002504478167
 41
0.6999999829701011
  7
STANDARD1
  0
LINE
  5
45A
  8
SIZE
  6
CONTINUOUS
 10
27.97027015686035
 20
6.96486473083496
 30
0.0
 11
27.97027015686035
 21
-252.03515625
 31
0.0
  0
LINE
  5
45B
  8
SIZE
  6
CONTINUOUS
 10
-0.029729733243585
 20
18.96486473083496
 30
0.0
 11
-0.029729733243585
 21
-252.03515625
 31
0.0
  0
LINE
  5
45C
  8
SIZE
  6
CONTINUOUS
 10
32.97026824951172
 20
-250.03515625
 30
0.0
 11
-83.4548568725586
 21
-250.03515625
 31
0.0
  0
CIRCLE
  5
45D
  8
SIZE
  6
CONTINUOUS
 10
27.97027015686035
 20
-250.03515625
 30
0.0
 40
0.5
  0
CIRCLE
  5
45E
  8
SIZE
  6
CONTINUOUS
 10
27.97027015686035
 20
-250.03515625
 30
0.0
 40
0.4
  0
CIRCLE
  5
45F
  8
SIZE
  6
CONTINUOUS
 10
27.97027015686035
 20
-250.03515625
 30
0.0
 40
0.3
  0
CIRCLE
  5
460
  8
SIZE
  6
CONTINUOUS
 10
27.97027015686035
 20
-250.03515625
 30
0.0
 40
0.2
  0
CIRCLE
  5
461
  8
SIZE
  6
CONTINUOUS
 10
27.97027015686035
 20
-250.03515625
 30
0.0
 40
0.1
  0
CIRCLE
  5
462
  8
SIZE
  6
CONTINUOUS
 10
-0.029729733243585
 20
-250.03515625
 30
0.0
 40
0.5
  0
CIRCLE
  5
463
  8
SIZE
  6
CONTINUOUS
 10
-0.029729733243585
 20
-250.03515625
 30
0.0
 40
0.4
  0
CIRCLE
  5
464
  8
SIZE
  6
CONTINUOUS
 10
-0.029729733243585
 20
-250.03515625
 30
0.0
 40
0.3
  0
CIRCLE
  5
465
  8
SIZE
  6
CONTINUOUS
 10
-0.029729733243585
 20
-250.03515625
 30
0.0
 40
0.2
  0
CIRCLE
  5
466
  8
SIZE
  6
CONTINUOUS
 10
-0.029729733243585
 20
-250.03515625
 30
0.0
 40
0.1
  0
POINT
  5
467
  8
DEFPOINTS
  6
BYBLOCK
 10
-0.029729733243585
 20
19.96486473083496
 30
0.0
  0
POINT
  5
468
  8
DEFPOINTS
  6
BYBLOCK
 10
27.97027015686035
 20
7.96486473083496
 30
0.0
  0
POINT
  5
469
  8
DEFPOINTS
  6
BYBLOCK
 10
27.97027015686035
 20
-250.03515625
 30
0.0
  0
ENDBLK
  5
46A
  8
SIZE
  0
BLOCK
  8
SIZE
  2
*D7
 70
     1
 10
0.0
 20
0.0
 30
0.0
  3
*D7
  1

  0
TEXT
  5
46D
  8
SIZE
  6
CONTINUOUS
 10
74.62586981217252
 20
-349.0351623296738
 30
0.0
 40
2.799999952316284
  1
10
 50
0.000002504478167
 41
0.6999999829701011
  7
STANDARD1
  0
LINE
  5
46E
  8
SIZE
  6
CONTINUOUS
 10
9.970270156860352
 20
-21.03513526916504
 30
0.0
 11
9.970270156860352
 21
-352.03515625
 31
0.0
  0
LINE
  5
46F
  8
SIZE
  6
CONTINUOUS
 10
-0.029729733243585
 20
-1.035135135054588
 30
0.0
 11
-0.029729733243585
 21
-352.03515625
 31
0.0
  0
LINE
  5
470
  8
SIZE
  6
CONTINUOUS
 10
79.94586944580078
 20
-350.03515625
 30
0.0
 11
-5.029729843139648
 21
-350.03515625
 31
0.0
  0
CIRCLE
  5
471
  8
SIZE
  6
CONTINUOUS
 10
9.970270156860352
 20
-350.03515625
 30
0.0
 40
0.5
  0
CIRCLE
  5
472
  8
SIZE
  6
CONTINUOUS
 10
9.970270156860352
 20
-350.03515625
 30
0.0
 40
0.4
  0
CIRCLE
  5
473
  8
SIZE
  6
CONTINUOUS
 10
9.970270156860352
 20
-350.03515625
 30
0.0
 40
0.3
  0
CIRCLE
  5
474
  8
SIZE
  6
CONTINUOUS
 10
9.970270156860352
 20
-350.03515625
 30
0.0
 40
0.2
  0
CIRCLE
  5
475
  8
SIZE
  6
CONTINUOUS
 10
9.970270156860352
 20
-350.03515625
 30
0.0
 40
0.1
  0
CIRCLE
  5
476
  8
SIZE
  6
CONTINUOUS
 10
-0.029729733243585
 20
-350.03515625
 30
0.0
 40
0.5
  0
CIRCLE
  5
477
  8
SIZE
  6
CONTINUOUS
 10
-0.029729733243585
 20
-350.03515625
 30
0.0
 40
0.4
  0
CIRCLE
  5
478
  8
SIZE
  6
CONTINUOUS
 10
-0.029729733243585
 20
-350.03515625
 30
0.0
 40
0.3
  0
CIRCLE
  5
479
  8
SIZE
  6
CONTINUOUS
 10
-0.029729733243585
 20
-350.03515625
 30
0.0
 40
0.2
  0
CIRCLE
  5
47A
  8
SIZE
  6
CONTINUOUS
 10
-0.029729733243585
 20
-350.03515625
 30
0.0
 40
0.1
  0
POINT
  5
47B
  8
DEFPOINTS
  6
BYBLOCK
 10
-0.029729733243585
 20
-0.035135135054588
 30
0.0
  0
POINT
  5
47C
  8
DEFPOINTS
  6
BYBLOCK
 10
9.970270156860352
 20
-20.03513526916504
 30
0.0
  0
POINT
  5
47D
  8
DEFPOINTS
  6
BYBLOCK
 10
9.970270156860352
 20
-350.03515625
 30
0.0
  0
ENDBLK
  5
47E
  8
SIZE
  0
BLOCK
  8
SIZE
  2
*D8
 70
     1
 10
0.0
 20
0.0
 30
0.0
  3
*D8
  1

  0
TEXT
  5
481
  8
SIZE
  6
CONTINUOUS
 10
-154.969726501304
 20
-549.0351318120958
 30
0.0
 40
2.799999952316284
  1
360
 50
0.000002504478167
 41
0.6999999829701011
  7
STANDARD1
  0
LINE
  5
482
  8
SIZE
  6
CONTINUOUS
 10
-332.0297241210937
 20
-1.035135135054588
 30
0.0
 11
-332.0297241210937
 21
-552.03515625
 31
0.0
  0
LINE
  5
483
  8
SIZE
  6
CONTINUOUS
 10
27.97027015686035
 20
6.96486473083496
 30
0.0
 11
27.97027015686035
 21
-552.03515625
 31
0.0
  0
LINE
  5
484
  8
SIZE
  6
CONTINUOUS
 10
-332.0297241210937
 20
-550.0351562499999
 30
0.0
 11
27.97027015686035
 21
-550.0351562499999
 31
0.0
  0
CIRCLE
  5
485
  8
SIZE
  6
CONTINUOUS
 10
-332.0297241210937
 20
-550.0351562499999
 30
0.0
 40
0.5
  0
CIRCLE
  5
486
  8
SIZE
  6
CONTINUOUS
 10
-332.0297241210937
 20
-550.0351562499999
 30
0.0
 40
0.4
  0
CIRCLE
  5
487
  8
SIZE
  6
CONTINUOUS
 10
-332.0297241210937
 20
-550.0351562499999
 30
0.0
 40
0.3
  0
CIRCLE
  5
488
  8
SIZE
  6
CONTINUOUS
 10
-332.0297241210937
 20
-550.0351562499999
 30
0.0
 40
0.2
  0
CIRCLE
  5
489
  8
SIZE
  6
CONTINUOUS
 10
-332.0297241210937
 20
-550.0351562499999
 30
0.0
 40
0.1
  0
CIRCLE
  5
48A
  8
SIZE
  6
CONTINUOUS
 10
27.97027015686035
 20
-550.0351562499999
 30
0.0
 40
0.5
  0
CIRCLE
  5
48B
  8
SIZE
  6
CONTINUOUS
 10
27.97027015686035
 20
-550.0351562499999
 30
0.0
 40
0.4
  0
CIRCLE
  5
48C
  8
SIZE
  6
CONTINUOUS
 10
27.97027015686035
 20
-550.0351562499999
 30
0.0
 40
0.3
  0
CIRCLE
  5
48D
  8
SIZE
  6
CONTINUOUS
 10
27.97027015686035
 20
-550.0351562499999
 30
0.0
 40
0.2
  0
CIRCLE
  5
48E
  8
SIZE
  6
CONTINUOUS
 10
27.97027015686035
 20
-550.0351562499999
 30
0.0
 40
0.1
  0
POINT
  5
48F
  8
DEFPOINTS
  6
BYBLOCK
 10
27.97027015686035
 20
7.96486473083496
 30
0.0
  0
POINT
  5
490
  8
DEFPOINTS
  6
BYBLOCK
 10
-332.0297241210937
 20
-0.035135135054588
 30
0.0
  0
POINT
  5
491
  8
DEFPOINTS
  6
BYBLOCK
 10
-332.0297241210937
 20
-550.0351562499999
 30
0.0
  0
ENDBLK
  5
492
  8
SIZE
  0
BLOCK
  8
SIZE
  2
*D9
 70
     1
 10
0.0
 20
0.0
 30
0.0
  3
*D9
  1

  0
TEXT
  5
495
  8
SIZE
  6
CONTINUOUS
 10
-157.969726501304
 20
-449.0351623296738
 30
0.0
 40
2.799999952316284
  1
330
 50
0.000002504478167
 41
0.6999999829701011
  7
STANDARD1
  0
LINE
  5
496
  8
SIZE
  6
CONTINUOUS
 10
9.970270156860352
 20
-21.03513526916504
 30
0.0
 11
9.970270156860352
 21
-452.03515625
 31
0.0
  0
LINE
  5
497
  8
SIZE
  6
CONTINUOUS
 10
-320.0297241210937
 20
-21.03513526916504
 30
0.0
 11
-320.0297241210937
 21
-452.03515625
 31
0.0
  0
LINE
  5
498
  8
SIZE
  6
CONTINUOUS
 10
9.970270156860352
 20
-450.0351562499999
 30
0.0
 11
-320.0297241210937
 21
-450.0351562499999
 31
0.0
  0
CIRCLE
  5
499
  8
SIZE
  6
CONTINUOUS
 10
9.970270156860352
 20
-450.0351562499999
 30
0.0
 40
0.5
  0
CIRCLE
  5
49A
  8
SIZE
  6
CONTINUOUS
 10
9.970270156860352
 20
-450.0351562499999
 30
0.0
 40
0.4
  0
CIRCLE
  5
49B
  8
SIZE
  6
CONTINUOUS
 10
9.970270156860352
 20
-450.0351562499999
 30
0.0
 40
0.3
  0
CIRCLE
  5
49C
  8
SIZE
  6
CONTINUOUS
 10
9.970270156860352
 20
-450.0351562499999
 30
0.0
 40
0.2
  0
CIRCLE
  5
49D
  8
SIZE
  6
CONTINUOUS
 10
9.970270156860352
 20
-450.0351562499999
 30
0.0
 40
0.1
  0
CIRCLE
  5
49E
  8
SIZE
  6
CONTINUOUS
 10
-320.0297241210937
 20
-450.0351562499999
 30
0.0
 40
0.5
  0
CIRCLE
  5
49F
  8
SIZE
  6
CONTINUOUS
 10
-320.0297241210937
 20
-450.0351562499999
 30
0.0
 40
0.4
  0
CIRCLE
  5
4A0
  8
SIZE
  6
CONTINUOUS
 10
-320.0297241210937
 20
-450.0351562499999
 30
0.0
 40
0.3
  0
CIRCLE
  5
4A1
  8
SIZE
  6
CONTINUOUS
 10
-320.0297241210937
 20
-450.0351562499999
 30
0.0
 40
0.2
  0
CIRCLE
  5
4A2
  8
SIZE
  6
CONTINUOUS
 10
-320.0297241210937
 20
-450.0351562499999
 30
0.0
 40
0.1
  0
POINT
  5
4A3
  8
DEFPOINTS
  6
BYBLOCK
 10
-320.0297241210937
 20
-20.03513526916504
 30
0.0
  0
POINT
  5
4A4
  8
DEFPOINTS
  6
BYBLOCK
 10
9.970270156860352
 20
-20.03513526916504
 30
0.0
  0
POINT
  5
4A5
  8
DEFPOINTS
  6
BYBLOCK
 10
9.970270156860352
 20
-450.0351562499999
 30
0.0
  0
ENDBLK
  5
4A6
  8
SIZE
  0
BLOCK
  8
SIZE
  2
*D10
 70
     1
 10
0.0
 20
0.0
 30
0.0
  3
*D10
  1

  0
TEXT
  5
4A9
  8
SIZE
  6
CONTINUOUS
 10
-152.969726501304
 20
-349.0351623296738
 30
0.0
 40
2.799999952316284
  1
300
 50
0.000002504478167
 41
0.6999999829701011
  7
STANDARD1
  0
LINE
  5
4AA
  8
SIZE
  6
CONTINUOUS
 10
-300.0297241210937
 20
-1.035135135054588
 30
0.0
 11
-300.0297241210937
 21
-352.03515625
 31
0.0
  0
LINE
  5
4AB
  8
SIZE
  6
CONTINUOUS
 10
-0.029729733243585
 20
-1.035135135054588
 30
0.0
 11
-0.029729733243585
 21
-352.03515625
 31
0.0
  0
LINE
  5
4AC
  8
SIZE
  6
CONTINUOUS
 10
-300.0297241210937
 20
-350.03515625
 30
0.0
 11
-0.029729733243585
 21
-350.03515625
 31
0.0
  0
CIRCLE
  5
4AD
  8
SIZE
  6
CONTINUOUS
 10
-300.0297241210937
 20
-350.03515625
 30
0.0
 40
0.5
  0
CIRCLE
  5
4AE
  8
SIZE
  6
CONTINUOUS
 10
-300.0297241210937
 20
-350.03515625
 30
0.0
 40
0.4
  0
CIRCLE
  5
4AF
  8
SIZE
  6
CONTINUOUS
 10
-300.0297241210937
 20
-350.03515625
 30
0.0
 40
0.3
  0
CIRCLE
  5
4B0
  8
SIZE
  6
CONTINUOUS
 10
-300.0297241210937
 20
-350.03515625
 30
0.0
 40
0.2
  0
CIRCLE
  5
4B1
  8
SIZE
  6
CONTINUOUS
 10
-300.0297241210937
 20
-350.03515625
 30
0.0
 40
0.1
  0
CIRCLE
  5
4B2
  8
SIZE
  6
CONTINUOUS
 10
-0.029729733243585
 20
-350.03515625
 30
0.0
 40
0.5
  0
CIRCLE
  5
4B3
  8
SIZE
  6
CONTINUOUS
 10
-0.029729733243585
 20
-350.03515625
 30
0.0
 40
0.4
  0
CIRCLE
  5
4B4
  8
SIZE
  6
CONTINUOUS
 10
-0.029729733243585
 20
-350.03515625
 30
0.0
 40
0.3
  0
CIRCLE
  5
4B5
  8
SIZE
  6
CONTINUOUS
 10
-0.029729733243585
 20
-350.03515625
 30
0.0
 40
0.2
  0
CIRCLE
  5
4B6
  8
SIZE
  6
CONTINUOUS
 10
-0.029729733243585
 20
-350.03515625
 30
0.0
 40
0.1
  0
POINT
  5
4B7
  8
DEFPOINTS
  6
BYBLOCK
 10
-0.029729733243585
 20
-0.035135135054588
 30
0.0
  0
POINT
  5
4B8
  8
DEFPOINTS
  6
BYBLOCK
 10
-300.0297241210937
 20
-0.035135135054588
 30
0.0
  0
POINT
  5
4B9
  8
DEFPOINTS
  6
BYBLOCK
 10
-300.0297241210937
 20
-350.03515625
 30
0.0
  0
ENDBLK
  5
4BA
  8
SIZE
  0
BLOCK
  8
SIZE
  2
*D11
 70
     1
 10
0.0
 20
0.0
 30
0.0
  3
*D11
  1

  0
TEXT
  5
4BD
  8
SIZE
  6
CONTINUOUS
 10
390.0368713140488
 20
762.0248414309855
 30
0.0
 40
2.799999952316284
  1
100
 50
90.00000500895634
 41
0.6999999829701011
  7
STANDARD1
  0
LINE
  5
4BE
  8
SIZE
  6
CONTINUOUS
 10
100.9702682495117
 20
814.9648437499999
 30
0.0
 11
393.0368652343751
 21
814.9648437499999
 31
0.0
  0
LINE
  5
4BF
  8
SIZE
  6
CONTINUOUS
 10
0.970270266756415
 20
714.9648437499999
 30
0.0
 11
393.0368652343751
 21
714.9648437499999
 31
0.0
  0
LINE
  5
4C0
  8
SIZE
  6
CONTINUOUS
 10
391.036865234375
 20
814.9648437499999
 30
0.0
 11
391.036865234375
 21
714.9648437499999
 31
0.0
  0
CIRCLE
  5
4C1
  8
SIZE
  6
CONTINUOUS
 10
391.036865234375
 20
814.9648437499999
 30
0.0
 40
0.5
  0
CIRCLE
  5
4C2
  8
SIZE
  6
CONTINUOUS
 10
391.036865234375
 20
814.9648437499999
 30
0.0
 40
0.4
  0
CIRCLE
  5
4C3
  8
SIZE
  6
CONTINUOUS
 10
391.036865234375
 20
814.9648437499999
 30
0.0
 40
0.3
  0
CIRCLE
  5
4C4
  8
SIZE
  6
CONTINUOUS
 10
391.036865234375
 20
814.9648437499999
 30
0.0
 40
0.2
  0
CIRCLE
  5
4C5
  8
SIZE
  6
CONTINUOUS
 10
391.036865234375
 20
814.9648437499999
 30
0.0
 40
0.1
  0
CIRCLE
  5
4C6
  8
SIZE
  6
CONTINUOUS
 10
391.036865234375
 20
714.9648437499999
 30
0.0
 40
0.5
  0
CIRCLE
  5
4C7
  8
SIZE
  6
CONTINUOUS
 10
391.036865234375
 20
714.9648437499999
 30
0.0
 40
0.4
  0
CIRCLE
  5
4C8
  8
SIZE
  6
CONTINUOUS
 10
391.036865234375
 20
714.9648437499999
 30
0.0
 40
0.3
  0
CIRCLE
  5
4C9
  8
SIZE
  6
CONTINUOUS
 10
391.036865234375
 20
714.9648437499999
 30
0.0
 40
0.2
  0
CIRCLE
  5
4CA
  8
SIZE
  6
CONTINUOUS
 10
391.036865234375
 20
714.9648437499999
 30
0.0
 40
0.1
  0
POINT
  5
4CB
  8
DEFPOINTS
  6
BYBLOCK
 10
-0.029729733243585
 20
714.9648437499999
 30
0.0
  0
POINT
  5
4CC
  8
DEFPOINTS
  6
BYBLOCK
 10
99.97026824951172
 20
814.9648437499999
 30
0.0
  0
POINT
  5
4CD
  8
DEFPOINTS
  6
BYBLOCK
 10
391.036865234375
 20
814.9648437499999
 30
0.0
  0
ENDBLK
  5
4CE
  8
SIZE
  0
BLOCK
  8
SIZE
  2
*D12
 70
     1
 10
0.0
 20
0.0
 30
0.0
  3
*D12
  1

  0
TEXT
  5
4D1
  8
SIZE
  6
CONTINUOUS
 10
544.7331908941269
 20
404.5248719485638
 30
0.0
 40
2.799999952316284
  1
815
 50
90.00000500895634
 41
0.6999999829701011
  7
STANDARD1
  0
LINE
  5
4D2
  8
SIZE
  6
CONTINUOUS
 10
100.9702682495117
 20
814.9648437499999
 30
0.0
 11
547.7332153320312
 21
814.9648437499999
 31
0.0
  0
LINE
  5
4D3
  8
SIZE
  6
CONTINUOUS
 10
100.9702682495117
 20
-0.035135135054588
 30
0.0
 11
547.7332153320312
 21
-0.035135135054588
 31
0.0
  0
LINE
  5
4D4
  8
SIZE
  6
CONTINUOUS
 10
545.7332153320312
 20
814.9648437499999
 30
0.0
 11
545.7332153320312
 21
-0.035135135054588
 31
0.0
  0
CIRCLE
  5
4D5
  8
SIZE
  6
CONTINUOUS
 10
545.7332153320312
 20
814.9648437499999
 30
0.0
 40
0.5
  0
CIRCLE
  5
4D6
  8
SIZE
  6
CONTINUOUS
 10
545.7332153320312
 20
814.9648437499999
 30
0.0
 40
0.4
  0
CIRCLE
  5
4D7
  8
SIZE
  6
CONTINUOUS
 10
545.7332153320312
 20
814.9648437499999
 30
0.0
 40
0.3
  0
CIRCLE
  5
4D8
  8
SIZE
  6
CONTINUOUS
 10
545.7332153320312
 20
814.9648437499999
 30
0.0
 40
0.2
  0
CIRCLE
  5
4D9
  8
SIZE
  6
CONTINUOUS
 10
545.7332153320312
 20
814.9648437499999
 30
0.0
 40
0.1
  0
CIRCLE
  5
4DA
  8
SIZE
  6
CONTINUOUS
 10
545.7332153320312
 20
-0.035135135054588
 30
0.0
 40
0.5
  0
CIRCLE
  5
4DB
  8
SIZE
  6
CONTINUOUS
 10
545.7332153320312
 20
-0.035135135054588
 30
0.0
 40
0.4
  0
CIRCLE
  5
4DC
  8
SIZE
  6
CONTINUOUS
 10
545.7332153320312
 20
-0.035135135054588
 30
0.0
 40
0.3
  0
CIRCLE
  5
4DD
  8
SIZE
  6
CONTINUOUS
 10
545.7332153320312
 20
-0.035135135054588
 30
0.0
 40
0.2
  0
CIRCLE
  5
4DE
  8
SIZE
  6
CONTINUOUS
 10
545.7332153320312
 20
-0.035135135054588
 30
0.0
 40
0.1
  0
POINT
  5
4DF
  8
DEFPOINTS
  6
BYBLOCK
 10
99.97026824951172
 20
-0.035135135054588
 30
0.0
  0
POINT
  5
4E0
  8
DEFPOINTS
  6
BYBLOCK
 10
99.97026824951172
 20
814.9648437499999
 30
0.0
  0
POINT
  5
4E1
  8
DEFPOINTS
  6
BYBLOCK
 10
545.7332153320312
 20
814.9648437499999
 30
0.0
  0
ENDBLK
  5
4E2
  8
SIZE
  0
BLOCK
  8
SIZE
  2
*D13
 70
     1
 10
0.0
 20
0.0
 30
0.0
  3
*D13
  1

  0
TEXT
  5
4E5
  8
SIZE
  6
CONTINUOUS
 10
390.0368713140488
 20
354.5248719485638
 30
0.0
 40
2.799999952316284
  1
715
 50
90.00000500895634
 41
0.6999999829701011
  7
STANDARD1
  0
LINE
  5
4E6
  8
SIZE
  6
CONTINUOUS
 10
0.970270266756415
 20
714.9648437499999
 30
0.0
 11
393.0368652343751
 21
714.9648437499999
 31
0.0
  0
LINE
  5
4E7
  8
SIZE
  6
CONTINUOUS
 10
100.9702682495117
 20
-0.035135135054588
 30
0.0
 11
393.0368652343751
 21
-0.035135135054588
 31
0.0
  0
LINE
  5
4E8
  8
SIZE
  6
CONTINUOUS
 10
391.036865234375
 20
714.9648437499999
 30
0.0
 11
391.036865234375
 21
-0.035135135054588
 31
0.0
  0
CIRCLE
  5
4E9
  8
SIZE
  6
CONTINUOUS
 10
391.036865234375
 20
714.9648437499999
 30
0.0
 40
0.5
  0
CIRCLE
  5
4EA
  8
SIZE
  6
CONTINUOUS
 10
391.036865234375
 20
714.9648437499999
 30
0.0
 40
0.4
  0
CIRCLE
  5
4EB
  8
SIZE
  6
CONTINUOUS
 10
391.036865234375
 20
714.9648437499999
 30
0.0
 40
0.3
  0
CIRCLE
  5
4EC
  8
SIZE
  6
CONTINUOUS
 10
391.036865234375
 20
714.9648437499999
 30
0.0
 40
0.2
  0
CIRCLE
  5
4ED
  8
SIZE
  6
CONTINUOUS
 10
391.036865234375
 20
714.9648437499999
 30
0.0
 40
0.1
  0
CIRCLE
  5
4EE
  8
SIZE
  6
CONTINUOUS
 10
391.036865234375
 20
-0.035135135054588
 30
0.0
 40
0.5
  0
CIRCLE
  5
4EF
  8
SIZE
  6
CONTINUOUS
 10
391.036865234375
 20
-0.035135135054588
 30
0.0
 40
0.4
  0
CIRCLE
  5
4F0
  8
SIZE
  6
CONTINUOUS
 10
391.036865234375
 20
-0.035135135054588
 30
0.0
 40
0.3
  0
CIRCLE
  5
4F1
  8
SIZE
  6
CONTINUOUS
 10
391.036865234375
 20
-0.035135135054588
 30
0.0
 40
0.2
  0
CIRCLE
  5
4F2
  8
SIZE
  6
CONTINUOUS
 10
391.036865234375
 20
-0.035135135054588
 30
0.0
 40
0.1
  0
POINT
  5
4F3
  8
DEFPOINTS
  6
BYBLOCK
 10
99.97026824951172
 20
-0.035135135054588
 30
0.0
  0
POINT
  5
4F4
  8
DEFPOINTS
  6
BYBLOCK
 10
-0.029729733243585
 20
714.9648437499999
 30
0.0
  0
POINT
  5
4F5
  8
DEFPOINTS
  6
BYBLOCK
 10
391.036865234375
 20
714.9648437499999
 30
0.0
  0
ENDBLK
  5
4F6
  8
SIZE
  0
BLOCK
  8
SIZE
  2
*D14
 70
     1
 10
0.0
 20
0.0
 30
0.0
  3
*D14
  1

  0
TEXT
  5
4F9
  8
SIZE
  6
CONTINUOUS
 10
-377.6756591184916
 20
916.9648681879044
 30
0.0
 40
2.799999952316284
  1
20
 50
0.000002504478167
 41
0.6999999829701011
  7
STANDARD1
  0
LINE
  5
4FA
  8
SIZE
  6
CONTINUOUS
 10
-320.0297241210937
 20
630.9648437499999
 30
0.0
 11
-320.0297241210937
 21
917.96484375
 31
0.0
  0
LINE
  5
4FB
  8
SIZE
  6
CONTINUOUS
 10
-300.0297241210937
 20
815.9648437499999
 30
0.0
 11
-300.0297241210937
 21
917.96484375
 31
0.0
  0
LINE
  5
4FC
  8
SIZE
  6
CONTINUOUS
 10
-379.0756530761719
 20
915.9648437499999
 30
0.0
 11
-295.0297241210937
 21
915.9648437499999
 31
0.0
  0
CIRCLE
  5
4FD
  8
SIZE
  6
CONTINUOUS
 10
-320.0297241210937
 20
915.9648437499999
 30
0.0
 40
0.5
  0
CIRCLE
  5
4FE
  8
SIZE
  6
CONTINUOUS
 10
-320.0297241210937
 20
915.9648437499999
 30
0.0
 40
0.4
  0
CIRCLE
  5
4FF
  8
SIZE
  6
CONTINUOUS
 10
-320.0297241210937
 20
915.9648437499999
 30
0.0
 40
0.3
  0
CIRCLE
  5
500
  8
SIZE
  6
CONTINUOUS
 10
-320.0297241210937
 20
915.9648437499999
 30
0.0
 40
0.2
  0
CIRCLE
  5
501
  8
SIZE
  6
CONTINUOUS
 10
-320.0297241210937
 20
915.9648437499999
 30
0.0
 40
0.1
  0
CIRCLE
  5
502
  8
SIZE
  6
CONTINUOUS
 10
-300.0297241210937
 20
915.9648437499999
 30
0.0
 40
0.5
  0
CIRCLE
  5
503
  8
SIZE
  6
CONTINUOUS
 10
-300.0297241210937
 20
915.9648437499999
 30
0.0
 40
0.4
  0
CIRCLE
  5
504
  8
SIZE
  6
CONTINUOUS
 10
-300.0297241210937
 20
915.9648437499999
 30
0.0
 40
0.3
  0
CIRCLE
  5
505
  8
SIZE
  6
CONTINUOUS
 10
-300.0297241210937
 20
915.9648437499999
 30
0.0
 40
0.2
  0
CIRCLE
  5
506
  8
SIZE
  6
CONTINUOUS
 10
-300.0297241210937
 20
915.9648437499999
 30
0.0
 40
0.1
  0
POINT
  5
507
  8
DEFPOINTS
  6
BYBLOCK
 10
-300.0297241210937
 20
814.9648437499999
 30
0.0
  0
POINT
  5
508
  8
DEFPOINTS
  6
BYBLOCK
 10
-320.0297241210937
 20
629.96484375
 30
0.0
  0
POINT
  5
509
  8
DEFPOINTS
  6
BYBLOCK
 10
-320.0297241210937
 20
915.9648437499999
 30
0.0
  0
ENDBLK
  5
50A
  8
SIZE
  0
BLOCK
  8
SIZE
  2
*D15
 70
     1
 10
0.0
 20
0.0
 30
0.0
  3
*D15
  1

  0
TEXT
  5
50D
  8
SIZE
  6
CONTINUOUS
 10
-622.0125976800917
 20
200.0248566897747
 30
0.0
 40
2.799999952316284
  1
406
 50
90.00000500895634
 41
0.6999999829701011
  7
STANDARD1
  0
LINE
  5
50E
  8
SIZE
  6
CONTINUOUS
 10
-371.0297241210938
 20
405.964874267578
 30
0.0
 11
-623.0125732421875
 21
405.964874267578
 31
0.0
  0
LINE
  5
50F
  8
SIZE
  6
CONTINUOUS
 10
-501.0297241210937
 20
-0.035135135054588
 30
0.0
 11
-623.0125732421875
 21
-0.035135135054588
 31
0.0
  0
LINE
  5
510
  8
SIZE
  6
CONTINUOUS
 10
-621.0125732421874
 20
405.964874267578
 30
0.0
 11
-621.0125732421874
 21
-0.035135135054588
 31
0.0
  0
CIRCLE
  5
511
  8
SIZE
  6
CONTINUOUS
 10
-621.0125732421874
 20
405.964874267578
 30
0.0
 40
0.5
  0
CIRCLE
  5
512
  8
SIZE
  6
CONTINUOUS
 10
-621.0125732421874
 20
405.964874267578
 30
0.0
 40
0.4
  0
CIRCLE
  5
513
  8
SIZE
  6
CONTINUOUS
 10
-621.0125732421874
 20
405.964874267578
 30
0.0
 40
0.3
  0
CIRCLE
  5
514
  8
SIZE
  6
CONTINUOUS
 10
-621.0125732421874
 20
405.964874267578
 30
0.0
 40
0.2
  0
CIRCLE
  5
515
  8
SIZE
  6
CONTINUOUS
 10
-621.0125732421874
 20
405.964874267578
 30
0.0
 40
0.1
  0
CIRCLE
  5
516
  8
SIZE
  6
CONTINUOUS
 10
-621.0125732421874
 20
-0.035135135054588
 30
0.0
 40
0.5
  0
CIRCLE
  5
517
  8
SIZE
  6
CONTINUOUS
 10
-621.0125732421874
 20
-0.035135135054588
 30
0.0
 40
0.4
  0
CIRCLE
  5
518
  8
SIZE
  6
CONTINUOUS
 10
-621.0125732421874
 20
-0.035135135054588
 30
0.0
 40
0.3
  0
CIRCLE
  5
519
  8
SIZE
  6
CONTINUOUS
 10
-621.0125732421874
 20
-0.035135135054588
 30
0.0
 40
0.2
  0
CIRCLE
  5
51A
  8
SIZE
  6
CONTINUOUS
 10
-621.0125732421874
 20
-0.035135135054588
 30
0.0
 40
0.1
  0
POINT
  5
51B
  8
DEFPOINTS
  6
BYBLOCK
 10
-500.0297241210937
 20
-0.035135135054588
 30
0.0
  0
POINT
  5
51C
  8
DEFPOINTS
  6
BYBLOCK
 10
-370.0297241210937
 20
405.964874267578
 30
0.0
  0
POINT
  5
51D
  8
DEFPOINTS
  6
BYBLOCK
 10
-621.0125732421874
 20
405.964874267578
 30
0.0
  0
ENDBLK
  5
51E
  8
SIZE
  0
BLOCK
  8
SIZE
  2
*D16
 70
     1
 10
0.0
 20
0.0
 30
0.0
  3
*D16
  1

  0
TEXT
  5
521
  8
SIZE
  6
CONTINUOUS
 10
-756.283898949623
 20
404.5248719485638
 30
0.0
 40
2.799999952316284
  1
815
 50
90.00000500895634
 41
0.6999999829701011
  7
STANDARD1
  0
LINE
  5
522
  8
SIZE
  6
CONTINUOUS
 10
-501.0297241210937
 20
814.9648437499999
 30
0.0
 11
-757.2838745117188
 21
814.9648437499999
 31
0.0
  0
LINE
  5
523
  8
SIZE
  6
CONTINUOUS
 10
-501.0297241210937
 20
-0.035135135054588
 30
0.0
 11
-757.2838745117188
 21
-0.035135135054588
 31
0.0
  0
LINE
  5
524
  8
SIZE
  6
CONTINUOUS
 10
-755.2838745117188
 20
814.9648437499999
 30
0.0
 11
-755.2838745117188
 21
-0.035135135054588
 31
0.0
  0
CIRCLE
  5
525
  8
SIZE
  6
CONTINUOUS
 10
-755.2838745117188
 20
814.9648437499999
 30
0.0
 40
0.5
  0
CIRCLE
  5
526
  8
SIZE
  6
CONTINUOUS
 10
-755.2838745117188
 20
814.9648437499999
 30
0.0
 40
0.4
  0
CIRCLE
  5
527
  8
SIZE
  6
CONTINUOUS
 10
-755.2838745117188
 20
814.9648437499999
 30
0.0
 40
0.3
  0
CIRCLE
  5
528
  8
SIZE
  6
CONTINUOUS
 10
-755.2838745117188
 20
814.9648437499999
 30
0.0
 40
0.2
  0
CIRCLE
  5
529
  8
SIZE
  6
CONTINUOUS
 10
-755.2838745117188
 20
814.9648437499999
 30
0.0
 40
0.1
  0
CIRCLE
  5
52A
  8
SIZE
  6
CONTINUOUS
 10
-755.2838745117188
 20
-0.035135135054588
 30
0.0
 40
0.5
  0
CIRCLE
  5
52B
  8
SIZE
  6
CONTINUOUS
 10
-755.2838745117188
 20
-0.035135135054588
 30
0.0
 40
0.4
  0
CIRCLE
  5
52C
  8
SIZE
  6
CONTINUOUS
 10
-755.2838745117188
 20
-0.035135135054588
 30
0.0
 40
0.3
  0
CIRCLE
  5
52D
  8
SIZE
  6
CONTINUOUS
 10
-755.2838745117188
 20
-0.035135135054588
 30
0.0
 40
0.2
  0
CIRCLE
  5
52E
  8
SIZE
  6
CONTINUOUS
 10
-755.2838745117188
 20
-0.035135135054588
 30
0.0
 40
0.1
  0
POINT
  5
52F
  8
DEFPOINTS
  6
BYBLOCK
 10
-500.0297241210937
 20
-0.035135135054588
 30
0.0
  0
POINT
  5
530
  8
DEFPOINTS
  6
BYBLOCK
 10
-500.0297241210937
 20
814.9648437499999
 30
0.0
  0
POINT
  5
531
  8
DEFPOINTS
  6
BYBLOCK
 10
-755.2838745117188
 20
814.9648437499999
 30
0.0
  0
ENDBLK
  5
532
  8
SIZE
  0
BLOCK
  8
SIZE
  2
*D17
 70
     1
 10
0.0
 20
0.0
 30
0.0
  3
*D17
  1

  0
TEXT
  5
535
  8
SIZE
  6
CONTINUOUS
 10
-152.969726501304
 20
1065.964868187904
 30
0.0
 40
2.799999952316284
  1
300
 50
0.000002504478167
 41
0.6999999829701011
  7
STANDARD1
  0
LINE
  5
536
  8
SIZE
  6
CONTINUOUS
 10
-0.029729733243585
 20
815.9648437499999
 30
0.0
 11
-0.029729733243585
 21
1066.96484375
 31
0.0
  0
LINE
  5
537
  8
SIZE
  6
CONTINUOUS
 10
-300.0297241210937
 20
815.9648437499999
 30
0.0
 11
-300.0297241210937
 21
1066.96484375
 31
0.0
  0
LINE
  5
538
  8
SIZE
  6
CONTINUOUS
 10
-0.029729733243585
 20
1064.96484375
 30
0.0
 11
-300.0297241210937
 21
1064.96484375
 31
0.0
  0
CIRCLE
  5
539
  8
SIZE
  6
CONTINUOUS
 10
-0.029729733243585
 20
1064.96484375
 30
0.0
 40
0.5
  0
CIRCLE
  5
53A
  8
SIZE
  6
CONTINUOUS
 10
-0.029729733243585
 20
1064.96484375
 30
0.0
 40
0.4
  0
CIRCLE
  5
53B
  8
SIZE
  6
CONTINUOUS
 10
-0.029729733243585
 20
1064.96484375
 30
0.0
 40
0.3
  0
CIRCLE
  5
53C
  8
SIZE
  6
CONTINUOUS
 10
-0.029729733243585
 20
1064.96484375
 30
0.0
 40
0.2
  0
CIRCLE
  5
53D
  8
SIZE
  6
CONTINUOUS
 10
-0.029729733243585
 20
1064.96484375
 30
0.0
 40
0.1
  0
CIRCLE
  5
53E
  8
SIZE
  6
CONTINUOUS
 10
-300.0297241210937
 20
1064.96484375
 30
0.0
 40
0.5
  0
CIRCLE
  5
53F
  8
SIZE
  6
CONTINUOUS
 10
-300.0297241210937
 20
1064.96484375
 30
0.0
 40
0.4
  0
CIRCLE
  5
540
  8
SIZE
  6
CONTINUOUS
 10
-300.0297241210937
 20
1064.96484375
 30
0.0
 40
0.3
  0
CIRCLE
  5
541
  8
SIZE
  6
CONTINUOUS
 10
-300.0297241210937
 20
1064.96484375
 30
0.0
 40
0.2
  0
CIRCLE
  5
542
  8
SIZE
  6
CONTINUOUS
 10
-300.0297241210937
 20
1064.96484375
 30
0.0
 40
0.1
  0
POINT
  5
543
  8
DEFPOINTS
  6
BYBLOCK
 10
-300.0297241210937
 20
814.9648437499999
 30
0.0
  0
POINT
  5
544
  8
DEFPOINTS
  6
BYBLOCK
 10
-0.029729733243585
 20
814.9648437499999
 30
0.0
  0
POINT
  5
545
  8
DEFPOINTS
  6
BYBLOCK
 10
-0.029729733243585
 20
1064.96484375
 30
0.0
  0
ENDBLK
  5
546
  8
SIZE
  0
BLOCK
  8
SIZE
  2
*D18
 70
     1
 10
0.0
 20
0.0
 30
0.0
  3
*D18
  1

  0
TEXT
  5
549
  8
SIZE
  6
CONTINUOUS
 10
-401.0297180414199
 20
58.34953701814384
 30
0.0
 40
2.799999952316284
  1
8
 50
90.00000500895634
 41
0.6999999829701011
  7
STANDARD1
  0
LINE
  5
54A
  8
SIZE
  6
CONTINUOUS
 10
-333.0297241210937
 20
-0.035135135054588
 30
0.0
 11
-402.0297241210937
 21
-0.035135135054588
 31
0.0
  0
LINE
  5
54B
  8
SIZE
  6
CONTINUOUS
 10
-333.0297241210937
 20
7.96486473083496
 30
0.0
 11
-402.0297241210937
 21
7.96486473083496
 31
0.0
  0
LINE
  5
54C
  8
SIZE
  6
CONTINUOUS
 10
-400.0297241210937
 20
-5.035135269165039
 30
0.0
 11
-400.0297241210937
 21
61.70953750610352
 31
0.0
  0
CIRCLE
  5
54D
  8
SIZE
  6
CONTINUOUS
 10
-400.0297241210937
 20
-0.035135135054588
 30
0.0
 40
0.5
  0
CIRCLE
  5
54E
  8
SIZE
  6
CONTINUOUS
 10
-400.0297241210937
 20
-0.035135135054588
 30
0.0
 40
0.4
  0
CIRCLE
  5
54F
  8
SIZE
  6
CONTINUOUS
 10
-400.0297241210937
 20
-0.035135135054588
 30
0.0
 40
0.3
  0
CIRCLE
  5
550
  8
SIZE
  6
CONTINUOUS
 10
-400.0297241210937
 20
-0.035135135054588
 30
0.0
 40
0.2
  0
CIRCLE
  5
551
  8
SIZE
  6
CONTINUOUS
 10
-400.0297241210937
 20
-0.035135135054588
 30
0.0
 40
0.1
  0
CIRCLE
  5
552
  8
SIZE
  6
CONTINUOUS
 10
-400.0297241210937
 20
7.96486473083496
 30
0.0
 40
0.5
  0
CIRCLE
  5
553
  8
SIZE
  6
CONTINUOUS
 10
-400.0297241210937
 20
7.96486473083496
 30
0.0
 40
0.4
  0
CIRCLE
  5
554
  8
SIZE
  6
CONTINUOUS
 10
-400.0297241210937
 20
7.96486473083496
 30
0.0
 40
0.3
  0
CIRCLE
  5
555
  8
SIZE
  6
CONTINUOUS
 10
-400.0297241210937
 20
7.96486473083496
 30
0.0
 40
0.2
  0
CIRCLE
  5
556
  8
SIZE
  6
CONTINUOUS
 10
-400.0297241210937
 20
7.96486473083496
 30
0.0
 40
0.1
  0
POINT
  5
557
  8
DEFPOINTS
  6
BYBLOCK
 10
-332.0297241210937
 20
7.96486473083496
 30
0.0
  0
POINT
  5
558
  8
DEFPOINTS
  6
BYBLOCK
 10
-332.0297241210937
 20
-0.035135135054588
 30
0.0
  0
POINT
  5
559
  8
DEFPOINTS
  6
BYBLOCK
 10
-400.0297241210937
 20
-0.035135135054588
 30
0.0
  0
ENDBLK
  5
55A
  8
SIZE
  0
BLOCK
  8
SIZE
  2
*D19
 70
     1
 10
0.0
 20
0.0
 30
0.0
  3
*D19
  1

  0
TEXT
  5
55D
  8
SIZE
  6
CONTINUOUS
 10
47.03026968399868
 20
1065.964868187904
 30
0.0
 40
2.799999952316284
  1
100
 50
0.000002504478167
 41
0.6999999829701011
  7
STANDARD1
  0
LINE
  5
55E
  8
SIZE
  6
CONTINUOUS
 10
-0.029729733243585
 20
815.9648437499999
 30
0.0
 11
-0.029729733243585
 21
1066.96484375
 31
0.0
  0
LINE
  5
55F
  8
SIZE
  6
CONTINUOUS
 10
99.97026824951172
 20
815.9648437499999
 30
0.0
 11
99.97026824951172
 21
1066.96484375
 31
0.0
  0
LINE
  5
560
  8
SIZE
  6
CONTINUOUS
 10
-0.029729733243585
 20
1064.96484375
 30
0.0
 11
99.97026824951172
 21
1064.96484375
 31
0.0
  0
CIRCLE
  5
561
  8
SIZE
  6
CONTINUOUS
 10
-0.029729733243585
 20
1064.96484375
 30
0.0
 40
0.5
  0
CIRCLE
  5
562
  8
SIZE
  6
CONTINUOUS
 10
-0.029729733243585
 20
1064.96484375
 30
0.0
 40
0.4
  0
CIRCLE
  5
563
  8
SIZE
  6
CONTINUOUS
 10
-0.029729733243585
 20
1064.96484375
 30
0.0
 40
0.3
  0
CIRCLE
  5
564
  8
SIZE
  6
CONTINUOUS
 10
-0.029729733243585
 20
1064.96484375
 30
0.0
 40
0.2
  0
CIRCLE
  5
565
  8
SIZE
  6
CONTINUOUS
 10
-0.029729733243585
 20
1064.96484375
 30
0.0
 40
0.1
  0
CIRCLE
  5
566
  8
SIZE
  6
CONTINUOUS
 10
99.97026824951172
 20
1064.96484375
 30
0.0
 40
0.5
  0
CIRCLE
  5
567
  8
SIZE
  6
CONTINUOUS
 10
99.97026824951172
 20
1064.96484375
 30
0.0
 40
0.4
  0
CIRCLE
  5
568
  8
SIZE
  6
CONTINUOUS
 10
99.97026824951172
 20
1064.96484375
 30
0.0
 40
0.3
  0
CIRCLE
  5
569
  8
SIZE
  6
CONTINUOUS
 10
99.97026824951172
 20
1064.96484375
 30
0.0
 40
0.2
  0
CIRCLE
  5
56A
  8
SIZE
  6
CONTINUOUS
 10
99.97026824951172
 20
1064.96484375
 30
0.0
 40
0.1
  0
POINT
  5
56B
  8
DEFPOINTS
  6
BYBLOCK
 10
99.97026824951172
 20
814.9648437499999
 30
0.0
  0
POINT
  5
56C
  8
DEFPOINTS
  6
BYBLOCK
 10
-0.029729733243585
 20
814.9648437499999
 30
0.0
  0
POINT
  5
56D
  8
DEFPOINTS
  6
BYBLOCK
 10
-0.029729733243585
 20
1064.96484375
 30
0.0
  0
ENDBLK
  5
56E
  8
SIZE
  0
BLOCK
  8
SIZE
  2
*D20
 70
     1
 10
0.0
 20
0.0
 30
0.0
  3
*D20
  1

  0
TEXT
  5
571
  8
SIZE
  6
CONTINUOUS
 10
-402.969726501304
 20
1065.964868187904
 30
0.0
 40
2.799999952316284
  1
200
 50
0.000002504478167
 41
0.6999999829701011
  7
STANDARD1
  0
LINE
  5
572
  8
SIZE
  6
CONTINUOUS
 10
-500.0297241210937
 20
815.9648437499999
 30
0.0
 11
-500.0297241210937
 21
1066.96484375
 31
0.0
  0
LINE
  5
573
  8
SIZE
  6
CONTINUOUS
 10
-300.0297241210937
 20
815.9648437499999
 30
0.0
 11
-300.0297241210937
 21
1066.96484375
 31
0.0
  0
LINE
  5
574
  8
SIZE
  6
CONTINUOUS
 10
-500.0297241210937
 20
1064.96484375
 30
0.0
 11
-300.0297241210937
 21
1064.96484375
 31
0.0
  0
CIRCLE
  5
575
  8
SIZE
  6
CONTINUOUS
 10
-500.0297241210937
 20
1064.96484375
 30
0.0
 40
0.5
  0
CIRCLE
  5
576
  8
SIZE
  6
CONTINUOUS
 10
-500.0297241210937
 20
1064.96484375
 30
0.0
 40
0.4
  0
CIRCLE
  5
577
  8
SIZE
  6
CONTINUOUS
 10
-500.0297241210937
 20
1064.96484375
 30
0.0
 40
0.3
  0
CIRCLE
  5
578
  8
SIZE
  6
CONTINUOUS
 10
-500.0297241210937
 20
1064.96484375
 30
0.0
 40
0.2
  0
CIRCLE
  5
579
  8
SIZE
  6
CONTINUOUS
 10
-500.0297241210937
 20
1064.96484375
 30
0.0
 40
0.1
  0
CIRCLE
  5
57A
  8
SIZE
  6
CONTINUOUS
 10
-300.0297241210937
 20
1064.96484375
 30
0.0
 40
0.5
  0
CIRCLE
  5
57B
  8
SIZE
  6
CONTINUOUS
 10
-300.0297241210937
 20
1064.96484375
 30
0.0
 40
0.4
  0
CIRCLE
  5
57C
  8
SIZE
  6
CONTINUOUS
 10
-300.0297241210937
 20
1064.96484375
 30
0.0
 40
0.3
  0
CIRCLE
  5
57D
  8
SIZE
  6
CONTINUOUS
 10
-300.0297241210937
 20
1064.96484375
 30
0.0
 40
0.2
  0
CIRCLE
  5
57E
  8
SIZE
  6
CONTINUOUS
 10
-300.0297241210937
 20
1064.96484375
 30
0.0
 40
0.1
  0
POINT
  5
57F
  8
DEFPOINTS
  6
BYBLOCK
 10
-300.0297241210937
 20
814.9648437499999
 30
0.0
  0
POINT
  5
580
  8
DEFPOINTS
  6
BYBLOCK
 10
-500.0297241210937
 20
814.9648437499999
 30
0.0
  0
POINT
  5
581
  8
DEFPOINTS
  6
BYBLOCK
 10
-500.0297241210937
 20
1064.96484375
 30
0.0
  0
ENDBLK
  5
582
  8
SIZE
  0
BLOCK
  8
SIZE
  2
*D21
 70
     1
 10
0.0
 20
0.0
 30
0.0
  3
*D21
  1

  0
TEXT
  5
585
  8
SIZE
  6
CONTINUOUS
 10
-69.13204949935091
 20
915.9648681879044
 30
0.0
 40
2.799999952316284
  1
16
 50
0.000002504478167
 41
0.6999999829701011
  7
STANDARD1
  0
LINE
  5
586
  8
SIZE
  6
CONTINUOUS
 10
15.97027015686035
 20
675.96484375
 30
0.0
 11
15.97027015686035
 21
916.9648437499999
 31
0.0
  0
LINE
  5
587
  8
SIZE
  6
CONTINUOUS
 10
-0.029727935791016
 20
710.9648437499999
 30
0.0
 11
-0.029727935791016
 21
916.9648437499999
 31
0.0
  0
LINE
  5
588
  8
SIZE
  6
CONTINUOUS
 10
20.97027015686035
 20
914.9648437499999
 30
0.0
 11
-70.53205108642578
 21
914.9648437499999
 31
0.0
  0
CIRCLE
  5
589
  8
SIZE
  6
CONTINUOUS
 10
15.97027015686035
 20
914.9648437499999
 30
0.0
 40
0.5
  0
CIRCLE
  5
58A
  8
SIZE
  6
CONTINUOUS
 10
15.97027015686035
 20
914.9648437499999
 30
0.0
 40
0.4
  0
CIRCLE
  5
58B
  8
SIZE
  6
CONTINUOUS
 10
15.97027015686035
 20
914.9648437499999
 30
0.0
 40
0.3
  0
CIRCLE
  5
58C
  8
SIZE
  6
CONTINUOUS
 10
15.97027015686035
 20
914.9648437499999
 30
0.0
 40
0.2
  0
CIRCLE
  5
58D
  8
SIZE
  6
CONTINUOUS
 10
15.97027015686035
 20
914.9648437499999
 30
0.0
 40
0.1
  0
CIRCLE
  5
58E
  8
SIZE
  6
CONTINUOUS
 10
-0.029727935791016
 20
914.9648437499999
 30
0.0
 40
0.5
  0
CIRCLE
  5
58F
  8
SIZE
  6
CONTINUOUS
 10
-0.029727935791016
 20
914.9648437499999
 30
0.0
 40
0.4
  0
CIRCLE
  5
590
  8
SIZE
  6
CONTINUOUS
 10
-0.029727935791016
 20
914.9648437499999
 30
0.0
 40
0.3
  0
CIRCLE
  5
591
  8
SIZE
  6
CONTINUOUS
 10
-0.029727935791016
 20
914.9648437499999
 30
0.0
 40
0.2
  0
CIRCLE
  5
592
  8
SIZE
  6
CONTINUOUS
 10
-0.029727935791016
 20
914.9648437499999
 30
0.0
 40
0.1
  0
POINT
  5
593
  8
DEFPOINTS
  6
BYBLOCK
 10
-0.029727935791016
 20
709.9648437499999
 30
0.0
  0
POINT
  5
594
  8
DEFPOINTS
  6
BYBLOCK
 10
15.97027015686035
 20
674.96484375
 30
0.0
  0
POINT
  5
595
  8
DEFPOINTS
  6
BYBLOCK
 10
15.97027015686035
 20
914.9648437499999
 30
0.0
  0
ENDBLK
  5
596
  8
SIZE
  0
BLOCK
  8
0
  2
_ORIGIN
 70
     0
 10
0.0
 20
0.0
 30
0.0
  3
_ORIGIN
  1

  0
CIRCLE
  5
599
  8
0
  6
BYBLOCK
 62
     0
 10
0.0
 20
0.0
 30
0.0
 40
0.5
  0
LINE
  5
59A
  8
0
  6
BYBLOCK
 62
     0
 10
0.0
 20
0.0
 30
0.0
 11
-1.0
 21
0.0
 31
0.0
  0
ENDBLK
  5
59B
  8
0
  0
BLOCK
  8
0
  2
*D23
 70
     1
 10
0.0
 20
0.0
 30
0.0
  3
*D23
  1

  0
LINE
  5
59E
  8
SIZE
 62
     0
 10
-0.0297279357910154
 20
719.96484375
 30
0.0
 11
-0.0297279357910025
 21
929.8648437261581
 31
0.0
  0
LINE
  5
59F
  8
SIZE
 62
     0
 10
15.97027015686035
 20
684.9648437499999
 30
0.0
 11
15.97027015686037
 21
929.8648437261581
 31
0.0
  0
LINE
  5
5A0
  8
SIZE
 62
     0
 10
25.97027015686037
 20
917.3648437261581
 30
0.0
 11
35.97027015686037
 21
917.3648437261581
 31
0.0
  0
LINE
  5
5A1
  8
SIZE
 62
     0
 10
-10.029727935791
 20
917.3648437261581
 30
0.0
 11
-97.1720505372702
 21
917.3648437261581
 31
0.0
  0
LINE
  5
5A2
  8
SIZE
 62
     0
 10
15.97027015686036
 20
917.3648437261581
 30
0.0
 11
-0.0297279357910033
 21
917.3648437261581
 31
0.0
  0
INSERT
  5
5A3
  8
SIZE
 62
     0
  2
_ORIGIN
 10
15.97027015686036
 20
917.3648437261581
 30
0.0
 41
10.0
 42
10.0
 43
10.0
 50
180.0
  0
INSERT
  5
5A4
  8
SIZE
 62
     0
  2
_ORIGIN
 10
-0.0297279357910033
 20
917.3648437261581
 30
0.0
 41
10.0
 42
10.0
 43
10.0
  0
TEXT
  5
5A5
  8
SIZE
 62
     0
 10
-91.92205053727018
 20
927.3648437261581
 30
0.0
 40
30.0
  1
16
 72
     1
 11
-67.17205053727018
 21
927.3648437261581
 31
0.0
  0
POINT
  5
5A6
  8
DEFPOINTS
 62
     0
 10
-0.029727935791016
 20
709.9648437499999
 30
0.0
  0
POINT
  5
5A7
  8
DEFPOINTS
 62
     0
 10
15.97027015686035
 20
674.96484375
 30
0.0
  0
POINT
  5
5A8
  8
DEFPOINTS
 62
     0
 10
15.97027015686036
 20
917.3648437261581
 30
0.0
  0
ENDBLK
  5
5A9
  8
0
  0
BLOCK
  8
0
  2
*D24
 70
     1
 10
0.0
 20
0.0
 30
0.0
  3
*D24
  1

  0
LINE
  5
5AC
  8
SIZE
 62
     0
 10
-300.0297241210937
 20
824.9648437499999
 30
0.0
 11
-300.0297241210937
 21
1079.864843726158
 31
0.0
  0
LINE
  5
5AD
  8
SIZE
 62
     0
 10
-500.0297241210937
 20
824.9648437499999
 30
0.0
 11
-500.0297241210937
 21
1079.864843726158
 31
0.0
  0
LINE
  5
5AE
  8
SIZE
 62
     0
 10
-310.0297241210937
 20
1067.364843726158
 30
0.0
 11
-490.0297241210937
 21
1067.364843726158
 31
0.0
  0
INSERT
  5
5AF
  8
SIZE
 62
     0
  2
_ORIGIN
 10
-300.0297241210937
 20
1067.364843726158
 30
0.0
 41
10.0
 42
10.0
 43
10.0
  0
INSERT
  5
5B0
  8
SIZE
 62
     0
  2
_ORIGIN
 10
-500.0297241210937
 20
1067.364843726158
 30
0.0
 41
10.0
 42
10.0
 43
10.0
 50
180.0
  0
TEXT
  5
5B1
  8
SIZE
 62
     0
 10
-439.9297241822896
 20
1077.364843726158
 30
0.0
 40
30.0
  1
200
 72
     1
 11
-400.0297241822897
 21
1077.364843726158
 31
0.0
  0
POINT
  5
5B2
  8
DEFPOINTS
 62
     0
 10
-300.0297241210937
 20
814.9648437499999
 30
0.0
  0
POINT
  5
5B3
  8
DEFPOINTS
 62
     0
 10
-500.0297241210937
 20
814.9648437499999
 30
0.0
  0
POINT
  5
5B4
  8
DEFPOINTS
 62
     0
 10
-500.0297241210937
 20
1067.364843726158
 30
0.0
  0
ENDBLK
  5
5B5
  8
0
  0
BLOCK
  8
0
  2
*D25
 70
     1
 10
0.0
 20
0.0
 30
0.0
  3
*D25
  1

  0
LINE
  5
5B8
  8
SIZE
 62
     0
 10
99.97026824951172
 20
824.9648437499999
 30
0.0
 11
99.97026824951173
 21
1079.864843726158
 31
0.0
  0
LINE
  5
5B9
  8
SIZE
 62
     0
 10
-0.0297297332435844
 20
824.9648437499999
 30
0.0
 11
-0.0297297332435688
 21
1079.864843726158
 31
0.0
  0
LINE
  5
5BA
  8
SIZE
 62
     0
 10
89.97026824951173
 20
1067.364843726158
 30
0.0
 11
9.97027026675643
 21
1067.364843726158
 31
0.0
  0
INSERT
  5
5BB
  8
SIZE
 62
     0
  2
_ORIGIN
 10
99.97026824951173
 20
1067.364843726158
 30
0.0
 41
10.0
 42
10.0
 43
10.0
  0
INSERT
  5
5BC
  8
SIZE
 62
     0
  2
_ORIGIN
 10
-0.0297297332435696
 20
1067.364843726158
 30
0.0
 41
10.0
 42
10.0
 43
10.0
 50
180.0
  0
TEXT
  5
5BD
  8
SIZE
 62
     0
 10
15.32026818831577
 20
1077.364843726158
 30
0.0
 40
30.0
  1
100
 72
     1
 11
49.97026818831577
 21
1077.364843726158
 31
0.0
  0
POINT
  5
5BE
  8
DEFPOINTS
 62
     0
 10
99.97026824951172
 20
814.9648437499999
 30
0.0
  0
POINT
  5
5BF
  8
DEFPOINTS
 62
     0
 10
-0.029729733243585
 20
814.9648437499999
 30
0.0
  0
POINT
  5
5C0
  8
DEFPOINTS
 62
     0
 10
-0.0297297332435696
 20
1067.364843726158
 30
0.0
  0
ENDBLK
  5
5C1
  8
0
  0
BLOCK
  8
0
  2
*D26
 70
     1
 10
0.0
 20
0.0
 30
0.0
  3
*D26
  1

  0
LINE
  5
5C4
  8
SIZE
 62
     0
 10
-342.0297241210937
 20
7.964864730834964
 30
0.0
 11
-414.9297240972519
 21
7.964864730834984
 31
0.0
  0
LINE
  5
5C5
  8
SIZE
 62
     0
 10
-342.0297241210937
 20
-0.0351351350545852
 30
0.0
 11
-414.9297240972519
 21
-0.0351351350545645
 31
0.0
  0
LINE
  5
5C6
  8
SIZE
 62
     0
 10
-402.4297240972519
 20
-10.03513513505457
 30
0.0
 11
-402.4297240972519
 21
-20.03513513505457
 31
0.0
  0
LINE
  5
5C7
  8
SIZE
 62
     0
 10
-402.4297240972519
 20
17.96486473083498
 30
0.0
 11
-402.4297240972519
 21
79.32953631559647
 31
0.0
  0
LINE
  5
5C8
  8
SIZE
 62
     0
 10
-402.4297240972519
 20
-0.0351351350545681
 30
0.0
 11
-402.4297240972519
 21
7.964864730834981
 31
0.0
  0
INSERT
  5
5C9
  8
SIZE
 62
     0
  2
_ORIGIN
 10
-402.4297240972519
 20
-0.0351351350545681
 30
0.0
 41
10.0
 42
10.0
 43
10.0
 50
90.0
  0
INSERT
  5
5CA
  8
SIZE
 62
     0
  2
_ORIGIN
 10
-402.4297240972519
 20
7.964864730834981
 30
0.0
 41
10.0
 42
10.0
 43
10.0
 50
270.0
  0
TEXT
  5
5CB
  8
SIZE
 62
     0
 10
-412.4297240972519
 20
44.32953631559641
 30
0.0
 40
30.0
  1
8
 50
90.0
 72
     1
 11
-412.4297240972519
 21
59.32953631559641
 31
0.0
  0
POINT
  5
5CC
  8
DEFPOINTS
 62
     0
 10
-332.0297241210937
 20
7.96486473083496
 30
0.0
  0
POINT
  5
5CD
  8
DEFPOINTS
 62
     0
 10
-332.0297241210937
 20
-0.035135135054588
 30
0.0
  0
POINT
  5
5CE
  8
DEFPOINTS
 62
     0
 10
-402.4297240972519
 20
-0.0351351350545681
 30
0.0
  0
ENDBLK
  5
5CF
  8
0
  0
BLOCK
  8
0
  2
*D27
 70
     1
 10
0.0
 20
0.0
 30
0.0
  3
*D27
  1

  0
LINE
  5
5D2
  8
SIZE
 62
     0
 10
-300.0297241210937
 20
824.9648437499999
 30
0.0
 11
-300.0297241210937
 21
1079.864843726158
 31
0.0
  0
LINE
  5
5D3
  8
SIZE
 62
     0
 10
-0.0297297332435844
 20
824.9648437499999
 30
0.0
 11
-0.0297297332435688
 21
1079.864843726158
 31
0.0
  0
LINE
  5
5D4
  8
SIZE
 62
     0
 10
-290.0297241210937
 20
1067.364843726158
 30
0.0
 11
-10.02972973324357
 21
1067.364843726158
 31
0.0
  0
INSERT
  5
5D5
  8
SIZE
 62
     0
  2
_ORIGIN
 10
-300.0297241210937
 20
1067.364843726158
 30
0.0
 41
10.0
 42
10.0
 43
10.0
 50
180.0
  0
INSERT
  5
5D6
  8
SIZE
 62
     0
  2
_ORIGIN
 10
-0.0297297332435696
 20
1067.364843726158
 30
0.0
 41
10.0
 42
10.0
 43
10.0
  0
TEXT
  5
5D7
  8
SIZE
 62
     0
 10
-189.9297241822897
 20
1077.364843726158
 30
0.0
 40
30.0
  1
300
 72
     1
 11
-150.0297241822897
 21
1077.364843726158
 31
0.0
  0
POINT
  5
5D8
  8
DEFPOINTS
 62
     0
 10
-300.0297241210937
 20
814.9648437499999
 30
0.0
  0
POINT
  5
5D9
  8
DEFPOINTS
 62
     0
 10
-0.029729733243585
 20
814.9648437499999
 30
0.0
  0
POINT
  5
5DA
  8
DEFPOINTS
 62
     0
 10
-0.0297297332435696
 20
1067.364843726158
 30
0.0
  0
ENDBLK
  5
5DB
  8
0
  0
BLOCK
  8
0
  2
*D28
 70
     1
 10
0.0
 20
0.0
 30
0.0
  3
*D28
  1

  0
LINE
  5
5DE
  8
SIZE
 62
     0
 10
-510.0297241210937
 20
-0.0351351350545852
 30
0.0
 11
-770.183874487877
 21
-0.0351351350545115
 31
0.0
  0
LINE
  5
5DF
  8
SIZE
 62
     0
 10
-510.0297241210937
 20
814.9648437499999
 30
0.0
 11
-770.1838744878767
 21
814.9648437500001
 31
0.0
  0
LINE
  5
5E0
  8
SIZE
 62
     0
 10
-757.683874487877
 20
9.964864864945486
 30
0.0
 11
-757.6838744878767
 21
804.96484375
 31
0.0
  0
INSERT
  5
5E1
  8
SIZE
 62
     0
  2
_ORIGIN
 10
-757.683874487877
 20
-0.035135135054515
 30
0.0
 41
10.0
 42
10.0
 43
10.0
 50
270.0
  0
INSERT
  5
5E2
  8
SIZE
 62
     0
  2
_ORIGIN
 10
-757.6838744878767
 20
814.9648437499999
 30
0.0
 41
10.0
 42
10.0
 43
10.0
 50
90.0
  0
TEXT
  5
5E3
  8
SIZE
 62
     0
 10
-767.683874487877
 20
367.7148741451862
 30
0.0
 40
30.0
  1
815
 50
90.0
 72
     1
 11
-767.683874487877
 21
407.4648741451862
 31
0.0
  0
POINT
  5
5E4
  8
DEFPOINTS
 62
     0
 10
-500.0297241210937
 20
-0.035135135054588
 30
0.0
  0
POINT
  5
5E5
  8
DEFPOINTS
 62
     0
 10
-500.0297241210937
 20
814.9648437499999
 30
0.0
  0
POINT
  5
5E6
  8
DEFPOINTS
 62
     0
 10
-757.6838744878767
 20
814.9648437499999
 30
0.0
  0
ENDBLK
  5
5E7
  8
0
  0
BLOCK
  8
0
  2
*D29
 70
     1
 10
0.0
 20
0.0
 30
0.0
  3
*D29
  1

  0
LINE
  5
5EA
  8
SIZE
 62
     0
 10
-510.0297241210937
 20
-0.0351351350545852
 30
0.0
 11
-635.9125732183456
 21
-0.0351351350545495
 31
0.0
  0
LINE
  5
5EB
  8
SIZE
 62
     0
 10
-380.0297241210937
 20
405.964874267578
 30
0.0
 11
-635.9125732183455
 21
405.9648742675781
 31
0.0
  0
LINE
  5
5EC
  8
SIZE
 62
     0
 10
-623.4125732183456
 20
9.964864864945447
 30
0.0
 11
-623.4125732183455
 21
395.9648742675781
 31
0.0
  0
INSERT
  5
5ED
  8
SIZE
 62
     0
  2
_ORIGIN
 10
-623.4125732183456
 20
-0.0351351350545531
 30
0.0
 41
10.0
 42
10.0
 43
10.0
 50
270.0
  0
INSERT
  5
5EE
  8
SIZE
 62
     0
  2
_ORIGIN
 10
-623.4125732183455
 20
405.9648742675781
 30
0.0
 41
10.0
 42
10.0
 43
10.0
 50
90.0
  0
TEXT
  5
5EF
  8
SIZE
 62
     0
 10
-633.4125732183456
 20
160.5148588863971
 30
0.0
 40
30.0
  1
406
 50
90.0
 72
     1
 11
-633.4125732183456
 21
202.9648588863972
 31
0.0
  0
POINT
  5
5F0
  8
DEFPOINTS
 62
     0
 10
-500.0297241210937
 20
-0.035135135054588
 30
0.0
  0
POINT
  5
5F1
  8
DEFPOINTS
 62
     0
 10
-370.0297241210937
 20
405.964874267578
 30
0.0
  0
POINT
  5
5F2
  8
DEFPOINTS
 62
     0
 10
-623.4125732183455
 20
405.9648742675781
 30
0.0
  0
ENDBLK
  5
5F3
  8
0
  0
BLOCK
  8
0
  2
*D30
 70
     1
 10
0.0
 20
0.0
 30
0.0
  3
*D30
  1

  0
LINE
  5
5F6
  8
SIZE
 62
     0
 10
-300.0297241210937
 20
824.9648437499999
 30
0.0
 11
-300.0297241210937
 21
930.8648437261581
 31
0.0
  0
LINE
  5
5F7
  8
SIZE
 62
     0
 10
-320.0297241210937
 20
639.9648437499999
 30
0.0
 11
-320.0297241210937
 21
930.8648437261581
 31
0.0
  0
LINE
  5
5F8
  8
SIZE
 62
     0
 10
-290.0297241210937
 20
918.3648437261581
 30
0.0
 11
-280.0297241210937
 21
918.3648437261581
 31
0.0
  0
LINE
  5
5F9
  8
SIZE
 62
     0
 10
-330.0297241210937
 20
918.3648437261581
 30
0.0
 11
-408.2156677858052
 21
918.3648437261581
 31
0.0
  0
LINE
  5
5FA
  8
SIZE
 62
     0
 10
-300.0297241210937
 20
918.3648437261581
 30
0.0
 11
-320.0297241210937
 21
918.3648437261581
 31
0.0
  0
INSERT
  5
5FB
  8
SIZE
 62
     0
  2
_ORIGIN
 10
-300.0297241210937
 20
918.3648437261581
 30
0.0
 41
10.0
 42
10.0
 43
10.0
 50
180.0
  0
INSERT
  5
5FC
  8
SIZE
 62
     0
  2
_ORIGIN
 10
-320.0297241210937
 20
918.3648437261581
 30
0.0
 41
10.0
 42
10.0
 43
10.0
  0
TEXT
  5
5FD
  8
SIZE
 62
     0
 10
-403.1656677858053
 20
928.3648437261581
 30
0.0
 40
30.0
  1
20
 72
     1
 11
-375.7156677858053
 21
928.3648437261581
 31
0.0
  0
POINT
  5
5FE
  8
DEFPOINTS
 62
     0
 10
-300.0297241210937
 20
814.9648437499999
 30
0.0
  0
POINT
  5
5FF
  8
DEFPOINTS
 62
     0
 10
-320.0297241210937
 20
629.96484375
 30
0.0
  0
POINT
  5
600
  8
DEFPOINTS
 62
     0
 10
-320.0297241210937
 20
918.3648437261581
 30
0.0
  0
ENDBLK
  5
601
  8
0
  0
BLOCK
  8
0
  2
*D31
 70
     1
 10
0.0
 20
0.0
 30
0.0
  3
*D31
  1

  0
LINE
  5
604
  8
SIZE
 62
     0
 10
109.9702682495117
 20
-0.0351351350545908
 30
0.0
 11
401.1368652582168
 21
-0.0351351350546733
 31
0.0
  0
LINE
  5
605
  8
SIZE
 62
     0
 10
9.970270266756414
 20
714.9648437499999
 30
0.0
 11
401.136865258217
 21
714.9648437499998
 31
0.0
  0
LINE
  5
606
  8
SIZE
 62
     0
 10
388.6368652582169
 20
9.964864864945328
 30
0.0
 11
388.636865258217
 21
704.9648437499999
 31
0.0
  0
INSERT
  5
607
  8
SIZE
 62
     0
  2
_ORIGIN
 10
388.6368652582169
 20
-0.0351351350546698
 30
0.0
 41
10.0
 42
10.0
 43
10.0
 50
270.0
  0
INSERT
  5
608
  8
SIZE
 62
     0
  2
_ORIGIN
 10
388.636865258217
 20
714.9648437499998
 30
0.0
 41
10.0
 42
10.0
 43
10.0
 50
90.0
  0
TEXT
  5
609
  8
SIZE
 62
     0
 10
378.6368652582169
 20
317.7148741451862
 30
0.0
 40
30.0
  1
715
 50
90.0
 72
     1
 11
378.6368652582169
 21
357.4648741451862
 31
0.0
  0
POINT
  5
60A
  8
DEFPOINTS
 62
     0
 10
99.97026824951172
 20
-0.035135135054588
 30
0.0
  0
POINT
  5
60B
  8
DEFPOINTS
 62
     0
 10
-0.029729733243585
 20
714.9648437499999
 30
0.0
  0
POINT
  5
60C
  8
DEFPOINTS
 62
     0
 10
388.636865258217
 20
714.9648437499998
 30
0.0
  0
ENDBLK
  5
60D
  8
0
  0
BLOCK
  8
0
  2
*D32
 70
     1
 10
0.0
 20
0.0
 30
0.0
  3
*D32
  1

  0
LINE
  5
610
  8
SIZE
 62
     0
 10
109.9702682495117
 20
-0.0351351350545908
 30
0.0
 11
555.8332153558731
 21
-0.0351351350547172
 31
0.0
  0
LINE
  5
611
  8
SIZE
 62
     0
 10
109.9702682495117
 20
814.9648437499999
 30
0.0
 11
555.8332153558733
 21
814.9648437499999
 31
0.0
  0
LINE
  5
612
  8
SIZE
 62
     0
 10
543.3332153558731
 20
9.964864864945286
 30
0.0
 11
543.3332153558733
 21
804.9648437499998
 31
0.0
  0
INSERT
  5
613
  8
SIZE
 62
     0
  2
_ORIGIN
 10
543.3332153558731
 20
-0.0351351350547136
 30
0.0
 41
10.0
 42
10.0
 43
10.0
 50
270.0
  0
INSERT
  5
614
  8
SIZE
 62
     0
  2
_ORIGIN
 10
543.3332153558733
 20
814.9648437499999
 30
0.0
 41
10.0
 42
10.0
 43
10.0
 50
90.0
  0
TEXT
  5
615
  8
SIZE
 62
     0
 10
533.3332153558731
 20
367.7148741451862
 30
0.0
 40
30.0
  1
815
 50
90.0
 72
     1
 11
533.3332153558731
 21
407.4648741451862
 31
0.0
  0
POINT
  5
616
  8
DEFPOINTS
 62
     0
 10
99.97026824951172
 20
-0.035135135054588
 30
0.0
  0
POINT
  5
617
  8
DEFPOINTS
 62
     0
 10
99.97026824951172
 20
814.9648437499999
 30
0.0
  0
POINT
  5
618
  8
DEFPOINTS
 62
     0
 10
543.3332153558733
 20
814.9648437499999
 30
0.0
  0
ENDBLK
  5
619
  8
0
  0
BLOCK
  8
0
  2
*D33
 70
     1
 10
0.0
 20
0.0
 30
0.0
  3
*D33
  1

  0
LINE
  5
61C
  8
SIZE
 62
     0
 10
9.970270266756414
 20
714.9648437499999
 30
0.0
 11
401.1368652582169
 21
714.9648437499998
 31
0.0
  0
LINE
  5
61D
  8
SIZE
 62
     0
 10
109.9702682495117
 20
814.9648437499999
 30
0.0
 11
401.1368652582169
 21
814.9648437499999
 31
0.0
  0
LINE
  5
61E
  8
SIZE
 62
     0
 10
388.636865258217
 20
724.9648437499999
 30
0.0
 11
388.636865258217
 21
804.9648437499998
 31
0.0
  0
INSERT
  5
61F
  8
SIZE
 62
     0
  2
_ORIGIN
 10
388.636865258217
 20
714.9648437499998
 30
0.0
 41
10.0
 42
10.0
 43
10.0
 50
270.0
  0
INSERT
  5
620
  8
SIZE
 62
     0
  2
_ORIGIN
 10
388.636865258217
 20
814.9648437499999
 30
0.0
 41
10.0
 42
10.0
 43
10.0
 50
90.0
  0
TEXT
  5
621
  8
SIZE
 62
     0
 10
378.6368652582169
 20
730.3148436276081
 30
0.0
 40
30.0
  1
100
 50
90.0
 72
     1
 11
378.6368652582169
 21
764.964843627608
 31
0.0
  0
POINT
  5
622
  8
DEFPOINTS
 62
     0
 10
-0.029729733243585
 20
714.9648437499999
 30
0.0
  0
POINT
  5
623
  8
DEFPOINTS
 62
     0
 10
99.97026824951172
 20
814.9648437499999
 30
0.0
  0
POINT
  5
624
  8
DEFPOINTS
 62
     0
 10
388.636865258217
 20
814.9648437499999
 30
0.0
  0
ENDBLK
  5
625
  8
0
  0
BLOCK
  8
0
  2
*D34
 70
     1
 10
0.0
 20
0.0
 30
0.0
  3
*D34
  1

  0
LINE
  5
628
  8
SIZE
 62
     0
 10
-0.0297297332435856
 20
-10.03513513505459
 30
0.0
 11
-0.0297297332436071
 21
-360.1351562738418
 31
0.0
  0
LINE
  5
629
  8
SIZE
 62
     0
 10
-300.0297241210937
 20
-10.03513513505459
 30
0.0
 11
-300.0297241210937
 21
-360.1351562738418
 31
0.0
  0
LINE
  5
62A
  8
SIZE
 62
     0
 10
-10.0297297332436
 20
-347.6351562738418
 30
0.0
 11
-290.0297241210937
 21
-347.6351562738418
 31
0.0
  0
INSERT
  5
62B
  8
SIZE
 62
     0
  2
_ORIGIN
 10
-0.0297297332436063
 20
-347.6351562738418
 30
0.0
 41
10.0
 42
10.0
 43
10.0
  0
INSERT
  5
62C
  8
SIZE
 62
     0
  2
_ORIGIN
 10
-300.0297241210937
 20
-347.6351562738418
 30
0.0
 41
10.0
 42
10.0
 43
10.0
 50
180.0
  0
TEXT
  5
62D
  8
SIZE
 62
     0
 10
-189.9297241822897
 20
-337.6351562738418
 30
0.0
 40
30.0
  1
300
 72
     1
 11
-150.0297241822897
 21
-337.6351562738418
 31
0.0
  0
POINT
  5
62E
  8
DEFPOINTS
 62
     0
 10
-0.029729733243585
 20
-0.035135135054588
 30
0.0
  0
POINT
  5
62F
  8
DEFPOINTS
 62
     0
 10
-300.0297241210937
 20
-0.035135135054588
 30
0.0
  0
POINT
  5
630
  8
DEFPOINTS
 62
     0
 10
-300.0297241210937
 20
-347.6351562738418
 30
0.0
  0
ENDBLK
  5
631
  8
0
  0
BLOCK
  8
0
  2
*D35
 70
     1
 10
0.0
 20
0.0
 30
0.0
  3
*D35
  1

  0
LINE
  5
634
  8
SIZE
 62
     0
 10
-320.0297241210937
 20
-30.03513526916504
 30
0.0
 11
-320.0297241210937
 21
-460.1351562738417
 31
0.0
  0
LINE
  5
635
  8
SIZE
 62
     0
 10
9.970270156860352
 20
-30.03513526916504
 30
0.0
 11
9.970270156860323
 21
-460.1351562738417
 31
0.0
  0
LINE
  5
636
  8
SIZE
 62
     0
 10
-310.0297241210937
 20
-447.6351562738417
 30
0.0
 11
-0.0297298431396751
 21
-447.6351562738417
 31
0.0
  0
INSERT
  5
637
  8
SIZE
 62
     0
  2
_ORIGIN
 10
-320.0297241210937
 20
-447.6351562738417
 30
0.0
 41
10.0
 42
10.0
 43
10.0
 50
180.0
  0
INSERT
  5
638
  8
SIZE
 62
     0
  2
_ORIGIN
 10
9.970270156860323
 20
-447.6351562738417
 30
0.0
 41
10.0
 42
10.0
 43
10.0
  0
TEXT
  5
639
  8
SIZE
 62
     0
 10
-197.4797241822897
 20
-437.6351562738417
 30
0.0
 40
30.0
  1
330
 72
     1
 11
-155.0297241822897
 21
-437.6351562738417
 31
0.0
  0
POINT
  5
63A
  8
DEFPOINTS
 62
     0
 10
-320.0297241210937
 20
-20.03513526916504
 30
0.0
  0
POINT
  5
63B
  8
DEFPOINTS
 62
     0
 10
9.970270156860352
 20
-20.03513526916504
 30
0.0
  0
POINT
  5
63C
  8
DEFPOINTS
 62
     0
 10
9.970270156860323
 20
-447.6351562738417
 30
0.0
  0
ENDBLK
  5
63D
  8
0
  0
BLOCK
  8
0
  2
*D36
 70
     1
 10
0.0
 20
0.0
 30
0.0
  3
*D36
  1

  0
LINE
  5
640
  8
SIZE
 62
     0
 10
27.97027015686035
 20
-2.035135269165039
 30
0.0
 11
27.97027015686032
 21
-560.1351562738417
 31
0.0
  0
LINE
  5
641
  8
SIZE
 62
     0
 10
-332.0297241210937
 20
-10.03513513505459
 30
0.0
 11
-332.0297241210937
 21
-560.1351562738417
 31
0.0
  0
LINE
  5
642
  8
SIZE
 62
     0
 10
17.97027015686031
 20
-547.6351562738417
 30
0.0
 11
-322.0297241210937
 21
-547.6351562738417
 31
0.0
  0
INSERT
  5
643
  8
SIZE
 62
     0
  2
_ORIGIN
 10
27.97027015686032
 20
-547.6351562738417
 30
0.0
 41
10.0
 42
10.0
 43
10.0
  0
INSERT
  5
644
  8
SIZE
 62
     0
  2
_ORIGIN
 10
-332.0297241210937
 20
-547.6351562738417
 30
0.0
 41
10.0
 42
10.0
 43
10.0
 50
180.0
  0
TEXT
  5
645
  8
SIZE
 62
     0
 10
-194.4797241822897
 20
-537.6351562738417
 30
0.0
 40
30.0
  1
360
 72
     1
 11
-152.0297241822897
 21
-537.6351562738417
 31
0.0
  0
POINT
  5
646
  8
DEFPOINTS
 62
     0
 10
27.97027015686035
 20
7.96486473083496
 30
0.0
  0
POINT
  5
647
  8
DEFPOINTS
 62
     0
 10
-332.0297241210937
 20
-0.035135135054588
 30
0.0
  0
POINT
  5
648
  8
DEFPOINTS
 62
     0
 10
-332.0297241210937
 20
-547.6351562738417
 30
0.0
  0
ENDBLK
  5
649
  8
0
  0
BLOCK
  8
0
  2
*D37
 70
     1
 10
0.0
 20
0.0
 30
0.0
  3
*D37
  1

  0
LINE
  5
64C
  8
SIZE
 62
     0
 10
-0.0297297332435856
 20
-10.03513513505459
 30
0.0
 11
-0.0297297332436071
 21
-360.1351562738418
 31
0.0
  0
LINE
  5
64D
  8
SIZE
 62
     0
 10
9.970270156860352
 20
-30.03513526916504
 30
0.0
 11
9.97027015686033
 21
-360.1351562738418
 31
0.0
  0
LINE
  5
64E
  8
SIZE
 62
     0
 10
-10.0297297332436
 20
-347.6351562738418
 30
0.0
 11
-20.02972973324361
 21
-347.6351562738418
 31
0.0
  0
LINE
  5
64F
  8
SIZE
 62
     0
 10
19.97027015686033
 20
-347.6351562738418
 30
0.0
 11
104.0858687742532
 21
-347.6351562738418
 31
0.0
  0
LINE
  5
650
  8
SIZE
 62
     0
 10
-0.0297297332436063
 20
-347.6351562738418
 30
0.0
 11
9.970270156860332
 21
-347.6351562738418
 31
0.0
  0
INSERT
  5
651
  8
SIZE
 62
     0
  2
_ORIGIN
 10
-0.0297297332436063
 20
-347.6351562738418
 30
0.0
 41
10.0
 42
10.0
 43
10.0
  0
INSERT
  5
652
  8
SIZE
 62
     0
  2
_ORIGIN
 10
9.970270156860332
 20
-347.6351562738418
 30
0.0
 41
10.0
 42
10.0
 43
10.0
 50
180.0
  0
TEXT
  5
653
  8
SIZE
 62
     0
 10
54.38586877425325
 20
-337.6351562738418
 30
0.0
 40
30.0
  1
10
 72
     1
 11
76.58586877425326
 21
-337.6351562738418
 31
0.0
  0
POINT
  5
654
  8
DEFPOINTS
 62
     0
 10
-0.029729733243585
 20
-0.035135135054588
 30
0.0
  0
POINT
  5
655
  8
DEFPOINTS
 62
     0
 10
9.970270156860352
 20
-20.03513526916504
 30
0.0
  0
POINT
  5
656
  8
DEFPOINTS
 62
     0
 10
9.970270156860332
 20
-347.6351562738418
 30
0.0
  0
ENDBLK
  5
657
  8
0
  0
BLOCK
  8
0
  2
*D38
 70
     1
 10
0.0
 20
0.0
 30
0.0
  3
*D38
  1

  0
LINE
  5
65A
  8
SIZE
 62
     0
 10
-0.0297297332435856
 20
9.96486473083496
 30
0.0
 11
-0.0297297332436022
 21
-260.1351562738419
 31
0.0
  0
LINE
  5
65B
  8
SIZE
 62
     0
 10
27.97027015686035
 20
-2.035135269165039
 30
0.0
 11
27.97027015686034
 21
-260.1351562738419
 31
0.0
  0
LINE
  5
65C
  8
SIZE
 62
     0
 10
37.97027015686034
 20
-247.6351562738419
 30
0.0
 11
47.97027015686033
 21
-247.6351562738419
 31
0.0
  0
LINE
  5
65D
  8
SIZE
 62
     0
 10
-10.0297297332436
 20
-247.6351562738419
 30
0.0
 11
-115.094856323403
 21
-247.6351562738419
 31
0.0
  0
LINE
  5
65E
  8
SIZE
 62
     0
 10
27.97027015686034
 20
-247.6351562738419
 30
0.0
 11
-0.0297297332436014
 21
-247.6351562738419
 31
0.0
  0
INSERT
  5
65F
  8
SIZE
 62
     0
  2
_ORIGIN
 10
27.97027015686034
 20
-247.6351562738419
 30
0.0
 41
10.0
 42
10.0
 43
10.0
 50
180.0
  0
INSERT
  5
660
  8
SIZE
 62
     0
  2
_ORIGIN
 10
-0.0297297332436014
 20
-247.6351562738419
 30
0.0
 41
10.0
 42
10.0
 43
10.0
  0
TEXT
  5
661
  8
SIZE
 62
     0
 10
-110.094856323403
 20
-237.6351562738419
 30
0.0
 40
30.0
  1
28
 72
     1
 11
-80.09485632340298
 21
-237.6351562738419
 31
0.0
  0
POINT
  5
662
  8
DEFPOINTS
 62
     0
 10
-0.029729733243585
 20
19.96486473083496
 30
0.0
  0
POINT
  5
663
  8
DEFPOINTS
 62
     0
 10
27.97027015686035
 20
7.96486473083496
 30
0.0
  0
POINT
  5
664
  8
DEFPOINTS
 62
     0
 10
27.97027015686034
 20
-247.6351562738419
 30
0.0
  0
ENDBLK
  5
665
  8
0
  0
BLOCK
  8
0
  2
*D39
 70
     1
 10
0.0
 20
0.0
 30
0.0
  3
*D39
  1

  0
LINE
  5
668
  8
SIZE
 62
     0
 10
-0.0297297332435856
 20
-10.03513513505459
 30
0.0
 11
-0.0297297332435948
 21
-160.1351562738419
 31
0.0
  0
LINE
  5
669
  8
SIZE
 62
     0
 10
-48.22972869873047
 20
-92.0351333618164
 30
0.0
 11
-48.22972869873048
 21
-160.1351562738419
 31
0.0
  0
LINE
  5
66A
  8
SIZE
 62
     0
 10
-10.02972973324359
 20
-147.6351562738419
 30
0.0
 11
-38.22972869873048
 21
-147.6351562738419
 31
0.0
  0
INSERT
  5
66B
  8
SIZE
 62
     0
  2
_ORIGIN
 10
-0.0297297332435941
 20
-147.6351562738419
 30
0.0
 41
10.0
 42
10.0
 43
10.0
  0
INSERT
  5
66C
  8
SIZE
 62
     0
  2
_ORIGIN
 10
-48.22972869873048
 20
-147.6351562738419
 30
0.0
 41
10.0
 42
10.0
 43
10.0
 50
180.0
  0
TEXT
  5
66D
  8
SIZE
 62
     0
 10
-54.12972921598703
 20
-137.6351562738419
 30
0.0
 40
30.0
  1
48
 72
     1
 11
-24.12972921598703
 21
-137.6351562738419
 31
0.0
  0
POINT
  5
66E
  8
DEFPOINTS
 62
     0
 10
-0.029729733243585
 20
-0.035135135054588
 30
0.0
  0
POINT
  5
66F
  8
DEFPOINTS
 62
     0
 10
-48.22972869873047
 20
-82.0351333618164
 30
0.0
  0
POINT
  5
670
  8
DEFPOINTS
 62
     0
 10
-48.22972869873048
 20
-147.6351562738419
 30
0.0
  0
ENDBLK
  5
671
  8
0
  0
BLOCK
  8
0
  2
*D40
 70
     1
 10
0.0
 20
0.0
 30
0.0
  3
*D40
  1

  0
LINE
  5
674
  8
SIZE
 62
     0
 10
-18.2297306060791
 20
-62.0351333618164
 30
0.0
 11
401.1368652582168
 21
-62.03513336181654
 31
0.0
  0
LINE
  5
675
  8
SIZE
 62
     0
 10
37.97027015686035
 20
-0.0351351350545908
 30
0.0
 11
401.1368652582168
 21
-0.0351351350546937
 31
0.0
  0
LINE
  5
676
  8
SIZE
 62
     0
 10
388.6368652582169
 20
-52.03513336181653
 30
0.0
 11
388.6368652582169
 21
-10.03513513505469
 31
0.0
  0
INSERT
  5
677
  8
SIZE
 62
     0
  2
_ORIGIN
 10
388.6368652582169
 20
-62.03513336181653
 30
0.0
 41
10.0
 42
10.0
 43
10.0
 50
270.0
  0
INSERT
  5
678
  8
SIZE
 62
     0
  2
_ORIGIN
 10
388.6368652582169
 20
-0.0351351350546902
 30
0.0
 41
10.0
 42
10.0
 43
10.0
 50
90.0
  0
TEXT
  5
679
  8
SIZE
 62
     0
 10
378.6368652582169
 20
-61.03513424843554
 30
0.0
 40
30.0
  1
62
 50
90.0
 72
     1
 11
378.6368652582169
 21
-31.03513424843554
 31
0.0
  0
POINT
  5
67A
  8
DEFPOINTS
 62
     0
 10
-28.22973060607911
 20
-62.0351333618164
 30
0.0
  0
POINT
  5
67B
  8
DEFPOINTS
 62
     0
 10
27.97027015686035
 20
-0.035135135054588
 30
0.0
  0
POINT
  5
67C
  8
DEFPOINTS
 62
     0
 10
388.6368652582169
 20
-0.0351351350546902
 30
0.0
  0
ENDBLK
  5
67D
  8
0
  0
BLOCK
  8
0
  2
*D41
 70
     1
 10
0.0
 20
0.0
 30
0.0
  3
*D41
  1

  0
LINE
  5
680
  8
SIZE
 62
     0
 10
-332.0297241210937
 20
-10.03513513505459
 30
0.0
 11
-332.0297241210937
 21
-160.1351562738419
 31
0.0
  0
LINE
  5
681
  8
SIZE
 62
     0
 10
-168.0297241210937
 20
176.964859008789
 30
0.0
 11
-168.0297241210937
 21
-160.1351562738419
 31
0.0
  0
LINE
  5
682
  8
SIZE
 62
     0
 10
-322.0297241210937
 20
-147.6351562738419
 30
0.0
 11
-178.0297241210938
 21
-147.6351562738419
 31
0.0
  0
INSERT
  5
683
  8
SIZE
 62
     0
  2
_ORIGIN
 10
-332.0297241210937
 20
-147.6351562738419
 30
0.0
 41
10.0
 42
10.0
 43
10.0
 50
180.0
  0
INSERT
  5
684
  8
SIZE
 62
     0
  2
_ORIGIN
 10
-168.0297241210937
 20
-147.6351562738419
 30
0.0
 41
10.0
 42
10.0
 43
10.0
  0
TEXT
  5
685
  8
SIZE
 62
     0
 10
-289.7797241822897
 20
-137.6351562738419
 30
0.0
 40
30.0
  1
164
 72
     1
 11
-250.0297241822897
 21
-137.6351562738419
 31
0.0
  0
POINT
  5
686
  8
DEFPOINTS
 62
     0
 10
-332.0297241210937
 20
-0.035135135054588
 30
0.0
  0
POINT
  5
687
  8
DEFPOINTS
 62
     0
 10
-168.0297241210937
 20
186.964859008789
 30
0.0
  0
POINT
  5
688
  8
DEFPOINTS
 62
     0
 10
-168.0297241210937
 20
-147.6351562738419
 30
0.0
  0
ENDBLK
  5
689
  8
0
  0
BLOCK
  8
0
  2
*D42
 70
     1
 10
0.0
 20
0.0
 30
0.0
  3
*D42
  1

  0
LINE
  5
68C
  8
SIZE
 62
     0
 10
-332.0297241210937
 20
-10.03513513505459
 30
0.0
 11
-332.0297241210937
 21
-260.1351562738419
 31
0.0
  0
LINE
  5
68D
  8
SIZE
 62
     0
 10
-156.0297241210937
 20
96.9648666381836
 30
0.0
 11
-156.0297241210937
 21
-260.1351562738419
 31
0.0
  0
LINE
  5
68E
  8
SIZE
 62
     0
 10
-322.0297241210937
 20
-247.6351562738419
 30
0.0
 11
-166.0297241210938
 21
-247.6351562738419
 31
0.0
  0
INSERT
  5
68F
  8
SIZE
 62
     0
  2
_ORIGIN
 10
-332.0297241210937
 20
-247.6351562738419
 30
0.0
 41
10.0
 42
10.0
 43
10.0
 50
180.0
  0
INSERT
  5
690
  8
SIZE
 62
     0
  2
_ORIGIN
 10
-156.0297241210937
 20
-247.6351562738419
 30
0.0
 41
10.0
 42
10.0
 43
10.0
  0
TEXT
  5
691
  8
SIZE
 62
     0
 10
-283.7797241822897
 20
-237.6351562738419
 30
0.0
 40
30.0
  1
176
 72
     1
 11
-244.0297241822897
 21
-237.6351562738419
 31
0.0
  0
POINT
  5
692
  8
DEFPOINTS
 62
     0
 10
-332.0297241210937
 20
-0.035135135054588
 30
0.0
  0
POINT
  5
693
  8
DEFPOINTS
 62
     0
 10
-156.0297241210937
 20
106.9648666381836
 30
0.0
  0
POINT
  5
694
  8
DEFPOINTS
 62
     0
 10
-156.0297241210937
 20
-247.6351562738419
 30
0.0
  0
ENDBLK
  5
695
  8
0
  0
BLOCK
  8
0
  2
*D43
 70
     1
 10
0.0
 20
0.0
 30
0.0
  3
*D43
  1

  0
LINE
  5
698
  8
SIZE
 62
     0
 10
37.97027015686035
 20
-0.0351351350545908
 30
0.0
 11
305.1166015863418
 21
-0.0351351350546665
 31
0.0
  0
LINE
  5
699
  8
SIZE
 62
     0
 10
-138.0297241210937
 20
206.964859008789
 30
0.0
 11
305.1166015863419
 21
206.9648590087889
 31
0.0
  0
LINE
  5
69A
  8
SIZE
 62
     0
 10
292.6166015863418
 20
9.964864864945337
 30
0.0
 11
292.6166015863419
 21
196.9648590087889
 31
0.0
  0
INSERT
  5
69B
  8
SIZE
 62
     0
  2
_ORIGIN
 10
292.6166015863418
 20
-0.035135135054663
 30
0.0
 41
10.0
 42
10.0
 43
10.0
 50
270.0
  0
INSERT
  5
69C
  8
SIZE
 62
     0
  2
_ORIGIN
 10
292.6166015863419
 20
206.9648590087889
 30
0.0
 41
10.0
 42
10.0
 43
10.0
 50
90.0
  0
TEXT
  5
69D
  8
SIZE
 62
     0
 10
282.6166015863418
 20
61.01486651579171
 30
0.0
 40
30.0
  1
207
 50
90.0
 72
     1
 11
282.6166015863418
 21
103.4648665157917
 31
0.0
  0
POINT
  5
69E
  8
DEFPOINTS
 62
     0
 10
27.97027015686035
 20
-0.035135135054588
 30
0.0
  0
POINT
  5
69F
  8
DEFPOINTS
 62
     0
 10
-148.0297241210937
 20
206.964859008789
 30
0.0
  0
POINT
  5
6A0
  8
DEFPOINTS
 62
     0
 10
292.6166015863419
 20
206.9648590087889
 30
0.0
  0
ENDBLK
  5
6A1
  8
0
  0
BLOCK
  8
0
  2
*D44
 70
     1
 10
0.0
 20
0.0
 30
0.0
  3
*D44
  1

  0
LINE
  5
6A4
  8
SIZE
 62
     0
 10
37.97027015686035
 20
-0.0351351350545908
 30
0.0
 11
205.7007843255997
 21
-0.0351351350546384
 31
0.0
  0
LINE
  5
6A5
  8
SIZE
 62
     0
 10
-126.0297241210938
 20
126.9648666381836
 30
0.0
 11
205.7007843255997
 21
126.9648666381835
 31
0.0
  0
LINE
  5
6A6
  8
SIZE
 62
     0
 10
193.2007843255997
 20
9.964864864945365
 30
0.0
 11
193.2007843255997
 21
116.9648666381835
 31
0.0
  0
INSERT
  5
6A7
  8
SIZE
 62
     0
  2
_ORIGIN
 10
193.2007843255997
 20
-0.0351351350546348
 30
0.0
 41
10.0
 42
10.0
 43
10.0
 50
270.0
  0
INSERT
  5
6A8
  8
SIZE
 62
     0
  2
_ORIGIN
 10
193.2007843255997
 20
126.9648666381835
 30
0.0
 41
10.0
 42
10.0
 43
10.0
 50
90.0
  0
TEXT
  5
6A9
  8
SIZE
 62
     0
 10
183.2007843255997
 20
23.71486651579171
 30
0.0
 40
30.0
  1
127
 50
90.0
 72
     1
 11
183.2007843255997
 21
63.46486651579171
 31
0.0
  0
POINT
  5
6AA
  8
DEFPOINTS
 62
     0
 10
27.97027015686035
 20
-0.035135135054588
 30
0.0
  0
POINT
  5
6AB
  8
DEFPOINTS
 62
     0
 10
-136.0297241210937
 20
126.9648666381836
 30
0.0
  0
POINT
  5
6AC
  8
DEFPOINTS
 62
     0
 10
193.2007843255997
 20
126.9648666381835
 30
0.0
  0
ENDBLK
  5
6AD
  8
0
  0
ENDSEC
  0
SECTION
  2
ENTITIES
  0
LINE
  5
6AE
  8
OUTLINE
  6
CONTINUOUS
 10
16.0
 20
625.0000000000001
 30
0.0
 11
16.0
 21
675.0000000000001
 31
0.0
  0
LINE
  5
6AF
  8
OUTLINE
  6
CONTINUOUS
 10
16.0
 20
625.0000000000001
 30
0.0
 11
0.000000000000003
 21
625.0000000000001
 31
0.0
  0
LINE
  5
6B0
  8
OUTLINE
  6
CONTINUOUS
 10
16.0
 20
675.0000000000001
 30
0.0
 11
0.000000000000003
 21
675.0000000000001
 31
0.0
  0
LINE
  5
6B1
  8
OUTLINE
  6
CONTINUOUS
 10
-331.9999999999999
 20
7.999999999999999
 30
0.0
 11
-331.9999999999999
 21
0.0
 31
0.0
  0
LINE
  5
6B2
  8
OUTLINE
  6
CONTINUOUS
 10
28.00000000000012
 20
7.999999999999999
 30
0.0
 11
-331.9999999999999
 21
7.999999999999999
 31
0.0
  0
LINE
  5
6B3
  8
OUTLINE
  6
CONTINUOUS
 10
28.00000000000012
 20
7.999999999999998
 30
0.0
 11
28.00000000000012
 21
0.0
 31
0.0
  0
LINE
  5
6B4
  8
OUTLINE
  6
CONTINUOUS
 10
28.00000000000012
 20
0.0
 30
0.0
 11
-331.9999999999999
 21
0.0
 31
0.0
  0
LINE
  5
6B5
  8
OUTLINE
  6
CONTINUOUS
 10
-6.964101615137761
 20
7.999999999999999
 30
0.0
 11
-13.89230484541326
 21
19.99999999999999
 31
0.0
  0
LINE
  5
6B6
  8
OUTLINE
  6
CONTINUOUS
 10
-293.0358983848623
 20
7.999999999999999
 30
0.0
 11
-286.1076951545867
 21
20.0
 31
0.0
  0
LINE
  5
6B7
  8
OUTLINE
  6
CONTINUOUS
 10
-300.0
 20
20.0
 30
0.0
 11
0.000000000000003
 21
20.0
 31
0.0
  0
ARC
  5
6B8
  8
OUTLINE
  6
CONTINUOUS
 10
-295.0
 20
710.0000000000001
 30
0.0
 40
5.0
 50
90.0
 51
180.0
  0
LINE
  5
6B9
  8
OUTLINE
  6
CONTINUOUS
 10
-300.0
 20
710.0000000000001
 30
0.0
 11
-300.0
 21
20.0
 31
0.0
  0
LINE
  5
6BA
  8
OUTLINE
  6
CONTINUOUS
 10
-295.0
 20
715.0000000000001
 30
0.0
 11
-5.000000000000011
 21
715.0000000000001
 31
0.0
  0
LINE
  5
6BB
  8
OUTLINE
  6
CONTINUOUS
 10
0.000000000000003
 20
20.0
 30
0.0
 11
0.000000000000003
 21
710.0000000000001
 31
0.0
  0
ARC
  5
6BC
  8
OUTLINE
  6
CONTINUOUS
 10
-4.999999999999996
 20
710.0000000000001
 30
0.0
 40
5.0
 50
0.0
 51
90.0
  0
ARC
  5
6BD
  8
DETAIL
  6
CONTINUOUS
 10
-249.0
 20
663.0000000000001
 30
0.0
 40
1.0
 50
90.0
 51
180.0
  0
ARC
  5
6BE
  8
DETAIL
  6
CONTINUOUS
 10
-116.0
 20
663.0000000000001
 30
0.0
 40
1.0
 50
0.0
 51
90.0
  0
LINE
  5
6BF
  8
DETAIL
  6
CONTINUOUS
 10
-115.0
 20
47.00000000000001
 30
0.0
 11
-250.0
 21
47.00000000000001
 31
0.0
  0
LINE
  5
6C0
  8
DETAIL
  6
CONTINUOUS
 10
-115.0
 20
266.9999999999999
 30
0.0
 11
-115.0
 21
47.00000000000001
 31
0.0
  0
LINE
  5
6C1
  8
DETAIL
  6
CONTINUOUS
 10
-250.0
 20
266.9999999999999
 30
0.0
 11
-250.0
 21
47.00000000000001
 31
0.0
  0
LINE
  5
6C2
  8
DETAIL
  6
CONTINUOUS
 10
-231.2402352083002
 20
633.9548713210521
 30
0.0
 11
-145.0
 21
633.0470793714946
 31
0.0
  0
LINE
  5
6C3
  8
DETAIL
  6
CONTINUOUS
 10
-115.0
 20
267.9999999999999
 30
0.0
 11
-116.0
 21
266.9999999999999
 31
0.0
  0
LINE
  5
6C4
  8
DETAIL
  6
CONTINUOUS
 10
-250.0
 20
267.9999999999999
 30
0.0
 11
-249.0
 21
266.9999999999999
 31
0.0
  0
LINE
  5
6C5
  8
DETAIL
  6
CONTINUOUS
 10
-115.0
 20
266.9999999999999
 30
0.0
 11
-250.0
 21
266.9999999999999
 31
0.0
  0
LINE
  5
6C6
  8
DETAIL
  6
CONTINUOUS
 10
-115.0
 20
664.0000000000001
 30
0.0
 11
-249.0
 21
664.0000000000001
 31
0.0
  0
LINE
  5
6C7
  8
DETAIL
  6
CONTINUOUS
 10
-115.0
 20
663.0000000000001
 30
0.0
 11
-115.0
 21
266.9999999999999
 31
0.0
  0
LINE
  5
6C8
  8
DETAIL
  6
CONTINUOUS
 10
-250.0
 20
663.0000000000001
 30
0.0
 11
-250.0
 21
266.9999999999999
 31
0.0
  0
LINE
  5
6C9
  8
DETAIL
  6
CONTINUOUS
 10
16.0
 20
625.0000000000001
 30
0.0
 11
16.0
 21
675.0000000000001
 31
0.0
  0
LINE
  5
6CA
  8
DETAIL
  6
CONTINUOUS
 10
16.0
 20
625.0000000000001
 30
0.0
 11
0.000000000000003
 21
625.0000000000001
 31
0.0
  0
LINE
  5
6CB
  8
DETAIL
  6
CONTINUOUS
 10
16.0
 20
675.0000000000001
 30
0.0
 11
0.000000000000003
 21
675.0000000000001
 31
0.0
  0
LINE
  5
6CC
  8
DETAIL
  6
CONTINUOUS
 10
-6.964101615137761
 20
7.999999999999999
 30
0.0
 11
-13.89230484541326
 21
19.99999999999999
 31
0.0
  0
ARC
  5
6CD
  8
DETAIL
  6
CONTINUOUS
 10
-4.999999999999996
 20
710.0000000000001
 30
0.0
 40
5.0
 50
0.0
 51
90.0
  0
LINE
  5
6CE
  8
DETAIL
  6
CONTINUOUS
 10
0.000000000000003
 20
20.0
 30
0.0
 11
0.000000000000003
 21
710.0000000000001
 31
0.0
  0
LINE
  5
6CF
  8
DETAIL
  6
CONTINUOUS
 10
-320.0
 20
142.0
 30
0.0
 11
-320.0
 21
670.0000000000001
 31
0.0
  0
LINE
  5
6D0
  8
DETAIL
  6
CONTINUOUS
 10
-300.0
 20
142.0
 30
0.0
 11
-320.0
 21
142.0
 31
0.0
  0
LINE
  5
6D1
  8
DETAIL
  6
CONTINUOUS
 10
-300.0
 20
670.0000000000001
 30
0.0
 11
-320.0
 21
670.0000000000001
 31
0.0
  0
LINE
  5
6D2
  8
DETAIL
  6
DASHED
 10
-155.9999999999998
 20
137.0638833107543
 30
0.0
 11
-155.9999999999998
 21
116.9361166892456
 31
0.0
  0
ARC
  5
6D3
  8
DETAIL
  6
DASHED
 10
-184.6499999999999
 20
127.0000000000002
 30
0.0
 40
10.84999999999991
 50
90.0
 51
270.0
  0
LINE
  5
6D4
  8
DETAIL
  6
DASHED
 10
-155.9999999999998
 20
137.0638833107543
 30
0.0
 11
-170.9999999999998
 21
137.8500000000001
 31
0.0
  0
LINE
  5
6D5
  8
DETAIL
  6
DASHED
 10
-170.9999999999998
 20
137.8500000000001
 30
0.0
 11
-170.9999999999998
 21
116.1500000000003
 31
0.0
  0
LINE
  5
6D6
  8
DETAIL
  6
DASHED
 10
-155.9999999999998
 20
116.9361166892456
 30
0.0
 11
-170.9999999999998
 21
116.1500000000003
 31
0.0
  0
LINE
  5
6D7
  8
DETAIL
  6
DASHED
 10
-170.9999999999998
 20
116.1500000000003
 30
0.0
 11
-184.6499999999999
 21
116.1500000000003
 31
0.0
  0
LINE
  5
6D8
  8
DETAIL
  6
DASHED
 10
-170.9999999999998
 20
137.8500000000001
 30
0.0
 11
-184.6499999999999
 21
137.8500000000001
 31
0.0
  0
LINE
  5
6D9
  8
DETAIL
  6
DASHED
 10
-182.9999999999998
 20
217.8500000000001
 30
0.0
 11
-196.6499999999999
 21
217.8500000000001
 31
0.0
  0
LINE
  5
6DA
  8
DETAIL
  6
DASHED
 10
-182.9999999999998
 20
196.1500000000004
 30
0.0
 11
-196.6499999999999
 21
196.1500000000004
 31
0.0
  0
LINE
  5
6DB
  8
DETAIL
  6
DASHED
 10
-167.9999999999998
 20
217.0638833107544
 30
0.0
 11
-167.9999999999998
 21
196.9361166892456
 31
0.0
  0
LINE
  5
6DC
  8
DETAIL
  6
DASHED
 10
-167.9999999999998
 20
196.9361166892456
 30
0.0
 11
-182.9999999999998
 21
196.1500000000004
 31
0.0
  0
LINE
  5
6DD
  8
DETAIL
  6
DASHED
 10
-182.9999999999998
 20
217.8500000000001
 30
0.0
 11
-182.9999999999998
 21
196.1500000000004
 31
0.0
  0
LINE
  5
6DE
  8
DETAIL
  6
DASHED
 10
-167.9999999999998
 20
217.0638833107544
 30
0.0
 11
-182.9999999999998
 21
217.8500000000001
 31
0.0
  0
LINE
  5
6DF
  8
DETAIL
  6
CONTINUOUS
 10
28.00000000000012
 20
0.0
 30
0.0
 11
-331.9999999999999
 21
0.0
 31
0.0
  0
LINE
  5
6E0
  8
DETAIL
  6
CONTINUOUS
 10
-295.0
 20
715.0000000000001
 30
0.0
 11
-5.000000000000011
 21
715.0000000000001
 31
0.0
  0
LINE
  5
6E1
  8
DETAIL
  6
CONTINUOUS
 10
28.00000000000012
 20
7.999999999999999
 30
0.0
 11
28.00000000000012
 21
0.0
 31
0.0
  0
LINE
  5
6E2
  8
DETAIL
  6
CONTINUOUS
 10
-331.9999999999999
 20
7.999999999999999
 30
0.0
 11
-331.9999999999999
 21
0.0
 31
0.0
  0
LINE
  5
6E3
  8
DETAIL
  6
CONTINUOUS
 10
-300.0
 20
710.0000000000001
 30
0.0
 11
-300.0
 21
20.0
 31
0.0
  0
LINE
  5
6E4
  8
DETAIL
  6
CONTINUOUS
 10
-300.0
 20
20.0
 30
0.0
 11
0.000000000000003
 21
20.0
 31
0.0
  0
LINE
  5
6E5
  8
DETAIL
  6
CONTINUOUS
 10
28.00000000000012
 20
7.999999999999999
 30
0.0
 11
-331.9999999999999
 21
7.999999999999999
 31
0.0
  0
ARC
  5
6E6
  8
DETAIL
  6
CONTINUOUS
 10
-295.0
 20
710.0000000000001
 30
0.0
 40
5.0
 50
90.0
 51
180.0
  0
LINE
  5
6E7
  8
DETAIL
  6
CONTINUOUS
 10
-300.0
 20
690.0000000000001
 30
0.0
 11
0.000000000000003
 21
690.0000000000001
 31
0.0
  0
ARC
  5
6E8
  8
DETAIL
  6
DASHED
 10
-196.6499999999999
 20
207.0000000000003
 30
0.0
 40
10.84999999999991
 50
90.0
 51
270.0
  0
LINE
  5
6E9
  8
DETAIL
  6
CONTINUOUS
 10
-293.0358983848623
 20
7.999999999999999
 30
0.0
 11
-286.1076951545867
 21
20.0
 31
0.0
  0
LINE
  5
6EA
  8
DETAIL
  6
CONTINUOUS
 10
-61.49999999999989
 20
-62.00000000000001
 30
0.0
 11
-61.49999999999989
 21
0.0
 31
0.0
  0
LINE
  5
6EB
  8
DETAIL
  6
CONTINUOUS
 10
-34.99999999999989
 20
-62.00000000000001
 30
0.0
 11
-34.99999999999989
 21
0.0
 31
0.0
  0
LINE
  5
6EC
  8
DETAIL
  6
CONTINUOUS
 10
-34.99999999999989
 20
-62.00000000000001
 30
0.0
 11
-61.49999999999989
 21
-62.00000000000001
 31
0.0
  0
LINE
  5
6ED
  8
BASIS
  6
DASHDOT
 10
-250.0
 20
405.9999999999999
 30
0.0
 11
-370.0
 21
405.9999999999999
 31
0.0
  0
LINE
  5
6EE
  8
SIZE
  6
CONTINUOUS
 62
    30
 10
37.99999989007374
 20
-0.0000000016606038
 30
0.0
 11
205.7305140588131
 21
-0.0000000016606514
 31
0.0
  0
LINE
  5
6EF
  8
SIZE
  6
CONTINUOUS
 62
    30
 10
-125.9999943878804
 20
127.0000017715776
 30
0.0
 11
205.7305140588131
 21
127.0000017715775
 31
0.0
  0
LINE
  5
6F0
  8
SIZE
  6
CONTINUOUS
 62
    30
 10
193.2305140588131
 20
9.999999998339353
 30
0.0
 11
193.2305140588131
 21
117.0000017715775
 31
0.0
  0
CIRCLE
  5
6F1
  8
SIZE
  6
CONTINUOUS
 62
    30
 10
193.2305140588131
 20
-0.0000000016606478
 30
0.0
 40
5.0
  0
LINE
  5
6F2
  8
SIZE
  6
CONTINUOUS
 62
    30
 10
193.2305140588131
 20
-0.0000000016606478
 30
0.0
 11
193.2305140588131
 21
9.999999998339353
 31
0.0
  0
CIRCLE
  5
6F3
  8
SIZE
  6
CONTINUOUS
 62
    30
 10
193.2305140588131
 20
127.0000017715775
 30
0.0
 40
5.0
  0
LINE
  5
6F4
  8
SIZE
  6
CONTINUOUS
 62
    30
 10
193.2305140588131
 20
127.0000017715775
 30
0.0
 11
193.2305140588131
 21
117.0000017715775
 31
0.0
  0
TEXT
  5
6F5
  8
SIZE
  6
CONTINUOUS
 62
    30
 10
183.2305140588131
 20
18.5000016491857
 30
0.0
 40
30.0
  1
127
 50
90.0
 72
     1
 11
183.2305140588131
 21
63.5000016491857
 31
0.0
  0
POINT
  5
6F6
  8
DEFPOINTS
  6
CONTINUOUS
 62
    30
 10
27.99999989007374
 20
-0.000000001660601
 30
0.0
  0
POINT
  5
6F7
  8
DEFPOINTS
  6
CONTINUOUS
 62
    30
 10
-135.9999943878803
 20
127.0000017715776
 30
0.0
  0
POINT
  5
6F8
  8
DEFPOINTS
  6
CONTINUOUS
 62
    30
 10
193.2305140588131
 20
127.0000017715775
 30
0.0
  0
LINE
  5
6F9
  8
SIZE
  6
CONTINUOUS
 62
    30
 10
37.99999989007374
 20
-0.0000000016606038
 30
0.0
 11
305.1463313195552
 21
-0.0000000016606795
 31
0.0
  0
LINE
  5
6FA
  8
SIZE
  6
CONTINUOUS
 62
    30
 10
-137.9999943878803
 20
206.999994142183
 30
0.0
 11
305.1463313195553
 21
206.9999941421829
 31
0.0
  0
LINE
  5
6FB
  8
SIZE
  6
CONTINUOUS
 62
    30
 10
292.6463313195552
 20
9.999999998339325
 30
0.0
 11
292.6463313195553
 21
196.9999941421829
 31
0.0
  0
CIRCLE
  5
6FC
  8
SIZE
  6
CONTINUOUS
 62
    30
 10
292.6463313195552
 20
-0.000000001660676
 30
0.0
 40
5.0
  0
LINE
  5
6FD
  8
SIZE
  6
CONTINUOUS
 62
    30
 10
292.6463313195552
 20
-0.000000001660676
 30
0.0
 11
292.6463313195552
 21
9.999999998339325
 31
0.0
  0
CIRCLE
  5
6FE
  8
SIZE
  6
CONTINUOUS
 62
    30
 10
292.6463313195553
 20
206.9999941421829
 30
0.0
 40
5.0
  0
LINE
  5
6FF
  8
SIZE
  6
CONTINUOUS
 62
    30
 10
292.6463313195553
 20
206.9999941421829
 30
0.0
 11
292.6463313195553
 21
196.9999941421829
 31
0.0
  0
TEXT
  5
700
  8
SIZE
  6
CONTINUOUS
 62
    30
 10
282.6463313195552
 20
60.64285879204283
 30
0.0
 40
30.0
  1
207
 50
90.0
 72
     1
 11
282.6463313195552
 21
103.5000016491857
 31
0.0
  0
POINT
  5
701
  8
DEFPOINTS
  6
CONTINUOUS
 62
    30
 10
27.99999989007374
 20
-0.000000001660601
 30
0.0
  0
POINT
  5
702
  8
DEFPOINTS
  6
CONTINUOUS
 62
    30
 10
-147.9999943878803
 20
206.999994142183
 30
0.0
  0
POINT
  5
703
  8
DEFPOINTS
  6
CONTINUOUS
 62
    30
 10
292.6463313195553
 20
206.9999941421829
 30
0.0
  0
LINE
  5
704
  8
SIZE
  6
CONTINUOUS
 62
    30
 10
-331.9999943878803
 20
-10.0000000016606
 30
0.0
 11
-331.9999943878803
 21
-260.100021140448
 31
0.0
  0
LINE
  5
705
  8
SIZE
  6
CONTINUOUS
 62
    30
 10
-155.9999943878803
 20
97.00000177157759
 30
0.0
 11
-155.9999943878803
 21
-260.100021140448
 31
0.0
  0
LINE
  5
706
  8
SIZE
  6
CONTINUOUS
 62
    30
 10
-321.9999943878803
 20
-247.6000211404479
 30
0.0
 11
-165.9999943878804
 21
-247.6000211404479
 31
0.0
  0
CIRCLE
  5
707
  8
SIZE
  6
CONTINUOUS
 62
    30
 10
-331.9999943878803
 20
-247.6000211404479
 30
0.0
 40
5.0
  0
LINE
  5
708
  8
SIZE
  6
CONTINUOUS
 62
    30
 10
-331.9999943878803
 20
-247.6000211404479
 30
0.0
 11
-321.9999943878803
 21
-247.6000211404479
 31
0.0
  0
CIRCLE
  5
709
  8
SIZE
  6
CONTINUOUS
 62
    30
 10
-155.9999943878803
 20
-247.6000211404479
 30
0.0
 40
5.0
  0
LINE
  5
70A
  8
SIZE
  6
CONTINUOUS
 62
    30
 10
-155.9999943878803
 20
-247.6000211404479
 30
0.0
 11
-165.9999943878803
 21
-247.6000211404479
 31
0.0
  0
TEXT
  5
70B
  8
SIZE
  6
CONTINUOUS
 62
    30
 10
-288.9999944490763
 20
-237.6000211404479
 30
0.0
 40
30.0
  1
176
 72
     1
 11
-243.9999944490763
 21
-237.6000211404479
 31
0.0
  0
POINT
  5
70C
  8
DEFPOINTS
  6
CONTINUOUS
 62
    30
 10
-331.9999943878803
 20
-0.000000001660601
 30
0.0
  0
POINT
  5
70D
  8
DEFPOINTS
  6
CONTINUOUS
 62
    30
 10
-155.9999943878803
 20
107.0000017715776
 30
0.0
  0
POINT
  5
70E
  8
DEFPOINTS
  6
CONTINUOUS
 62
    30
 10
-155.9999943878803
 20
-247.6000211404479
 30
0.0
  0
LINE
  5
70F
  8
SIZE
  6
CONTINUOUS
 62
    30
 10
-331.9999943878803
 20
-10.0000000016606
 30
0.0
 11
-331.9999943878803
 21
-160.1000211404479
 31
0.0
  0
LINE
  5
710
  8
SIZE
  6
CONTINUOUS
 62
    30
 10
-167.9999943878803
 20
176.999994142183
 30
0.0
 11
-167.9999943878803
 21
-160.1000211404479
 31
0.0
  0
LINE
  5
711
  8
SIZE
  6
CONTINUOUS
 62
    30
 10
-321.9999943878803
 20
-147.6000211404479
 30
0.0
 11
-177.9999943878804
 21
-147.6000211404479
 31
0.0
  0
CIRCLE
  5
712
  8
SIZE
  6
CONTINUOUS
 62
    30
 10
-331.9999943878803
 20
-147.6000211404479
 30
0.0
 40
5.0
  0
LINE
  5
713
  8
SIZE
  6
CONTINUOUS
 62
    30
 10
-331.9999943878803
 20
-147.6000211404479
 30
0.0
 11
-321.9999943878803
 21
-147.6000211404479
 31
0.0
  0
CIRCLE
  5
714
  8
SIZE
  6
CONTINUOUS
 62
    30
 10
-167.9999943878803
 20
-147.6000211404479
 30
0.0
 40
5.0
  0
LINE
  5
715
  8
SIZE
  6
CONTINUOUS
 62
    30
 10
-167.9999943878803
 20
-147.6000211404479
 30
0.0
 11
-177.9999943878803
 21
-147.6000211404479
 31
0.0
  0
TEXT
  5
716
  8
SIZE
  6
CONTINUOUS
 62
    30
 10
-295.714280163362
 20
-137.6000211404479
 30
0.0
 40
30.0
  1
164
 72
     1
 11
-249.9999944490763
 21
-137.6000211404479
 31
0.0
  0
POINT
  5
717
  8
DEFPOINTS
  6
CONTINUOUS
 62
    30
 10
-331.9999943878803
 20
-0.000000001660601
 30
0.0
  0
POINT
  5
718
  8
DEFPOINTS
  6
CONTINUOUS
 62
    30
 10
-167.9999943878803
 20
186.999994142183
 30
0.0
  0
POINT
  5
719
  8
DEFPOINTS
  6
CONTINUOUS
 62
    30
 10
-167.9999943878803
 20
-147.6000211404479
 30
0.0
  0
LINE
  5
71A
  8
SIZE
  6
CONTINUOUS
 62
    30
 10
-18.20000087286571
 20
-61.99999822842241
 30
0.0
 11
401.1665949914302
 21
-61.99999822842256
 31
0.0
  0
LINE
  5
71B
  8
SIZE
  6
CONTINUOUS
 62
    30
 10
37.99999989007374
 20
-0.0000000016606038
 30
0.0
 11
401.1665949914302
 21
-0.0000000016607067
 31
0.0
  0
LINE
  5
71C
  8
SIZE
  6
CONTINUOUS
 62
    30
 10
388.6665949914303
 20
-51.99999822842254
 30
0.0
 11
388.6665949914303
 21
-10.0000000016607
 31
0.0
  0
CIRCLE
  5
71D
  8
SIZE
  6
CONTINUOUS
 62
    30
 10
388.6665949914303
 20
-61.99999822842254
 30
0.0
 40
5.0
  0
LINE
  5
71E
  8
SIZE
  6
CONTINUOUS
 62
    30
 10
388.6665949914303
 20
-61.99999822842254
 30
0.0
 11
388.6665949914303
 21
-51.99999822842254
 31
0.0
  0
CIRCLE
  5
71F
  8
SIZE
  6
CONTINUOUS
 62
    30
 10
388.6665949914303
 20
-0.0000000016607032
 30
0.0
 40
5.0
  0
LINE
  5
720
  8
SIZE
  6
CONTINUOUS
 62
    30
 10
388.6665949914303
 20
-0.0000000016607032
 30
0.0
 11
388.6665949914303
 21
-10.0000000016607
 31
0.0
  0
TEXT
  5
721
  8
SIZE
  6
CONTINUOUS
 62
    30
 10
378.6665949914303
 20
-60.28571340075584
 30
0.0
 40
30.0
  1
62
 50
90.0
 72
     1
 11
378.6665949914303
 21
-30.99999911504155
 31
0.0
  0
POINT
  5
722
  8
DEFPOINTS
  6
CONTINUOUS
 62
    30
 10
-28.20000087286572
 20
-61.99999822842241
 30
0.0
  0
POINT
  5
723
  8
DEFPOINTS
  6
CONTINUOUS
 62
    30
 10
27.99999989007374
 20
-0.000000001660601
 30
0.0
  0
POINT
  5
724
  8
DEFPOINTS
  6
CONTINUOUS
 62
    30
 10
388.6665949914303
 20
-0.0000000016607032
 30
0.0
  0
LINE
  5
725
  8
SIZE
  6
CONTINUOUS
 62
    30
 10
-0.0000000000301956
 20
-10.0000000016606
 30
0.0
 11
-0.0000000000302048
 21
-160.1000211404479
 31
0.0
  0
LINE
  5
726
  8
SIZE
  6
CONTINUOUS
 62
    30
 10
-48.19999896551708
 20
-91.99999822842241
 30
0.0
 11
-48.1999989655171
 21
-160.1000211404479
 31
0.0
  0
LINE
  5
727
  8
SIZE
  6
CONTINUOUS
 62
    30
 10
-10.0000000000302
 20
-147.6000211404479
 30
0.0
 11
-38.1999989655171
 21
-147.6000211404479
 31
0.0
  0
CIRCLE
  5
728
  8
SIZE
  6
CONTINUOUS
 62
    30
 10
-0.0000000000302041
 20
-147.6000211404479
 30
0.0
 40
5.0
  0
LINE
  5
729
  8
SIZE
  6
CONTINUOUS
 62
    30
 10
-0.0000000000302041
 20
-147.6000211404479
 30
0.0
 11
-10.0000000000302
 21
-147.6000211404479
 31
0.0
  0
CIRCLE
  5
72A
  8
SIZE
  6
CONTINUOUS
 62
    30
 10
-48.1999989655171
 20
-147.6000211404479
 30
0.0
 40
5.0
  0
LINE
  5
72B
  8
SIZE
  6
CONTINUOUS
 62
    30
 10
-48.1999989655171
 20
-147.6000211404479
 30
0.0
 11
-38.1999989655171
 21
-147.6000211404479
 31
0.0
  0
TEXT
  5
72C
  8
SIZE
  6
CONTINUOUS
 62
    30
 10
-52.67142805420221
 20
-137.6000211404479
 30
0.0
 40
30.0
  1
48
 72
     1
 11
-24.09999948277364
 21
-137.6000211404479
 31
0.0
  0
POINT
  5
72D
  8
DEFPOINTS
  6
CONTINUOUS
 62
    30
 10
-0.000000000030195
 20
-0.000000001660601
 30
0.0
  0
POINT
  5
72E
  8
DEFPOINTS
  6
CONTINUOUS
 62
    30
 10
-48.19999896551708
 20
-81.99999822842241
 30
0.0
  0
POINT
  5
72F
  8
DEFPOINTS
  6
CONTINUOUS
 62
    30
 10
-48.1999989655171
 20
-147.6000211404479
 30
0.0
  0
LINE
  5
730
  8
SIZE
  6
CONTINUOUS
 62
    30
 10
-0.0000000000301956
 20
9.999999864228947
 30
0.0
 11
-0.0000000000302122
 21
-260.100021140448
 31
0.0
  0
LINE
  5
731
  8
SIZE
  6
CONTINUOUS
 62
    30
 10
27.99999989007374
 20
-2.000000135771052
 30
0.0
 11
27.99999989007373
 21
-260.100021140448
 31
0.0
  0
LINE
  5
732
  8
SIZE
  6
CONTINUOUS
 62
    30
 10
37.99999989007372
 20
-247.6000211404479
 30
0.0
 11
47.99999989007372
 21
-247.6000211404479
 31
0.0
  0
LINE
  5
733
  8
SIZE
  6
CONTINUOUS
 62
    30
 10
-10.00000000003021
 20
-247.6000211404479
 30
0.0
 11
-115.0651265901896
 21
-247.6000211404479
 31
0.0
  0
LINE
  5
734
  8
SIZE
  6
CONTINUOUS
 62
    30
 10
27.99999989007373
 20
-247.6000211404479
 30
0.0
 11
-0.0000000000302114
 21
-247.6000211404479
 31
0.0
  0
CIRCLE
  5
735
  8
SIZE
  6
CONTINUOUS
 62
    30
 10
27.99999989007373
 20
-247.6000211404479
 30
0.0
 40
5.0
  0
LINE
  5
736
  8
SIZE
  6
CONTINUOUS
 62
    30
 10
27.99999989007373
 20
-247.6000211404479
 30
0.0
 11
37.99999989007372
 21
-247.6000211404479
 31
0.0
  0
CIRCLE
  5
737
  8
SIZE
  6
CONTINUOUS
 62
    30
 10
-0.0000000000302114
 20
-247.6000211404479
 30
0.0
 40
5.0
  0
LINE
  5
738
  8
SIZE
  6
CONTINUOUS
 62
    30
 10
-0.0000000000302114
 20
-247.6000211404479
 30
0.0
 11
-10.00000000003021
 21
-247.6000211404479
 31
0.0
  0
TEXT
  5
739
  8
SIZE
  6
CONTINUOUS
 62
    30
 10
-108.6365551616182
 20
-237.6000211404479
 30
0.0
 40
30.0
  1
28
 72
     1
 11
-80.06512659018959
 21
-237.6000211404479
 31
0.0
  0
POINT
  5
73A
  8
DEFPOINTS
  6
CONTINUOUS
 62
    30
 10
-0.000000000030195
 20
19.99999986422895
 30
0.0
  0
POINT
  5
73B
  8
DEFPOINTS
  6
CONTINUOUS
 62
    30
 10
27.99999989007374
 20
7.999999864228947
 30
0.0
  0
POINT
  5
73C
  8
DEFPOINTS
  6
CONTINUOUS
 62
    30
 10
27.99999989007373
 20
-247.6000211404479
 30
0.0
  0
LINE
  5
73D
  8
SIZE
  6
CONTINUOUS
 62
    30
 10
-0.0000000000301956
 20
-10.0000000016606
 30
0.0
 11
-0.0000000000302171
 21
-360.1000211404478
 31
0.0
  0
LINE
  5
73E
  8
SIZE
  6
CONTINUOUS
 62
    30
 10
9.999999890073742
 20
-30.00000013577105
 30
0.0
 11
9.99999989007372
 21
-360.1000211404478
 31
0.0
  0
LINE
  5
73F
  8
SIZE
  6
CONTINUOUS
 62
    30
 10
-10.00000000003021
 20
-347.6000211404478
 30
0.0
 11
-20.00000000003022
 21
-347.6000211404478
 31
0.0
  0
LINE
  5
740
  8
SIZE
  6
CONTINUOUS
 62
    30
 10
19.99999989007372
 20
-347.6000211404478
 30
0.0
 11
104.1155985074666
 21
-347.6000211404478
 31
0.0
  0
LINE
  5
741
  8
SIZE
  6
CONTINUOUS
 62
    30
 10
-0.0000000000302163
 20
-347.6000211404478
 30
0.0
 11
9.999999890073722
 21
-347.6000211404478
 31
0.0
  0
CIRCLE
  5
742
  8
SIZE
  6
CONTINUOUS
 62
    30
 10
-0.0000000000302163
 20
-347.6000211404478
 30
0.0
 40
5.0
  0
LINE
  5
743
  8
SIZE
  6
CONTINUOUS
 62
    30
 10
-0.0000000000302163
 20
-347.6000211404478
 30
0.0
 11
-10.00000000003022
 21
-347.6000211404478
 31
0.0
  0
CIRCLE
  5
744
  8
SIZE
  6
CONTINUOUS
 62
    30
 10
9.999999890073722
 20
-347.6000211404478
 30
0.0
 40
5.0
  0
LINE
  5
745
  8
SIZE
  6
CONTINUOUS
 62
    30
 10
9.999999890073722
 20
-347.6000211404478
 30
0.0
 11
19.99999989007372
 21
-347.6000211404478
 31
0.0
  0
TEXT
  5
746
  8
SIZE
  6
CONTINUOUS
 62
    30
 10
45.90131279318093
 20
-337.6000211404478
 30
0.0
 40
30.0
  1
10
 72
     1
 11
76.61559850746664
 21
-337.6000211404478
 31
0.0
  0
POINT
  5
747
  8
DEFPOINTS
  6
CONTINUOUS
 62
    30
 10
-0.000000000030195
 20
-0.000000001660601
 30
0.0
  0
POINT
  5
748
  8
DEFPOINTS
  6
CONTINUOUS
 62
    30
 10
9.999999890073742
 20
-20.00000013577105
 30
0.0
  0
POINT
  5
749
  8
DEFPOINTS
  6
CONTINUOUS
 62
    30
 10
9.999999890073722
 20
-347.6000211404478
 30
0.0
  0
LINE
  5
74A
  8
SIZE
  6
CONTINUOUS
 62
    30
 10
27.99999989007374
 20
-2.000000135771052
 30
0.0
 11
27.99999989007371
 21
-560.1000211404478
 31
0.0
  0
LINE
  5
74B
  8
SIZE
  6
CONTINUOUS
 62
    30
 10
-331.9999943878803
 20
-10.0000000016606
 30
0.0
 11
-331.9999943878803
 21
-560.1000211404478
 31
0.0
  0
LINE
  5
74C
  8
SIZE
  6
CONTINUOUS
 62
    30
 10
17.9999998900737
 20
-547.6000211404478
 30
0.0
 11
-321.9999943878803
 21
-547.6000211404478
 31
0.0
  0
CIRCLE
  5
74D
  8
SIZE
  6
CONTINUOUS
 62
    30
 10
27.99999989007371
 20
-547.6000211404478
 30
0.0
 40
5.0
  0
LINE
  5
74E
  8
SIZE
  6
CONTINUOUS
 62
    30
 10
27.99999989007371
 20
-547.6000211404478
 30
0.0
 11
17.99999989007371
 21
-547.6000211404478
 31
0.0
  0
CIRCLE
  5
74F
  8
SIZE
  6
CONTINUOUS
 62
    30
 10
-331.9999943878803
 20
-547.6000211404478
 30
0.0
 40
5.0
  0
LINE
  5
750
  8
SIZE
  6
CONTINUOUS
 62
    30
 10
-331.9999943878803
 20
-547.6000211404478
 30
0.0
 11
-321.9999943878803
 21
-547.6000211404478
 31
0.0
  0
TEXT
  5
751
  8
SIZE
  6
CONTINUOUS
 62
    30
 10
-194.8571373062192
 20
-537.6000211404478
 30
0.0
 40
30.0
  1
360
 72
     1
 11
-151.9999944490763
 21
-537.6000211404478
 31
0.0
  0
POINT
  5
752
  8
DEFPOINTS
  6
CONTINUOUS
 62
    30
 10
27.99999989007374
 20
7.999999864228947
 30
0.0
  0
POINT
  5
753
  8
DEFPOINTS
  6
CONTINUOUS
 62
    30
 10
-331.9999943878803
 20
-0.000000001660601
 30
0.0
  0
POINT
  5
754
  8
DEFPOINTS
  6
CONTINUOUS
 62
    30
 10
-331.9999943878803
 20
-547.6000211404478
 30
0.0
  0
LINE
  5
755
  8
SIZE
  6
CONTINUOUS
 62
    30
 10
-319.9999943878803
 20
-30.00000013577105
 30
0.0
 11
-319.9999943878803
 21
-460.1000211404477
 31
0.0
  0
LINE
  5
756
  8
SIZE
  6
CONTINUOUS
 62
    30
 10
9.999999890073742
 20
-30.00000013577105
 30
0.0
 11
9.999999890073713
 21
-460.1000211404477
 31
0.0
  0
LINE
  5
757
  8
SIZE
  6
CONTINUOUS
 62
    30
 10
-309.9999943878803
 20
-447.6000211404477
 30
0.0
 11
-0.0000001099262851
 21
-447.6000211404477
 31
0.0
  0
CIRCLE
  5
758
  8
SIZE
  6
CONTINUOUS
 62
    30
 10
-319.9999943878803
 20
-447.6000211404477
 30
0.0
 40
5.0
  0
LINE
  5
759
  8
SIZE
  6
CONTINUOUS
 62
    30
 10
-319.9999943878803
 20
-447.6000211404477
 30
0.0
 11
-309.9999943878803
 21
-447.6000211404477
 31
0.0
  0
CIRCLE
  5
75A
  8
SIZE
  6
CONTINUOUS
 62
    30
 10
9.999999890073713
 20
-447.6000211404477
 30
0.0
 40
5.0
  0
LINE
  5
75B
  8
SIZE
  6
CONTINUOUS
 62
    30
 10
9.999999890073713
 20
-447.6000211404477
 30
0.0
 11
-0.0000001099262869
 21
-447.6000211404477
 31
0.0
  0
TEXT
  5
75C
  8
SIZE
  6
CONTINUOUS
 62
    30
 10
-197.8571373062192
 20
-437.6000211404477
 30
0.0
 40
30.0
  1
330
 72
     1
 11
-154.9999944490763
 21
-437.6000211404477
 31
0.0
  0
POINT
  5
75D
  8
DEFPOINTS
  6
CONTINUOUS
 62
    30
 10
-319.9999943878803
 20
-20.00000013577105
 30
0.0
  0
POINT
  5
75E
  8
DEFPOINTS
  6
CONTINUOUS
 62
    30
 10
9.999999890073742
 20
-20.00000013577105
 30
0.0
  0
POINT
  5
75F
  8
DEFPOINTS
  6
CONTINUOUS
 62
    30
 10
9.999999890073713
 20
-447.6000211404477
 30
0.0
  0
LINE
  5
760
  8
SIZE
  6
CONTINUOUS
 62
    30
 10
-0.0000000000301956
 20
-10.0000000016606
 30
0.0
 11
-0.0000000000302171
 21
-360.1000211404478
 31
0.0
  0
LINE
  5
761
  8
SIZE
  6
CONTINUOUS
 62
    30
 10
-299.9999943878803
 20
-10.0000000016606
 30
0.0
 11
-299.9999943878803
 21
-360.1000211404478
 31
0.0
  0
LINE
  5
762
  8
SIZE
  6
CONTINUOUS
 62
    30
 10
-10.00000000003021
 20
-347.6000211404478
 30
0.0
 11
-289.9999943878803
 21
-347.6000211404478
 31
0.0
  0
CIRCLE
  5
763
  8
SIZE
  6
CONTINUOUS
 62
    30
 10
-0.0000000000302163
 20
-347.6000211404478
 30
0.0
 40
5.0
  0
LINE
  5
764
  8
SIZE
  6
CONTINUOUS
 62
    30
 10
-0.0000000000302163
 20
-347.6000211404478
 30
0.0
 11
-10.00000000003022
 21
-347.6000211404478
 31
0.0
  0
CIRCLE
  5
765
  8
SIZE
  6
CONTINUOUS
 62
    30
 10
-299.9999943878803
 20
-347.6000211404478
 30
0.0
 40
5.0
  0
LINE
  5
766
  8
SIZE
  6
CONTINUOUS
 62
    30
 10
-299.9999943878803
 20
-347.6000211404478
 30
0.0
 11
-289.9999943878803
 21
-347.6000211404478
 31
0.0
  0
TEXT
  5
767
  8
SIZE
  6
CONTINUOUS
 62
    30
 10
-192.8571373062192
 20
-337.6000211404478
 30
0.0
 40
30.0
  1
300
 72
     1
 11
-149.9999944490763
 21
-337.6000211404478
 31
0.0
  0
POINT
  5
768
  8
DEFPOINTS
  6
CONTINUOUS
 62
    30
 10
-0.000000000030195
 20
-0.000000001660601
 30
0.0
  0
POINT
  5
769
  8
DEFPOINTS
  6
CONTINUOUS
 62
    30
 10
-299.9999943878803
 20
-0.000000001660601
 30
0.0
  0
POINT
  5
76A
  8
DEFPOINTS
  6
CONTINUOUS
 62
    30
 10
-299.9999943878803
 20
-347.6000211404478
 30
0.0
  0
LINE
  5
76B
  8
SIZE
  6
CONTINUOUS
 62
    30
 10
9.999999999969804
 20
714.9999788833939
 30
0.0
 11
401.1665949914303
 21
714.9999788833937
 31
0.0
  0
LINE
  5
76C
  8
SIZE
  6
CONTINUOUS
 62
    30
 10
109.9999979827251
 20
814.9999788833939
 30
0.0
 11
401.1665949914303
 21
814.9999788833939
 31
0.0
  0
LINE
  5
76D
  8
SIZE
  6
CONTINUOUS
 62
    30
 10
388.6665949914304
 20
724.9999788833939
 30
0.0
 11
388.6665949914304
 21
804.9999788833937
 31
0.0
  0
CIRCLE
  5
76E
  8
SIZE
  6
CONTINUOUS
 62
    30
 10
388.6665949914304
 20
714.9999788833937
 30
0.0
 40
5.0
  0
LINE
  5
76F
  8
SIZE
  6
CONTINUOUS
 62
    30
 10
388.6665949914304
 20
714.9999788833937
 30
0.0
 11
388.6665949914304
 21
724.9999788833937
 31
0.0
  0
CIRCLE
  5
770
  8
SIZE
  6
CONTINUOUS
 62
    30
 10
388.6665949914304
 20
814.9999788833939
 30
0.0
 40
5.0
  0
LINE
  5
771
  8
SIZE
  6
CONTINUOUS
 62
    30
 10
388.6665949914304
 20
814.9999788833939
 30
0.0
 11
388.6665949914304
 21
804.9999788833939
 31
0.0
  0
TEXT
  5
772
  8
SIZE
  6
CONTINUOUS
 62
    30
 10
378.6665949914303
 20
719.999978761002
 30
0.0
 40
30.0
  1
100
 50
90.0
 72
     1
 11
378.6665949914303
 21
764.999978761002
 31
0.0
  0
POINT
  5
773
  8
DEFPOINTS
  6
CONTINUOUS
 62
    30
 10
-0.000000000030195
 20
714.9999788833939
 30
0.0
  0
POINT
  5
774
  8
DEFPOINTS
  6
CONTINUOUS
 62
    30
 10
99.9999979827251
 20
814.9999788833939
 30
0.0
  0
POINT
  5
775
  8
DEFPOINTS
  6
CONTINUOUS
 62
    30
 10
388.6665949914304
 20
814.9999788833939
 30
0.0
  0
LINE
  5
776
  8
SIZE
  6
CONTINUOUS
 62
    30
 10
109.9999979827251
 20
-0.0000000016606038
 30
0.0
 11
555.8629450890865
 21
-0.0000000016607302
 31
0.0
  0
LINE
  5
777
  8
SIZE
  6
CONTINUOUS
 62
    30
 10
109.9999979827251
 20
814.9999788833939
 30
0.0
 11
555.8629450890867
 21
814.9999788833939
 31
0.0
  0
LINE
  5
778
  8
SIZE
  6
CONTINUOUS
 62
    30
 10
543.3629450890865
 20
9.999999998339273
 30
0.0
 11
543.3629450890867
 21
804.9999788833937
 31
0.0
  0
CIRCLE
  5
779
  8
SIZE
  6
CONTINUOUS
 62
    30
 10
543.3629450890865
 20
-0.0000000016607266
 30
0.0
 40
5.0
  0
LINE
  5
77A
  8
SIZE
  6
CONTINUOUS
 62
    30
 10
543.3629450890865
 20
-0.0000000016607266
 30
0.0
 11
543.3629450890865
 21
9.999999998339273
 31
0.0
  0
CIRCLE
  5
77B
  8
SIZE
  6
CONTINUOUS
 62
    30
 10
543.3629450890867
 20
814.9999788833939
 30
0.0
 40
5.0
  0
LINE
  5
77C
  8
SIZE
  6
CONTINUOUS
 62
    30
 10
543.3629450890867
 20
814.9999788833939
 30
0.0
 11
543.3629450890867
 21
804.9999788833939
 31
0.0
  0
TEXT
  5
77D
  8
SIZE
  6
CONTINUOUS
 62
    30
 10
533.3629450890865
 20
364.6428664214372
 30
0.0
 40
30.0
  1
815
 50
90.0
 72
     1
 11
533.3629450890865
 21
407.5000092785801
 31
0.0
  0
POINT
  5
77E
  8
DEFPOINTS
  6
CONTINUOUS
 62
    30
 10
99.9999979827251
 20
-0.000000001660601
 30
0.0
  0
POINT
  5
77F
  8
DEFPOINTS
  6
CONTINUOUS
 62
    30
 10
99.9999979827251
 20
814.9999788833939
 30
0.0
  0
POINT
  5
780
  8
DEFPOINTS
  6
CONTINUOUS
 62
    30
 10
543.3629450890867
 20
814.9999788833939
 30
0.0
  0
LINE
  5
781
  8
SIZE
  6
CONTINUOUS
 62
    30
 10
109.9999979827251
 20
-0.0000000016606038
 30
0.0
 11
401.1665949914302
 21
-0.0000000016606863
 31
0.0
  0
LINE
  5
782
  8
SIZE
  6
CONTINUOUS
 62
    30
 10
9.999999999969804
 20
714.9999788833939
 30
0.0
 11
401.1665949914304
 21
714.9999788833937
 31
0.0
  0
LINE
  5
783
  8
SIZE
  6
CONTINUOUS
 62
    30
 10
388.6665949914303
 20
9.999999998339316
 30
0.0
 11
388.6665949914304
 21
704.9999788833939
 31
0.0
  0
CIRCLE
  5
784
  8
SIZE
  6
CONTINUOUS
 62
    30
 10
388.6665949914303
 20
-0.0000000016606828
 30
0.0
 40
5.0
  0
LINE
  5
785
  8
SIZE
  6
CONTINUOUS
 62
    30
 10
388.6665949914303
 20
-0.0000000016606828
 30
0.0
 11
388.6665949914303
 21
9.999999998339318
 31
0.0
  0
CIRCLE
  5
786
  8
SIZE
  6
CONTINUOUS
 62
    30
 10
388.6665949914304
 20
714.9999788833937
 30
0.0
 40
5.0
  0
LINE
  5
787
  8
SIZE
  6
CONTINUOUS
 62
    30
 10
388.6665949914304
 20
714.9999788833937
 30
0.0
 11
388.6665949914304
 21
704.9999788833937
 31
0.0
  0
TEXT
  5
788
  8
SIZE
  6
CONTINUOUS
 62
    30
 10
378.6665949914303
 20
314.6428664214372
 30
0.0
 40
30.0
  1
715
 50
90.0
 72
     1
 11
378.6665949914303
 21
357.5000092785801
 31
0.0
  0
POINT
  5
789
  8
DEFPOINTS
  6
CONTINUOUS
 62
    30
 10
99.9999979827251
 20
-0.000000001660601
 30
0.0
  0
POINT
  5
78A
  8
DEFPOINTS
  6
CONTINUOUS
 62
    30
 10
-0.000000000030195
 20
714.9999788833939
 30
0.0
  0
POINT
  5
78B
  8
DEFPOINTS
  6
CONTINUOUS
 62
    30
 10
388.6665949914304
 20
714.9999788833937
 30
0.0
  0
LINE
  5
78C
  8
SIZE
  6
CONTINUOUS
 62
    30
 10
-299.9999943878803
 20
824.9999788833939
 30
0.0
 11
-299.9999943878803
 21
930.8999788595521
 31
0.0
  0
LINE
  5
78D
  8
SIZE
  6
CONTINUOUS
 62
    30
 10
-319.9999943878803
 20
639.9999788833939
 30
0.0
 11
-319.9999943878803
 21
930.8999788595521
 31
0.0
  0
LINE
  5
78E
  8
SIZE
  6
CONTINUOUS
 62
    30
 10
-289.9999943878803
 20
918.3999788595521
 30
0.0
 11
-279.9999943878803
 21
918.3999788595521
 31
0.0
  0
LINE
  5
78F
  8
SIZE
  6
CONTINUOUS
 62
    30
 10
-329.9999943878803
 20
918.3999788595521
 30
0.0
 11
-408.1859380525918
 21
918.3999788595521
 31
0.0
  0
LINE
  5
790
  8
SIZE
  6
CONTINUOUS
 62
    30
 10
-299.9999943878803
 20
918.3999788595521
 30
0.0
 11
-319.9999943878803
 21
918.3999788595521
 31
0.0
  0
CIRCLE
  5
791
  8
SIZE
  6
CONTINUOUS
 62
    30
 10
-299.9999943878803
 20
918.3999788595521
 30
0.0
 40
5.0
  0
LINE
  5
792
  8
SIZE
  6
CONTINUOUS
 62
    30
 10
-299.9999943878803
 20
918.3999788595521
 30
0.0
 11
-289.9999943878803
 21
918.3999788595521
 31
0.0
  0
CIRCLE
  5
793
  8
SIZE
  6
CONTINUOUS
 62
    30
 10
-319.9999943878803
 20
918.3999788595521
 30
0.0
 40
5.0
  0
LINE
  5
794
  8
SIZE
  6
CONTINUOUS
 62
    30
 10
-319.9999943878803
 20
918.3999788595521
 30
0.0
 11
-329.9999943878803
 21
918.3999788595521
 31
0.0
  0
TEXT
  5
795
  8
SIZE
  6
CONTINUOUS
 62
    30
 10
-404.2573666240204
 20
928.3999788595521
 30
0.0
 40
30.0
  1
20
 72
     1
 11
-375.6859380525919
 21
928.3999788595521
 31
0.0
  0
POINT
  5
796
  8
DEFPOINTS
  6
CONTINUOUS
 62
    30
 10
-299.9999943878803
 20
814.9999788833939
 30
0.0
  0
POINT
  5
797
  8
DEFPOINTS
  6
CONTINUOUS
 62
    30
 10
-319.9999943878803
 20
629.999978883394
 30
0.0
  0
POINT
  5
798
  8
DEFPOINTS
  6
CONTINUOUS
 62
    30
 10
-319.9999943878803
 20
918.3999788595521
 30
0.0
  0
LINE
  5
799
  8
SIZE
  6
CONTINUOUS
 62
    30
 10
-509.9999943878803
 20
-0.0000000016605982
 30
0.0
 11
-635.8828434851323
 21
-0.0000000016605625
 31
0.0
  0
LINE
  5
79A
  8
SIZE
  6
CONTINUOUS
 62
    30
 10
-379.9999943878803
 20
406.000009400972
 30
0.0
 11
-635.8828434851322
 21
406.0000094009721
 31
0.0
  0
LINE
  5
79B
  8
SIZE
  6
CONTINUOUS
 62
    30
 10
-623.3828434851323
 20
9.999999998339435
 30
0.0
 11
-623.3828434851322
 21
396.0000094009721
 31
0.0
  0
CIRCLE
  5
79C
  8
SIZE
  6
CONTINUOUS
 62
    30
 10
-623.3828434851323
 20
-0.0000000016605661
 30
0.0
 40
5.0
  0
LINE
  5
79D
  8
SIZE
  6
CONTINUOUS
 62
    30
 10
-623.3828434851323
 20
-0.0000000016605661
 30
0.0
 11
-623.3828434851323
 21
9.999999998339435
 31
0.0
  0
CIRCLE
  5
79E
  8
SIZE
  6
CONTINUOUS
 62
    30
 10
-623.3828434851322
 20
406.0000094009721
 30
0.0
 40
5.0
  0
LINE
  5
79F
  8
SIZE
  6
CONTINUOUS
 62
    30
 10
-623.3828434851322
 20
406.0000094009721
 30
0.0
 11
-623.3828434851322
 21
396.0000094009721
 31
0.0
  0
TEXT
  5
7A0
  8
SIZE
  6
CONTINUOUS
 62
    30
 10
-633.3828434851323
 20
160.1428511626483
 30
0.0
 40
30.0
  1
406
 50
90.0
 72
     1
 11
-633.3828434851323
 21
202.9999940197912
 31
0.0
  0
POINT
  5
7A1
  8
DEFPOINTS
  6
CONTINUOUS
 62
    30
 10
-499.9999943878803
 20
-0.000000001660601
 30
0.0
  0
POINT
  5
7A2
  8
DEFPOINTS
  6
CONTINUOUS
 62
    30
 10
-369.9999943878803
 20
406.000009400972
 30
0.0
  0
POINT
  5
7A3
  8
DEFPOINTS
  6
CONTINUOUS
 62
    30
 10
-623.3828434851322
 20
406.0000094009721
 30
0.0
  0
LINE
  5
7A4
  8
SIZE
  6
CONTINUOUS
 62
    30
 10
-509.9999943878803
 20
-0.0000000016605982
 30
0.0
 11
-770.1541447546637
 21
-0.0000000016605245
 31
0.0
  0
LINE
  5
7A5
  8
SIZE
  6
CONTINUOUS
 62
    30
 10
-509.9999943878803
 20
814.9999788833939
 30
0.0
 11
-770.1541447546633
 21
814.9999788833941
 31
0.0
  0
LINE
  5
7A6
  8
SIZE
  6
CONTINUOUS
 62
    30
 10
-757.6541447546637
 20
9.999999998339474
 30
0.0
 11
-757.6541447546633
 21
804.999978883394
 31
0.0
  0
CIRCLE
  5
7A7
  8
SIZE
  6
CONTINUOUS
 62
    30
 10
-757.6541447546637
 20
-0.000000001660528
 30
0.0
 40
5.0
  0
LINE
  5
7A8
  8
SIZE
  6
CONTINUOUS
 62
    30
 10
-757.6541447546637
 20
-0.000000001660528
 30
0.0
 11
-757.6541447546637
 21
9.999999998339472
 31
0.0
  0
CIRCLE
  5
7A9
  8
SIZE
  6
CONTINUOUS
 62
    30
 10
-757.6541447546633
 20
814.9999788833939
 30
0.0
 40
5.0
  0
LINE
  5
7AA
  8
SIZE
  6
CONTINUOUS
 62
    30
 10
-757.6541447546633
 20
814.9999788833939
 30
0.0
 11
-757.6541447546633
 21
804.9999788833939
 31
0.0
  0
TEXT
  5
7AB
  8
SIZE
  6
CONTINUOUS
 62
    30
 10
-767.6541447546637
 20
364.6428664214372
 30
0.0
 40
30.0
  1
815
 50
90.0
 72
     1
 11
-767.6541447546637
 21
407.5000092785801
 31
0.0
  0
POINT
  5
7AC
  8
DEFPOINTS
  6
CONTINUOUS
 62
    30
 10
-499.9999943878803
 20
-0.000000001660601
 30
0.0
  0
POINT
  5
7AD
  8
DEFPOINTS
  6
CONTINUOUS
 62
    30
 10
-499.9999943878803
 20
814.9999788833939
 30
0.0
  0
POINT
  5
7AE
  8
DEFPOINTS
  6
CONTINUOUS
 62
    30
 10
-757.6541447546633
 20
814.9999788833939
 30
0.0
  0
LINE
  5
7AF
  8
SIZE
  6
CONTINUOUS
 62
    30
 10
-299.9999943878803
 20
824.9999788833939
 30
0.0
 11
-299.9999943878803
 21
1079.899978859552
 31
0.0
  0
LINE
  5
7B0
  8
SIZE
  6
CONTINUOUS
 62
    30
 10
-0.0000000000301944
 20
824.9999788833939
 30
0.0
 11
-0.0000000000301788
 21
1079.899978859552
 31
0.0
  0
LINE
  5
7B1
  8
SIZE
  6
CONTINUOUS
 62
    30
 10
-289.9999943878803
 20
1067.399978859552
 30
0.0
 11
-10.00000000003018
 21
1067.399978859552
 31
0.0
  0
CIRCLE
  5
7B2
  8
SIZE
  6
CONTINUOUS
 62
    30
 10
-299.9999943878803
 20
1067.399978859552
 30
0.0
 40
5.0
  0
LINE
  5
7B3
  8
SIZE
  6
CONTINUOUS
 62
    30
 10
-299.9999943878803
 20
1067.399978859552
 30
0.0
 11
-289.9999943878803
 21
1067.399978859552
 31
0.0
  0
CIRCLE
  5
7B4
  8
SIZE
  6
CONTINUOUS
 62
    30
 10
-0.0000000000301796
 20
1067.399978859552
 30
0.0
 40
5.0
  0
LINE
  5
7B5
  8
SIZE
  6
CONTINUOUS
 62
    30
 10
-0.0000000000301796
 20
1067.399978859552
 30
0.0
 11
-10.00000000003018
 21
1067.399978859552
 31
0.0
  0
TEXT
  5
7B6
  8
SIZE
  6
CONTINUOUS
 62
    30
 10
-192.8571373062192
 20
1077.399978859552
 30
0.0
 40
30.0
  1
300
 72
     1
 11
-149.9999944490763
 21
1077.399978859552
 31
0.0
  0
POINT
  5
7B7
  8
DEFPOINTS
  6
CONTINUOUS
 62
    30
 10
-299.9999943878803
 20
814.9999788833939
 30
0.0
  0
POINT
  5
7B8
  8
DEFPOINTS
  6
CONTINUOUS
 62
    30
 10
-0.000000000030195
 20
814.9999788833939
 30
0.0
  0
POINT
  5
7B9
  8
DEFPOINTS
  6
CONTINUOUS
 62
    30
 10
-0.0000000000301796
 20
1067.399978859552
 30
0.0
  0
LINE
  5
7BA
  8
SIZE
  6
CONTINUOUS
 62
    30
 10
-341.9999943878803
 20
7.99999986422895
 30
0.0
 11
-414.8999943640385
 21
7.999999864228971
 31
0.0
  0
LINE
  5
7BB
  8
SIZE
  6
CONTINUOUS
 62
    30
 10
-341.9999943878803
 20
-0.0000000016605982
 30
0.0
 11
-414.8999943640385
 21
-0.0000000016605775
 31
0.0
  0
LINE
  5
7BC
  8
SIZE
  6
CONTINUOUS
 62
    30
 10
-402.3999943640385
 20
-10.00000000166058
 30
0.0
 11
-402.3999943640385
 21
-20.00000000166058
 31
0.0
  0
LINE
  5
7BD
  8
SIZE
  6
CONTINUOUS
 62
    30
 10
-402.3999943640385
 20
17.99999986422896
 30
0.0
 11
-402.3999943640385
 21
79.36467144899046
 31
0.0
  0
LINE
  5
7BE
  8
SIZE
  6
CONTINUOUS
 62
    30
 10
-402.3999943640385
 20
-0.0000000016605811
 30
0.0
 11
-402.3999943640385
 21
7.999999864228968
 31
0.0
  0
CIRCLE
  5
7BF
  8
SIZE
  6
CONTINUOUS
 62
    30
 10
-402.3999943640385
 20
-0.0000000016605811
 30
0.0
 40
5.0
  0
LINE
  5
7C0
  8
SIZE
  6
CONTINUOUS
 62
    30
 10
-402.3999943640385
 20
-0.0000000016605811
 30
0.0
 11
-402.3999943640385
 21
-10.00000000166058
 31
0.0
  0
CIRCLE
  5
7C1
  8
SIZE
  6
CONTINUOUS
 62
    30
 10
-402.3999943640385
 20
7.999999864228968
 30
0.0
 40
5.0
  0
LINE
  5
7C2
  8
SIZE
  6
CONTINUOUS
 62
    30
 10
-402.3999943640385
 20
7.999999864228968
 30
0.0
 11
-402.3999943640385
 21
17.99999986422897
 31
0.0
  0
TEXT
  5
7C3
  8
SIZE
  6
CONTINUOUS
 62
    30
 10
-412.3999943640385
 20
45.07895716327611
 30
0.0
 40
30.0
  1
8
 50
90.0
 72
     1
 11
-412.3999943640385
 21
59.36467144899039
 31
0.0
  0
POINT
  5
7C4
  8
DEFPOINTS
  6
CONTINUOUS
 62
    30
 10
-331.9999943878803
 20
7.999999864228947
 30
0.0
  0
POINT
  5
7C5
  8
DEFPOINTS
  6
CONTINUOUS
 62
    30
 10
-331.9999943878803
 20
-0.000000001660601
 30
0.0
  0
POINT
  5
7C6
  8
DEFPOINTS
  6
CONTINUOUS
 62
    30
 10
-402.3999943640385
 20
-0.0000000016605811
 30
0.0
  0
LINE
  5
7C7
  8
SIZE
  6
CONTINUOUS
 62
    30
 10
99.9999979827251
 20
824.9999788833939
 30
0.0
 11
99.99999798272512
 21
1079.899978859552
 31
0.0
  0
LINE
  5
7C8
  8
SIZE
  6
CONTINUOUS
 62
    30
 10
-0.0000000000301944
 20
824.9999788833939
 30
0.0
 11
-0.0000000000301788
 21
1079.899978859552
 31
0.0
  0
LINE
  5
7C9
  8
SIZE
  6
CONTINUOUS
 62
    30
 10
89.99999798272512
 20
1067.399978859552
 30
0.0
 11
9.99999999996982
 21
1067.399978859552
 31
0.0
  0
CIRCLE
  5
7CA
  8
SIZE
  6
CONTINUOUS
 62
    30
 10
99.99999798272512
 20
1067.399978859552
 30
0.0
 40
5.0
  0
LINE
  5
7CB
  8
SIZE
  6
CONTINUOUS
 62
    30
 10
99.99999798272512
 20
1067.399978859552
 30
0.0
 11
89.99999798272512
 21
1067.399978859552
 31
0.0
  0
CIRCLE
  5
7CC
  8
SIZE
  6
CONTINUOUS
 62
    30
 10
-0.0000000000301796
 20
1067.399978859552
 30
0.0
 40
5.0
  0
LINE
  5
7CD
  8
SIZE
  6
CONTINUOUS
 62
    30
 10
-0.0000000000301796
 20
1067.399978859552
 30
0.0
 11
9.99999999996982
 21
1067.399978859552
 31
0.0
  0
TEXT
  5
7CE
  8
SIZE
  6
CONTINUOUS
 62
    30
 10
4.999997921529157
 20
1077.399978859552
 30
0.0
 40
30.0
  1
100
 72
     1
 11
49.99999792152916
 21
1077.399978859552
 31
0.0
  0
POINT
  5
7CF
  8
DEFPOINTS
  6
CONTINUOUS
 62
    30
 10
99.9999979827251
 20
814.9999788833939
 30
0.0
  0
POINT
  5
7D0
  8
DEFPOINTS
  6
CONTINUOUS
 62
    30
 10
-0.000000000030195
 20
814.9999788833939
 30
0.0
  0
POINT
  5
7D1
  8
DEFPOINTS
  6
CONTINUOUS
 62
    30
 10
-0.0000000000301796
 20
1067.399978859552
 30
0.0
  0
LINE
  5
7D2
  8
SIZE
  6
CONTINUOUS
 62
    30
 10
-299.9999943878803
 20
824.9999788833939
 30
0.0
 11
-299.9999943878803
 21
1079.899978859552
 31
0.0
  0
LINE
  5
7D3
  8
SIZE
  6
CONTINUOUS
 62
    30
 10
-499.9999943878803
 20
824.9999788833939
 30
0.0
 11
-499.9999943878803
 21
1079.899978859552
 31
0.0
  0
LINE
  5
7D4
  8
SIZE
  6
CONTINUOUS
 62
    30
 10
-309.9999943878803
 20
1067.399978859552
 30
0.0
 11
-489.9999943878803
 21
1067.399978859552
 31
0.0
  0
CIRCLE
  5
7D5
  8
SIZE
  6
CONTINUOUS
 62
    30
 10
-299.9999943878803
 20
1067.399978859552
 30
0.0
 40
5.0
  0
LINE
  5
7D6
  8
SIZE
  6
CONTINUOUS
 62
    30
 10
-299.9999943878803
 20
1067.399978859552
 30
0.0
 11
-309.9999943878803
 21
1067.399978859552
 31
0.0
  0
CIRCLE
  5
7D7
  8
SIZE
  6
CONTINUOUS
 62
    30
 10
-499.9999943878803
 20
1067.399978859552
 30
0.0
 40
5.0
  0
LINE
  5
7D8
  8
SIZE
  6
CONTINUOUS
 62
    30
 10
-499.9999943878803
 20
1067.399978859552
 30
0.0
 11
-489.9999943878803
 21
1067.399978859552
 31
0.0
  0
TEXT
  5
7D9
  8
SIZE
  6
CONTINUOUS
 62
    30
 10
-442.8571373062191
 20
1077.399978859552
 30
0.0
 40
30.0
  1
200
 72
     1
 11
-399.9999944490763
 21
1077.399978859552
 31
0.0
  0
POINT
  5
7DA
  8
DEFPOINTS
  6
CONTINUOUS
 62
    30
 10
-299.9999943878803
 20
814.9999788833939
 30
0.0
  0
POINT
  5
7DB
  8
DEFPOINTS
  6
CONTINUOUS
 62
    30
 10
-499.9999943878803
 20
814.9999788833939
 30
0.0
  0
POINT
  5
7DC
  8
DEFPOINTS
  6
CONTINUOUS
 62
    30
 10
-499.9999943878803
 20
1067.399978859552
 30
0.0
  0
LINE
  5
7DD
  8
SIZE
  6
CONTINUOUS
 62
    30
 10
0.0000017974223746
 20
719.999978883394
 30
0.0
 11
0.0000017974223875
 21
929.8999788595521
 31
0.0
  0
LINE
  5
7DE
  8
SIZE
  6
CONTINUOUS
 62
    30
 10
15.99999989007374
 20
684.9999788833939
 30
0.0
 11
15.99999989007376
 21
929.8999788595521
 31
0.0
  0
LINE
  5
7DF
  8
SIZE
  6
CONTINUOUS
 62
    30
 10
25.99999989007376
 20
917.3999788595521
 30
0.0
 11
35.99999989007376
 21
917.3999788595521
 31
0.0
  0
LINE
  5
7E0
  8
SIZE
  6
CONTINUOUS
 62
    30
 10
-9.99999820257761
 20
917.3999788595521
 30
0.0
 11
-97.14232080405681
 21
917.3999788595521
 31
0.0
  0
LINE
  5
7E1
  8
SIZE
  6
CONTINUOUS
 62
    30
 10
15.99999989007375
 20
917.3999788595521
 30
0.0
 11
0.0000017974223867
 21
917.3999788595521
 31
0.0
  0
CIRCLE
  5
7E2
  8
SIZE
  6
CONTINUOUS
 62
    30
 10
15.99999989007375
 20
917.3999788595521
 30
0.0
 40
5.0
  0
LINE
  5
7E3
  8
SIZE
  6
CONTINUOUS
 62
    30
 10
15.99999989007375
 20
917.3999788595521
 30
0.0
 11
25.99999989007375
 21
917.3999788595521
 31
0.0
  0
CIRCLE
  5
7E4
  8
SIZE
  6
CONTINUOUS
 62
    30
 10
0.0000017974223867
 20
917.3999788595521
 30
0.0
 40
5.0
  0
LINE
  5
7E5
  8
SIZE
  6
CONTINUOUS
 62
    30
 10
0.0000017974223867
 20
917.3999788595521
 30
0.0
 11
-9.999998202577613
 21
917.3999788595521
 31
0.0
  0
TEXT
  5
7E6
  8
SIZE
  6
CONTINUOUS
 62
    30
 10
-97.85660651834252
 20
927.3999788595521
 30
0.0
 40
30.0
  1
16
 72
     1
 11
-67.1423208040568
 21
927.3999788595521
 31
0.0
  0
POINT
  5
7E7
  8
DEFPOINTS
  6
CONTINUOUS
 62
    30
 10
0.000001797422374
 20
709.9999788833939
 30
0.0
  0
POINT
  5
7E8
  8
DEFPOINTS
  6
CONTINUOUS
 62
    30
 10
15.99999989007374
 20
674.999978883394
 30
0.0
  0
POINT
  5
7E9
  8
DEFPOINTS
  6
CONTINUOUS
 62
    30
 10
15.99999989007375
 20
917.3999788595521
 30
0.0
  0
TEXT
  5
7EA
  8
NOTE
  6
CONTINUOUS
 10
-699.618829837099
 20
244.953592164644
 30
0.0
 40
40.0
  1
メンテナンススペース
 50
90.00000500895634
 41
0.84375
  7
STANDARD1
  0
TEXT
  5
7EB
  8
NOTE
  6
CONTINUOUS
 10
-591.1296330597554
 20
1029.996560914644
 30
0.0
 40
28.0
  1
メンテナンススペース
 50
0.0000024148365395
 41
0.843750011353266
  7
STANDARD1
  0
TEXT
  5
7EC
  8
NOTE
  6
CONTINUOUS
 10
5.94940746758839
 20
1031.437234742769
 30
0.0
 40
28.0
  1
メンテナンススペース
 50
0.0000024148365395
 41
0.843750011353266
  7
STANDARD1
  0
TEXT
  5
7ED
  8
NOTE
  6
CONTINUOUS
 10
599.2587946746196
 20
230.0711306167925
 30
0.0
 40
40.0
  1
メンテナンススペース
 50
90.00000500895634
 41
0.84375
  7
STANDARD1
  0
TEXT
  5
7EE
  8
NOTE
  6
CONTINUOUS
 10
-297.8604375031147
 20
1029.448465211519
 30
0.0
 40
28.0
  1
メンテナンススペース
 50
0.0000024148365395
 41
0.843750011353266
  7
STANDARD1
  0
TEXT
  5
7EF
  8
NOTE
  6
CONTINUOUS
 10
517.7377985808696
 20
597.9097078873002
 30
0.0
 40
40.0
  1
メンテナンススペース
 50
90.00000500895634
 41
0.84375
  7
STANDARD1
  0
LINE
  5
7F0
  8
NOTE
  6
CONTINUOUS
 10
-558.2499943878804
 20
-149.9999905990279
 30
0.0
 11
-399.9999943878803
 21
-149.9999905990279
 31
0.0
  0
LINE
  5
7F1
  8
NOTE
  6
CONTINUOUS
 10
-399.9999943878803
 20
-149.9999905990279
 30
0.0
 11
-319.9999943878803
 21
0.000000005789979
 31
0.0
  0
LINE
  5
7F2
  8
NOTE
  6
CONTINUOUS
 10
-319.9999943878803
 20
0.000000005789979
 30
0.0
 11
-320.4523615930338
 21
-1.948169368700266
 31
0.0
  0
LINE
  5
7F3
  8
NOTE
  6
CONTINUOUS
 10
-319.9999943878803
 20
0.000000005789979
 30
0.0
 11
-321.3658405879145
 21
-1.460980540915708
 31
0.0
  0
TEXT
  5
7F4
  8
NOTE
  6
CONTINUOUS
 10
-558.2499943878804
 20
-148.9999905990279
 30
0.0
 40
40.0
  1
4-AH
 50
359.9999957311318
 41
0.6125000238418579
  7
STANDARD1
  0
LINE
  5
7F5
  8
NOTE
  6
CONTINUOUS
 10
-319.9999999999999
 20
-19.99999999999999
 30
0.0
 11
-319.9999999999999
 21
20.0
 31
0.0
  0
LINE
  5
7F6
  8
NOTE
  6
CONTINUOUS
 10
-339.9999999999999
 20
0.000000000000002
 30
0.0
 11
-299.9999999999999
 21
-0.000000000000003
 31
0.0
  0
LINE
  5
7F7
  8
NOTE
  6
CONTINUOUS
 10
754.2500056121196
 20
-449.9999905990279
 30
0.0
 11
204.9999903533306
 21
-449.9999905990279
 31
0.0
  0
LINE
  5
7F8
  8
NOTE
  6
CONTINUOUS
 10
204.9999903533306
 20
-449.9999905990279
 30
0.0
 11
-156.0000096466694
 21
127.0000322891557
 31
0.0
  0
LINE
  5
7F9
  8
NOTE
  6
CONTINUOUS
 10
-156.0000096466694
 20
127.0000322891557
 30
0.0
 11
-154.5365370519239
 21
125.6368565981939
 31
0.0
  0
LINE
  5
7FA
  8
NOTE
  6
CONTINUOUS
 10
-156.0000096466694
 20
127.0000322891557
 30
0.0
 11
-155.4141930752212
 21
125.0877512050531
 31
0.0
  0
TEXT
  5
7FB
  8
NOTE
  6
CONTINUOUS
 10
265.7500056121196
 20
-398.9999905990279
 30
0.0
 40
40.0
  1
ﾋｰﾄﾎﾟﾝﾌﾟﾕﾆｯﾄ配管口(A)
 50
359.9999957311318
 41
0.8858695911324542
  7
STANDARD1
  0
TEXT
  5
7FC
  8
NOTE
  6
CONTINUOUS
 10
265.7500056121196
 20
-448.9999905990279
 30
0.0
 40
40.0
  1
R1/2(φ21.7)
 50
359.9999956465915
 41
0.6372768070016589
  7
STANDARD1
  0
LINE
  5
7FD
  8
NOTE
  6
CONTINUOUS
 10
-155.9999999999998
 20
107.0
 30
0.0
 11
-155.9999999999998
 21
147.0
 31
0.0
  0
LINE
  5
7FE
  8
NOTE
  6
CONTINUOUS
 10
-135.9999999999998
 20
127.0
 30
0.0
 11
-175.9999999999998
 21
127.0
 31
0.0
  0
LINE
  5
7FF
  8
NOTE
  6
CONTINUOUS
 10
764.2500056121196
 20
-199.9999905990279
 30
0.0
 11
214.9999903533306
 21
-199.9999905990279
 31
0.0
  0
LINE
  5
800
  8
NOTE
  6
CONTINUOUS
 10
214.9999903533306
 20
-199.9999905990279
 30
0.0
 11
-168.0000096466694
 21
207.0000399185502
 31
0.0
  0
LINE
  5
801
  8
NOTE
  6
CONTINUOUS
 10
-168.0000096466694
 20
207.0000399185502
 30
0.0
 11
-166.2991233353066
 21
205.9479060127098
 31
0.0
  0
LINE
  5
802
  8
NOTE
  6
CONTINUOUS
 10
-168.0000096466694
 20
207.0000399185502
 30
0.0
 11
-167.0530658706678
 21
205.2384220584308
 31
0.0
  0
TEXT
  5
803
  8
NOTE
  6
CONTINUOUS
 10
275.7500056121197
 20
-148.9999905990279
 30
0.0
 40
40.0
  1
ﾋｰﾄﾎﾟﾝﾌﾟﾕﾆｯﾄ配管口(B)
 50
359.9999957311318
 41
0.8858695911324542
  7
STANDARD1
  0
TEXT
  5
804
  8
NOTE
  6
CONTINUOUS
 10
275.7500056121197
 20
-198.9999905990279
 30
0.0
 40
40.0
  1
R1/2(φ21.7)
 50
359.9999956465915
 41
0.6372768070016589
  7
STANDARD1
  0
LINE
  5
805
  8
NOTE
  6
CONTINUOUS
 10
-167.9999999999998
 20
186.9999999999999
 30
0.0
 11
-167.9999999999998
 21
227.0
 31
0.0
  0
LINE
  5
806
  8
NOTE
  6
CONTINUOUS
 10
-147.9999999999998
 20
207.0
 30
0.0
 11
-187.9999999999998
 21
207.0
 31
0.0
  0
LINE
  5
807
  8
NOTE
  6
CONTINUOUS
 10
10.00000000000011
 20
-19.99999999999999
 30
0.0
 11
10.00000000000011
 21
20.0
 31
0.0
  0
LINE
  5
808
  8
NOTE
  6
CONTINUOUS
 10
30.00000000000012
 20
0.0
 30
0.0
 11
-9.99999999999988
 21
0.0
 31
0.0
  0
LINE
  5
809
  8
NOTE
  6
CONTINUOUS
 10
-48.1999999999999
 20
-81.99999999999999
 30
0.0
 11
-48.1999999999999
 21
-42.00000000000001
 31
0.0
  0
LINE
  5
80A
  8
NOTE
  6
CONTINUOUS
 10
-68.19999999999989
 20
-62.00000000000001
 30
0.0
 11
-28.1999999999999
 21
-62.00000000000001
 31
0.0
  0
LINE
  5
80B
  8
NOTE
  6
CONTINUOUS
 10
459.746435055479
 20
-345.9999905990279
 30
0.0
 11
211.996435055479
 21
-345.9999905990279
 31
0.0
  0
LINE
  5
80C
  8
NOTE
  6
CONTINUOUS
 10
211.996435055479
 20
-345.9999905990279
 30
0.0
 11
-48.19999896551708
 21
-61.99999822842241
 31
0.0
  0
LINE
  5
80D
  8
NOTE
  6
CONTINUOUS
 10
-48.19999896551708
 20
-61.99999822842241
 30
0.0
 11
-46.51330166564716
 21
-63.07473178545482
 31
0.0
  0
LINE
  5
80E
  8
NOTE
  6
CONTINUOUS
 10
-48.19999896551708
 20
-61.99999822842241
 30
0.0
 11
-47.27664305970068
 21
-63.77409345450076
 31
0.0
  0
TEXT
  5
80F
  8
NOTE
  6
CONTINUOUS
 10
272.746435055479
 20
-344.9999905990279
 30
0.0
 40
39.99999999999999
  1
D φ26.5
 50
0.0000025613209388
 41
0.689338256331051
  7
STANDARD1
  0
CIRCLE
  5
810
  8
ARRANGE
  6
CONTINUOUS
 10
0.0
 20
0.0
 30
0.0
 40
15.0
  0
CIRCLE
  5
811
  8
FIX
  6
CONTINUOUS
 10
-319.9999999999999
 20
0.0
 30
0.0
 40
5.0
  0
CIRCLE
  5
812
  8
FIX
  6
CONTINUOUS
 10
10.00000000000011
 20
0.0
 30
0.0
 40
5.0
  0
LINE
  5
813
  8
SERVICESPACE
  6
DASHDOT
 10
-499.9999999999998
 20
815.0000000000001
 30
0.0
 11
-300.0
 21
0.000000000000001
 31
0.0
  0
LINE
  5
814
  8
SERVICESPACE
  6
DASHDOT
 10
-300.0
 20
815.0000000000001
 30
0.0
 11
-499.9999999999998
 21
0.000000000000001
 31
0.0
  0
LINE
  5
815
  8
SERVICESPACE
  6
DASHDOT
 10
0.0
 20
0.000000000000022
 30
0.0
 11
100.0
 21
815.0000000000001
 31
0.0
  0
LINE
  5
816
  8
SERVICESPACE
  6
DASHDOT
 10
-0.000000000000011
 20
815.0000000000001
 30
0.0
 11
100.0
 21
0.000000000000001
 31
0.0
  0
LINE
  5
817
  8
SERVICESPACE
  6
DASHDOT
 10
-300.0
 20
815.0000000000001
 30
0.0
 11
0.0
 21
715.0000000000001
 31
0.0
  0
LINE
  5
818
  8
SERVICESPACE
  6
DASHDOT
 10
-300.0
 20
715.0000000000001
 30
0.0
 11
0.000000000000003
 21
815.0000000000001
 31
0.0
  0
LINE
  5
819
  8
SERVICESPACE
  6
DASHDOT
 10
100.0
 20
815.0000000000001
 30
0.0
 11
-499.9999999999998
 21
815.0000000000001
 31
0.0
  0
LINE
  5
81A
  8
SERVICESPACE
  6
DASHDOT
 10
-300.0
 20
0.000000000000001
 30
0.0
 11
-499.9999999999998
 21
0.000000000000001
 31
0.0
  0
LINE
  5
81B
  8
SERVICESPACE
  6
DASHDOT
 10
-499.9999999999999
 20
815.0000000000001
 30
0.0
 11
-499.9999999999998
 21
0.000000000000001
 31
0.0
  0
LINE
  5
81C
  8
SERVICESPACE
  6
DASHDOT
 10
0.0
 20
815.0000000000001
 30
0.0
 11
0.0
 21
0.000000000000001
 31
0.0
  0
LINE
  5
81D
  8
SERVICESPACE
  6
DASHDOT
 10
99.99999999999997
 20
0.000000000000001
 30
0.0
 11
0.0
 21
0.000000000000001
 31
0.0
  0
LINE
  5
81E
  8
SERVICESPACE
  6
DASHDOT
 10
0.0
 20
715.0000000000001
 30
0.0
 11
-300.0
 21
715.0000000000001
 31
0.0
  0
LINE
  5
81F
  8
SERVICESPACE
  6
DASHDOT
 10
100.0
 20
0.000000000000001
 30
0.0
 11
100.0
 21
815.0000000000001
 31
0.0
  0
LINE
  5
820
  8
SERVICESPACE
  6
DASHDOT
 10
-300.0
 20
0.000000000000001
 30
0.0
 11
-300.0
 21
815.0000000000001
 31
0.0
  0
TEXT
  5
821
  8
ETC
  6
CONTINUOUS
 10
499.2639216277446
 20
1111.324441774019
 30
0.0
 40
39.99999999999999
  1
TLUK454
 50
0.0000024148365395
 41
0.612500023841858
  7
STANDARD1
  0
TEXT
  5
822
  8
ETC
  6
CONTINUOUS
 10
499.2639216277446
 20
1041.324441774019
 30
0.0
 40
39.99999999999999
  1
ヒートポンプユニット
 50
0.0000025613209388
 41
0.84375
  7
STANDARD1
  0
ENDSEC
  0
EOF
