  0
SECTION
  2
HEADER
  9
$ACADVER
  1
AC1009
  9
$DWGCODEPAGE
  3
dos932
  9
$INSBASE
 10
0.0
 20
0.0
 30
0.0
  9
$EXTMIN
 10
-779.6339393720159
 20
-560.186415467961
 30
-0.0015258207003583
  9
$EXTMAX
 10
844.3151840510836
 20
1119.705539453344
 30
0.0000000349246037
  9
$LIMMIN
 10
0.0
 20
0.0
  9
$LIMMAX
 10
12.0
 20
9.0
  9
$ORTHOMODE
 70
     0
  9
$REGENMODE
 70
     1
  9
$FILLMODE
 70
     1
  9
$QTEXTMODE
 70
     0
  9
$MIRRTEXT
 70
     0
  9
$DRAGMODE
 70
     2
  9
$LTSCALE
 40
1.0
  9
$OSMODE
 70
    37
  9
$ATTMODE
 70
     1
  9
$TEXTSIZE
 40
2.799999952316284
  9
$TRACEWID
 40
0.05
  9
$TEXTSTYLE
  7
STANDARD1
  9
$CLAYER
  8
0
  9
$CELTYPE
  6
CONTINUOUS
  9
$CECOLOR
 62
   256
  9
$DIMSCALE
 40
1.0
  9
$DIMASZ
 40
10.0
  9
$DIMEXO
 40
10.0
  9
$DIMDLI
 40
8.0
  9
$DIMRND
 40
0.0
  9
$DIMDLE
 40
0.0
  9
$DIMEXE
 40
12.5
  9
$DIMTP
 40
0.0
  9
$DIMTM
 40
0.0
  9
$DIMTXT
 40
30.0
  9
$DIMCEN
 40
2.5
  9
$DIMTSZ
 40
0.0
  9
$DIMTOL
 70
     0
  9
$DIMLIM
 70
     0
  9
$DIMTIH
 70
     0
  9
$DIMTOH
 70
     0
  9
$DIMSE1
 70
     0
  9
$DIMSE2
 70
     0
  9
$DIMTAD
 70
     3
  9
$DIMZIN
 70
    12
  9
$DIMBLK
  1

  9
$DIMASO
 70
     1
  9
$DIMSHO
 70
     1
  9
$DIMPOST
  1

  9
$DIMAPOST
  1

  9
$DIMALT
 70
     0
  9
$DIMALTD
 70
     4
  9
$DIMALTF
 40
25.4
  9
$DIMLFAC
 40
1.0
  9
$DIMTOFL
 70
     1
  9
$DIMTVP
 40
0.0
  9
$DIMTIX
 70
     0
  9
$DIMSOXD
 70
     0
  9
$DIMSAH
 70
     1
  9
$DIMBLK1
  1
ORIGIN
  9
$DIMBLK2
  1
ORIGIN
  9
$DIMSTYLE
  2
STANDARD
  9
$DIMCLRD
 70
     0
  9
$DIMCLRE
 70
     0
  9
$DIMCLRT
 70
     0
  9
$DIMTFAC
 40
0.7142857313156129
  9
$DIMGAP
 40
10.0
  9
$LUNITS
 70
     2
  9
$LUPREC
 70
     3
  9
$SKETCHINC
 40
0.1
  9
$FILLETRAD
 40
0.0
  9
$AUNITS
 70
     0
  9
$AUPREC
 70
     0
  9
$MENU
  1
.
  9
$ELEVATION
 40
0.0
  9
$PELEVATION
 40
0.0
  9
$THICKNESS
 40
0.0
  9
$LIMCHECK
 70
     0
  9
$CHAMFERA
 40
0.0
  9
$CHAMFERB
 40
0.0
  9
$SKPOLY
 70
     0
  9
$TDCREATE
 40
2456808.661559063
  9
$TDUPDATE
 40
2457459.559215174
  9
$TDINDWG
 40
0.0002238657
  9
$TDUSRTIMER
 40
0.0002238657
  9
$USRTIMER
 70
     1
  9
$ANGBASE
 50
0.0
  9
$ANGDIR
 70
     0
  9
$PDMODE
 70
     0
  9
$PDSIZE
 40
0.0
  9
$PLINEWID
 40
0.0
  9
$COORDS
 70
     1
  9
$SPLFRAME
 70
     0
  9
$SPLINETYPE
 70
     6
  9
$SPLINESEGS
 70
     8
  9
$ATTDIA
 70
     0
  9
$ATTREQ
 70
     1
  9
$HANDLING
 70
     1
  9
$HANDSEED
  5
881
  9
$SURFTAB1
 70
     6
  9
$SURFTAB2
 70
     6
  9
$SURFTYPE
 70
     6
  9
$SURFU
 70
     6
  9
$SURFV
 70
     6
  9
$UCSNAME
  2

  9
$UCSORG
 10
0.0
 20
0.0
 30
0.0
  9
$UCSXDIR
 10
1.0
 20
0.0
 30
0.0
  9
$UCSYDIR
 10
0.0
 20
1.0
 30
0.0
  9
$PUCSNAME
  2

  9
$PUCSORG
 10
0.0
 20
0.0
 30
0.0
  9
$PUCSXDIR
 10
1.0
 20
0.0
 30
0.0
  9
$PUCSYDIR
 10
0.0
 20
1.0
 30
0.0
  9
$USERI1
 70
     0
  9
$USERI2
 70
     0
  9
$USERI3
 70
     0
  9
$USERI4
 70
     0
  9
$USERI5
 70
     0
  9
$USERR1
 40
0.0
  9
$USERR2
 40
0.0
  9
$USERR3
 40
0.0
  9
$USERR4
 40
0.0
  9
$USERR5
 40
0.0
  9
$WORLDVIEW
 70
     1
  9
$SHADEDGE
 70
     3
  9
$SHADEDIF
 70
    70
  9
$TILEMODE
 70
     1
  9
$MAXACTVP
 70
    64
  9
$PLIMCHECK
 70
     0
  9
$PEXTMIN
 10
1.000000000000000E+20
 20
1.000000000000000E+20
 30
1.000000000000000E+20
  9
$PEXTMAX
 10
-1.000000000000000E+20
 20
-1.000000000000000E+20
 30
-1.000000000000000E+20
  9
$PLIMMIN
 10
0.0
 20
0.0
  9
$PLIMMAX
 10
12.0
 20
9.0
  9
$UNITMODE
 70
     0
  9
$VISRETAIN
 70
     1
  9
$PLINEGEN
 70
     0
  9
$PSLTSCALE
 70
     1
  0
ENDSEC
  0
SECTION
  2
TABLES
  0
TABLE
  2
VPORT
 70
     1
  0
VPORT
  2
*ACTIVE
 70
     0
 10
0.0
 20
0.0
 11
1.0
 21
1.0
 12
32.34062233953383
 22
279.7595619926917
 13
0.0
 23
0.0
 14
1.0
 24
1.0
 15
0.0
 25
0.0
 16
0.0
 26
0.0
 36
1.0
 17
0.0
 27
0.0
 37
0.0
 40
1694.048347799856
 41
0.9971870604781997
 42
50.0
 43
0.0
 44
0.0
 50
0.0
 51
0.0
 71
     0
 72
   100
 73
     1
 74
     1
 75
     0
 76
     0
 77
     0
 78
     0
  0
ENDTAB
  0
TABLE
  2
LTYPE
 70
     4
  0
LTYPE
  2
CONTINUOUS
 70
     0
  3
Solid line
 72
    65
 73
     0
 40
0.0
  0
LTYPE
  2
DASHED
 70
     0
  3
-- -- -- -- -- -- -- -- -- -- -- -- -- -- --
 72
    65
 73
     2
 40
0.75
 49
0.5
 49
-0.25
  0
LTYPE
  2
DASHDOT
 70
     0
  3
__ . __ . __ . __ . __ . __ . __ . __ . __ . __
 72
    65
 73
     4
 40
125.0
 49
80.0
 49
-20.0
 49
5.0
 49
-20.0
  0
LTYPE
  2
DIVIDE
 70
     0
  3
__ . . __ . . __ . . __ . . __ . . __ . . __
 72
    65
 73
     6
 40
1.25
 49
0.5
 49
-0.25
 49
0.0
 49
-0.25
 49
0.0
 49
-0.25
  0
ENDTAB
  0
TABLE
  2
LAYER
 70
    12
  0
LAYER
  2
0
 70
     0
 62
     3
  6
CONTINUOUS
  0
LAYER
  2
OUTLINE
 70
     0
 62
     3
  6
CONTINUOUS
  0
LAYER
  2
DETAIL
 70
     0
 62
     5
  6
CONTINUOUS
  0
LAYER
  2
BASIS
 70
     0
 62
     6
  6
CONTINUOUS
  0
LAYER
  2
SIZE
 70
     0
 62
    30
  6
CONTINUOUS
  0
LAYER
  2
NOTE
 70
     0
 62
     4
  6
CONTINUOUS
  0
LAYER
  2
ARRANGE
 70
     0
 62
     1
  6
CONTINUOUS
  0
LAYER
  2
FIX
 70
     0
 62
    11
  6
CONTINUOUS
  0
LAYER
  2
SERVICESPACE
 70
     0
 62
     2
  6
CONTINUOUS
  0
LAYER
  2
ETC
 70
     0
 62
    61
  6
CONTINUOUS
  0
LAYER
  2
SYMBOLLINE
 70
     0
 62
     7
  6
CONTINUOUS
  0
LAYER
  2
DEFPOINTS
 70
     0
 62
     7
  6
CONTINUOUS
  0
ENDTAB
  0
TABLE
  2
STYLE
 70
     5
  0
STYLE
  2
STANDARD
 70
     0
 40
0.0
 41
1.0
 50
0.0
 71
     0
 42
0.2
  3
txt
  4

  0
STYLE
  2
STANDARD1
 70
     0
 40
0.0
 41
1.0
 50
0.0
 71
     0
 42
2.799999952316284
  3
MONOTXT
  4
BIGFONT
  0
STYLE
  2
STANDARD2
 70
     4
 40
0.0
 41
1.0
 50
0.0
 71
     0
 42
2.799999952316284
  3
MONOTXT
  4
BIGFONT
  0
STYLE
  2
STANDARD3
 70
     0
 40
0.0
 41
1.0
 50
0.0
 71
     0
 42
2.799999952316284
  3
MONOTXT
  4

  0
STYLE
  2
STANDARD4
 70
     4
 40
0.0
 41
1.0
 50
0.0
 71
     0
 42
2.799999952316284
  3
MONOTXT
  4

  0
ENDTAB
  0
TABLE
  2
VIEW
 70
     0
  0
ENDTAB
  0
TABLE
  2
UCS
 70
     0
  0
ENDTAB
  0
TABLE
  2
APPID
 70
     1
  0
APPID
  2
ACAD
 70
     0
  0
ENDTAB
  0
TABLE
  2
DIMSTYLE
 70
     1
  0
DIMSTYLE
  2
STANDARD
 70
     0
  3

  4

  5

  6

  7

 40
1.0
 41
0.18
 42
0.0625
 43
0.38
 44
0.18
 45
0.0
 46
0.0
 47
0.0
 48
0.0
140
0.18
141
0.09
142
0.0
143
25.4
144
1.0
145
0.0
146
1.0
147
0.09
 71
     0
 72
     0
 73
     1
 74
     1
 75
     0
 76
     0
 77
     0
 78
     0
170
     0
171
     2
172
     0
173
     0
174
     0
175
     0
176
     0
177
     0
178
     0
  0
ENDTAB
  0
ENDSEC
  0
SECTION
  2
BLOCKS
  0
BLOCK
  8
0
  2
$MODEL_SPACE
 70
     0
 10
0.0
 20
0.0
 30
0.0
  3
$MODEL_SPACE
  1

  0
ENDBLK
  5
859
  8
0
  0
BLOCK
 67
     1
  8
0
  2
$PAPER_SPACE
 70
     0
 10
0.0
 20
0.0
 30
0.0
  3
$PAPER_SPACE
  1

  0
ENDBLK
  5
85B
 67
     1
  8
0
  0
BLOCK
  8
SIZE
  2
*D0
 70
     1
 10
0.0
 20
0.0
 30
0.0
  3
*D0
  1

  0
TEXT
  5
3E9
  8
SIZE
  6
CONTINUOUS
 10
447.97028195858
 20
354.5248719485638
 30
0.0
 40
2.799999952316284
  1
715
 50
90.00000500895634
 41
0.6999999829701011
  7
STANDARD1
  0
LINE
  5
3EA
  8
SIZE
  6
CONTINUOUS
 10
-4.029729843139647
 20
714.9648437499999
 30
0.0
 11
450.9702758789063
 21
714.9648437499999
 31
0.0
  0
LINE
  5
3EB
  8
SIZE
  6
CONTINUOUS
 10
33.97027206420899
 20
-0.035135135054588
 30
0.0
 11
450.9702758789063
 21
-0.035135135054588
 31
0.0
  0
LINE
  5
3EC
  8
SIZE
  6
CONTINUOUS
 10
448.9702758789062
 20
714.9648437499999
 30
0.0
 11
448.9702758789062
 21
-0.035135135054588
 31
0.0
  0
CIRCLE
  5
3ED
  8
SIZE
  6
CONTINUOUS
 10
448.9702758789062
 20
714.9648437499999
 30
0.0
 40
0.5
  0
CIRCLE
  5
3EE
  8
SIZE
  6
CONTINUOUS
 10
448.9702758789062
 20
714.9648437499999
 30
0.0
 40
0.4
  0
CIRCLE
  5
3EF
  8
SIZE
  6
CONTINUOUS
 10
448.9702758789062
 20
714.9648437499999
 30
0.0
 40
0.3
  0
CIRCLE
  5
3F0
  8
SIZE
  6
CONTINUOUS
 10
448.9702758789062
 20
714.9648437499999
 30
0.0
 40
0.2
  0
CIRCLE
  5
3F1
  8
SIZE
  6
CONTINUOUS
 10
448.9702758789062
 20
714.9648437499999
 30
0.0
 40
0.1
  0
CIRCLE
  5
3F2
  8
SIZE
  6
CONTINUOUS
 10
448.9702758789062
 20
-0.035135135054588
 30
0.0
 40
0.5
  0
CIRCLE
  5
3F3
  8
SIZE
  6
CONTINUOUS
 10
448.9702758789062
 20
-0.035135135054588
 30
0.0
 40
0.4
  0
CIRCLE
  5
3F4
  8
SIZE
  6
CONTINUOUS
 10
448.9702758789062
 20
-0.035135135054588
 30
0.0
 40
0.3
  0
CIRCLE
  5
3F5
  8
SIZE
  6
CONTINUOUS
 10
448.9702758789062
 20
-0.035135135054588
 30
0.0
 40
0.2
  0
CIRCLE
  5
3F6
  8
SIZE
  6
CONTINUOUS
 10
448.9702758789062
 20
-0.035135135054588
 30
0.0
 40
0.1
  0
POINT
  5
3F7
  8
DEFPOINTS
  6
BYBLOCK
 10
32.97027206420898
 20
-0.035135135054588
 30
0.0
  0
POINT
  5
3F8
  8
DEFPOINTS
  6
BYBLOCK
 10
-5.029729843139648
 20
714.9648437499999
 30
0.0
  0
POINT
  5
3F9
  8
DEFPOINTS
  6
BYBLOCK
 10
448.9702758789062
 20
714.9648437499999
 30
0.0
  0
ENDBLK
  5
3FA
  8
SIZE
  0
BLOCK
  8
SIZE
  2
*D1
 70
     1
 10
0.0
 20
0.0
 30
0.0
  3
*D1
  1

  0
TEXT
  5
3FD
  8
SIZE
  6
CONTINUOUS
 10
602.7093261480331
 20
404.5248719485638
 30
0.0
 40
2.799999952316284
  1
815
 50
90.00000500895634
 41
0.6999999829701011
  7
STANDARD1
  0
LINE
  5
3FE
  8
SIZE
  6
CONTINUOUS
 10
100.9702682495117
 20
814.9648437499999
 30
0.0
 11
605.7093505859374
 21
814.9648437499999
 31
0.0
  0
LINE
  5
3FF
  8
SIZE
  6
CONTINUOUS
 10
33.97027206420899
 20
-0.035135135054588
 30
0.0
 11
605.7093505859374
 21
-0.035135135054588
 31
0.0
  0
LINE
  5
400
  8
SIZE
  6
CONTINUOUS
 10
603.7093505859375
 20
814.9648437499999
 30
0.0
 11
603.7093505859375
 21
-0.035135135054588
 31
0.0
  0
CIRCLE
  5
401
  8
SIZE
  6
CONTINUOUS
 10
603.7093505859375
 20
814.9648437499999
 30
0.0
 40
0.5
  0
CIRCLE
  5
402
  8
SIZE
  6
CONTINUOUS
 10
603.7093505859375
 20
814.9648437499999
 30
0.0
 40
0.4
  0
CIRCLE
  5
403
  8
SIZE
  6
CONTINUOUS
 10
603.7093505859375
 20
814.9648437499999
 30
0.0
 40
0.3
  0
CIRCLE
  5
404
  8
SIZE
  6
CONTINUOUS
 10
603.7093505859375
 20
814.9648437499999
 30
0.0
 40
0.2
  0
CIRCLE
  5
405
  8
SIZE
  6
CONTINUOUS
 10
603.7093505859375
 20
814.9648437499999
 30
0.0
 40
0.1
  0
CIRCLE
  5
406
  8
SIZE
  6
CONTINUOUS
 10
603.7093505859375
 20
-0.035135135054588
 30
0.0
 40
0.5
  0
CIRCLE
  5
407
  8
SIZE
  6
CONTINUOUS
 10
603.7093505859375
 20
-0.035135135054588
 30
0.0
 40
0.4
  0
CIRCLE
  5
408
  8
SIZE
  6
CONTINUOUS
 10
603.7093505859375
 20
-0.035135135054588
 30
0.0
 40
0.3
  0
CIRCLE
  5
409
  8
SIZE
  6
CONTINUOUS
 10
603.7093505859375
 20
-0.035135135054588
 30
0.0
 40
0.2
  0
CIRCLE
  5
40A
  8
SIZE
  6
CONTINUOUS
 10
603.7093505859375
 20
-0.035135135054588
 30
0.0
 40
0.1
  0
POINT
  5
40B
  8
DEFPOINTS
  6
BYBLOCK
 10
32.97027206420898
 20
-0.035135135054588
 30
0.0
  0
POINT
  5
40C
  8
DEFPOINTS
  6
BYBLOCK
 10
99.97026824951172
 20
814.9648437499999
 30
0.0
  0
POINT
  5
40D
  8
DEFPOINTS
  6
BYBLOCK
 10
603.7093505859375
 20
814.9648437499999
 30
0.0
  0
ENDBLK
  5
40E
  8
SIZE
  0
BLOCK
  8
SIZE
  2
*D2
 70
     1
 10
0.0
 20
0.0
 30
0.0
  3
*D2
  1

  0
TEXT
  5
411
  8
SIZE
  6
CONTINUOUS
 10
447.97028195858
 20
762.0248414309855
 30
0.0
 40
2.799999952316284
  1
100
 50
90.00000500895634
 41
0.6999999829701011
  7
STANDARD1
  0
LINE
  5
412
  8
SIZE
  6
CONTINUOUS
 10
100.9702682495117
 20
814.9648437499999
 30
0.0
 11
450.9702758789063
 21
814.9648437499999
 31
0.0
  0
LINE
  5
413
  8
SIZE
  6
CONTINUOUS
 10
-4.029729843139647
 20
714.9648437499999
 30
0.0
 11
450.9702758789063
 21
714.9648437499999
 31
0.0
  0
LINE
  5
414
  8
SIZE
  6
CONTINUOUS
 10
448.9702758789062
 20
814.9648437499999
 30
0.0
 11
448.9702758789062
 21
714.9648437499999
 31
0.0
  0
CIRCLE
  5
415
  8
SIZE
  6
CONTINUOUS
 10
448.9702758789062
 20
814.9648437499999
 30
0.0
 40
0.5
  0
CIRCLE
  5
416
  8
SIZE
  6
CONTINUOUS
 10
448.9702758789062
 20
814.9648437499999
 30
0.0
 40
0.4
  0
CIRCLE
  5
417
  8
SIZE
  6
CONTINUOUS
 10
448.9702758789062
 20
814.9648437499999
 30
0.0
 40
0.3
  0
CIRCLE
  5
418
  8
SIZE
  6
CONTINUOUS
 10
448.9702758789062
 20
814.9648437499999
 30
0.0
 40
0.2
  0
CIRCLE
  5
419
  8
SIZE
  6
CONTINUOUS
 10
448.9702758789062
 20
814.9648437499999
 30
0.0
 40
0.1
  0
CIRCLE
  5
41A
  8
SIZE
  6
CONTINUOUS
 10
448.9702758789062
 20
714.9648437499999
 30
0.0
 40
0.5
  0
CIRCLE
  5
41B
  8
SIZE
  6
CONTINUOUS
 10
448.9702758789062
 20
714.9648437499999
 30
0.0
 40
0.4
  0
CIRCLE
  5
41C
  8
SIZE
  6
CONTINUOUS
 10
448.9702758789062
 20
714.9648437499999
 30
0.0
 40
0.3
  0
CIRCLE
  5
41D
  8
SIZE
  6
CONTINUOUS
 10
448.9702758789062
 20
714.9648437499999
 30
0.0
 40
0.2
  0
CIRCLE
  5
41E
  8
SIZE
  6
CONTINUOUS
 10
448.9702758789062
 20
714.9648437499999
 30
0.0
 40
0.1
  0
POINT
  5
41F
  8
DEFPOINTS
  6
BYBLOCK
 10
-5.029729843139648
 20
714.9648437499999
 30
0.0
  0
POINT
  5
420
  8
DEFPOINTS
  6
BYBLOCK
 10
99.97026824951172
 20
814.9648437499999
 30
0.0
  0
POINT
  5
421
  8
DEFPOINTS
  6
BYBLOCK
 10
448.9702758789062
 20
814.9648437499999
 30
0.0
  0
ENDBLK
  5
422
  8
SIZE
  0
BLOCK
  8
SIZE
  2
*D3
 70
     1
 10
0.0
 20
0.0
 30
0.0
  3
*D3
  1

  0
TEXT
  5
425
  8
SIZE
  6
CONTINUOUS
 10
84.23603063980924
 20
-353.3678649663924
 30
0.0
 40
2.799999952316284
  1
10
 50
0.000002504478167
 41
0.6999999829701011
  7
STANDARD1
  0
LINE
  5
426
  8
SIZE
  6
CONTINUOUS
 10
9.970270156860352
 20
18.96486473083496
 30
0.0
 11
9.970270156860352
 21
-356.3678588867188
 31
0.0
  0
LINE
  5
427
  8
SIZE
  6
CONTINUOUS
 10
-0.029729733243585
 20
18.96486473083496
 30
0.0
 11
-0.029729733243585
 21
-356.3678588867188
 31
0.0
  0
LINE
  5
428
  8
SIZE
  6
CONTINUOUS
 10
89.5560302734375
 20
-354.3678588867188
 30
0.0
 11
-5.029729843139648
 21
-354.3678588867188
 31
0.0
  0
CIRCLE
  5
429
  8
SIZE
  6
CONTINUOUS
 10
9.970270156860352
 20
-354.3678588867188
 30
0.0
 40
0.5
  0
CIRCLE
  5
42A
  8
SIZE
  6
CONTINUOUS
 10
9.970270156860352
 20
-354.3678588867188
 30
0.0
 40
0.4
  0
CIRCLE
  5
42B
  8
SIZE
  6
CONTINUOUS
 10
9.970270156860352
 20
-354.3678588867188
 30
0.0
 40
0.3
  0
CIRCLE
  5
42C
  8
SIZE
  6
CONTINUOUS
 10
9.970270156860352
 20
-354.3678588867188
 30
0.0
 40
0.2
  0
CIRCLE
  5
42D
  8
SIZE
  6
CONTINUOUS
 10
9.970270156860352
 20
-354.3678588867188
 30
0.0
 40
0.1
  0
CIRCLE
  5
42E
  8
SIZE
  6
CONTINUOUS
 10
-0.029729733243585
 20
-354.3678588867188
 30
0.0
 40
0.5
  0
CIRCLE
  5
42F
  8
SIZE
  6
CONTINUOUS
 10
-0.029729733243585
 20
-354.3678588867188
 30
0.0
 40
0.4
  0
CIRCLE
  5
430
  8
SIZE
  6
CONTINUOUS
 10
-0.029729733243585
 20
-354.3678588867188
 30
0.0
 40
0.3
  0
CIRCLE
  5
431
  8
SIZE
  6
CONTINUOUS
 10
-0.029729733243585
 20
-354.3678588867188
 30
0.0
 40
0.2
  0
CIRCLE
  5
432
  8
SIZE
  6
CONTINUOUS
 10
-0.029729733243585
 20
-354.3678588867188
 30
0.0
 40
0.1
  0
POINT
  5
433
  8
DEFPOINTS
  6
BYBLOCK
 10
-0.029729733243585
 20
19.96486473083496
 30
0.0
  0
POINT
  5
434
  8
DEFPOINTS
  6
BYBLOCK
 10
9.970270156860352
 20
19.96486473083496
 30
0.0
  0
POINT
  5
435
  8
DEFPOINTS
  6
BYBLOCK
 10
9.970270156860352
 20
-354.3678588867188
 30
0.0
  0
ENDBLK
  5
436
  8
SIZE
  0
BLOCK
  8
SIZE
  2
*D4
 70
     1
 10
0.0
 20
0.0
 30
0.0
  3
*D4
  1

  0
TEXT
  5
439
  8
SIZE
  6
CONTINUOUS
 10
-66.80778497298374
 20
-149.2899688482284
 30
0.0
 40
2.799999952316284
  1
1
 50
0.000002504478167
 41
0.6999999829701011
  7
STANDARD1
  0
LINE
  5
43A
  8
SIZE
  6
CONTINUOUS
 10
-0.726331055164337
 20
-23.13792991638184
 30
0.0
 11
-0.726331055164337
 21
-152.2899627685547
 31
0.0
  0
LINE
  5
43B
  8
SIZE
  6
CONTINUOUS
 10
-0.029729733243585
 20
18.96486473083496
 30
0.0
 11
-0.029729733243585
 21
-152.2899627685547
 31
0.0
  0
LINE
  5
43C
  8
SIZE
  6
CONTINUOUS
 10
-68.20777893066406
 20
-150.2899627685547
 30
0.0
 11
4.970270156860351
 21
-150.2899627685547
 31
0.0
  0
CIRCLE
  5
43D
  8
SIZE
  6
CONTINUOUS
 10
-0.726331055164337
 20
-150.2899627685547
 30
0.0
 40
0.5
  0
CIRCLE
  5
43E
  8
SIZE
  6
CONTINUOUS
 10
-0.726331055164337
 20
-150.2899627685547
 30
0.0
 40
0.4
  0
CIRCLE
  5
43F
  8
SIZE
  6
CONTINUOUS
 10
-0.726331055164337
 20
-150.2899627685547
 30
0.0
 40
0.3
  0
CIRCLE
  5
440
  8
SIZE
  6
CONTINUOUS
 10
-0.726331055164337
 20
-150.2899627685547
 30
0.0
 40
0.2
  0
CIRCLE
  5
441
  8
SIZE
  6
CONTINUOUS
 10
-0.726331055164337
 20
-150.2899627685547
 30
0.0
 40
0.1
  0
CIRCLE
  5
442
  8
SIZE
  6
CONTINUOUS
 10
-0.029729733243585
 20
-150.2899627685547
 30
0.0
 40
0.5
  0
CIRCLE
  5
443
  8
SIZE
  6
CONTINUOUS
 10
-0.029729733243585
 20
-150.2899627685547
 30
0.0
 40
0.4
  0
CIRCLE
  5
444
  8
SIZE
  6
CONTINUOUS
 10
-0.029729733243585
 20
-150.2899627685547
 30
0.0
 40
0.3
  0
CIRCLE
  5
445
  8
SIZE
  6
CONTINUOUS
 10
-0.029729733243585
 20
-150.2899627685547
 30
0.0
 40
0.2
  0
CIRCLE
  5
446
  8
SIZE
  6
CONTINUOUS
 10
-0.029729733243585
 20
-150.2899627685547
 30
0.0
 40
0.1
  0
POINT
  5
447
  8
DEFPOINTS
  6
BYBLOCK
 10
-0.029729733243585
 20
19.96486473083496
 30
0.0
  0
POINT
  5
448
  8
DEFPOINTS
  6
BYBLOCK
 10
-0.726331055164337
 20
-22.13792991638184
 30
0.0
  0
POINT
  5
449
  8
DEFPOINTS
  6
BYBLOCK
 10
-0.726331055164337
 20
-150.2899627685547
 30
0.0
  0
ENDBLK
  5
44A
  8
SIZE
  0
BLOCK
  8
SIZE
  2
*D5
 70
     1
 10
0.0
 20
0.0
 30
0.0
  3
*D5
  1

  0
TEXT
  5
44D
  8
SIZE
  6
CONTINUOUS
 10
-145.469726501304
 20
1078.254296898842
 30
0.0
 40
2.799999952316284
  1
285
 50
0.000002504478167
 41
0.6999999829701011
  7
STANDARD1
  0
LINE
  5
44E
  8
SIZE
  6
CONTINUOUS
 10
-285.0297241210938
 20
710.9648437499999
 30
0.0
 11
-285.0297241210938
 21
1079.254272460937
 31
0.0
  0
LINE
  5
44F
  8
SIZE
  6
CONTINUOUS
 10
-0.029729733243585
 20
710.9648437499999
 30
0.0
 11
-0.029729733243585
 21
1079.254272460937
 31
0.0
  0
LINE
  5
450
  8
SIZE
  6
CONTINUOUS
 10
-285.0297241210938
 20
1077.254272460938
 30
0.0
 11
-0.029729733243585
 21
1077.254272460938
 31
0.0
  0
CIRCLE
  5
451
  8
SIZE
  6
CONTINUOUS
 10
-285.0297241210938
 20
1077.254272460938
 30
0.0
 40
0.5
  0
CIRCLE
  5
452
  8
SIZE
  6
CONTINUOUS
 10
-285.0297241210938
 20
1077.254272460938
 30
0.0
 40
0.4
  0
CIRCLE
  5
453
  8
SIZE
  6
CONTINUOUS
 10
-285.0297241210938
 20
1077.254272460938
 30
0.0
 40
0.3
  0
CIRCLE
  5
454
  8
SIZE
  6
CONTINUOUS
 10
-285.0297241210938
 20
1077.254272460938
 30
0.0
 40
0.2
  0
CIRCLE
  5
455
  8
SIZE
  6
CONTINUOUS
 10
-285.0297241210938
 20
1077.254272460938
 30
0.0
 40
0.1
  0
CIRCLE
  5
456
  8
SIZE
  6
CONTINUOUS
 10
-0.029729733243585
 20
1077.254272460938
 30
0.0
 40
0.5
  0
CIRCLE
  5
457
  8
SIZE
  6
CONTINUOUS
 10
-0.029729733243585
 20
1077.254272460938
 30
0.0
 40
0.4
  0
CIRCLE
  5
458
  8
SIZE
  6
CONTINUOUS
 10
-0.029729733243585
 20
1077.254272460938
 30
0.0
 40
0.3
  0
CIRCLE
  5
459
  8
SIZE
  6
CONTINUOUS
 10
-0.029729733243585
 20
1077.254272460938
 30
0.0
 40
0.2
  0
CIRCLE
  5
45A
  8
SIZE
  6
CONTINUOUS
 10
-0.029729733243585
 20
1077.254272460938
 30
0.0
 40
0.1
  0
POINT
  5
45B
  8
DEFPOINTS
  6
BYBLOCK
 10
-0.029729733243585
 20
709.9648437499999
 30
0.0
  0
POINT
  5
45C
  8
DEFPOINTS
  6
BYBLOCK
 10
-285.0297241210938
 20
709.9648437499999
 30
0.0
  0
POINT
  5
45D
  8
DEFPOINTS
  6
BYBLOCK
 10
-285.0297241210938
 20
1077.254272460938
 30
0.0
  0
ENDBLK
  5
45E
  8
SIZE
  0
BLOCK
  8
SIZE
  2
*D6
 70
     1
 10
0.0
 20
0.0
 30
0.0
  3
*D6
  1

  0
TEXT
  5
461
  8
SIZE
  6
CONTINUOUS
 10
47.03027349869593
 20
1078.254296898842
 30
0.0
 40
2.799999952316284
  1
100
 50
0.000002504478167
 41
0.6999999829701011
  7
STANDARD1
  0
LINE
  5
462
  8
SIZE
  6
CONTINUOUS
 10
-0.029729733243585
 20
710.9648437499999
 30
0.0
 11
-0.029729733243585
 21
1079.254272460937
 31
0.0
  0
LINE
  5
463
  8
SIZE
  6
CONTINUOUS
 10
99.97026824951172
 20
815.9648437499999
 30
0.0
 11
99.97026824951172
 21
1079.254272460937
 31
0.0
  0
LINE
  5
464
  8
SIZE
  6
CONTINUOUS
 10
-0.029729733243585
 20
1077.254272460938
 30
0.0
 11
99.97026824951172
 21
1077.254272460938
 31
0.0
  0
CIRCLE
  5
465
  8
SIZE
  6
CONTINUOUS
 10
-0.029729733243585
 20
1077.254272460938
 30
0.0
 40
0.5
  0
CIRCLE
  5
466
  8
SIZE
  6
CONTINUOUS
 10
-0.029729733243585
 20
1077.254272460938
 30
0.0
 40
0.4
  0
CIRCLE
  5
467
  8
SIZE
  6
CONTINUOUS
 10
-0.029729733243585
 20
1077.254272460938
 30
0.0
 40
0.3
  0
CIRCLE
  5
468
  8
SIZE
  6
CONTINUOUS
 10
-0.029729733243585
 20
1077.254272460938
 30
0.0
 40
0.2
  0
CIRCLE
  5
469
  8
SIZE
  6
CONTINUOUS
 10
-0.029729733243585
 20
1077.254272460938
 30
0.0
 40
0.1
  0
CIRCLE
  5
46A
  8
SIZE
  6
CONTINUOUS
 10
99.97026824951172
 20
1077.254272460938
 30
0.0
 40
0.5
  0
CIRCLE
  5
46B
  8
SIZE
  6
CONTINUOUS
 10
99.97026824951172
 20
1077.254272460938
 30
0.0
 40
0.4
  0
CIRCLE
  5
46C
  8
SIZE
  6
CONTINUOUS
 10
99.97026824951172
 20
1077.254272460938
 30
0.0
 40
0.3
  0
CIRCLE
  5
46D
  8
SIZE
  6
CONTINUOUS
 10
99.97026824951172
 20
1077.254272460938
 30
0.0
 40
0.2
  0
CIRCLE
  5
46E
  8
SIZE
  6
CONTINUOUS
 10
99.97026824951172
 20
1077.254272460938
 30
0.0
 40
0.1
  0
POINT
  5
46F
  8
DEFPOINTS
  6
BYBLOCK
 10
99.97026824951172
 20
814.9648437499999
 30
0.0
  0
POINT
  5
470
  8
DEFPOINTS
  6
BYBLOCK
 10
-0.029729733243585
 20
709.9648437499999
 30
0.0
  0
POINT
  5
471
  8
DEFPOINTS
  6
BYBLOCK
 10
-0.029729733243585
 20
1077.254272460938
 30
0.0
  0
ENDBLK
  5
472
  8
SIZE
  0
BLOCK
  8
SIZE
  2
*D7
 70
     1
 10
0.0
 20
0.0
 30
0.0
  3
*D7
  1

  0
TEXT
  5
475
  8
SIZE
  6
CONTINUOUS
 10
-92.15480035384311
 20
940.3504883050919
 30
0.0
 40
2.799999952316284
  1
16
 50
0.000002504478167
 41
0.6999999829701011
  7
STANDARD1
  0
LINE
  5
476
  8
SIZE
  6
CONTINUOUS
 10
-0.029729733243585
 20
710.9648437499999
 30
0.0
 11
-0.029729733243585
 21
941.3504638671875
 31
0.0
  0
LINE
  5
477
  8
SIZE
  6
CONTINUOUS
 10
15.97027015686035
 20
675.96484375
 30
0.0
 11
15.97027015686035
 21
941.3504638671875
 31
0.0
  0
LINE
  5
478
  8
SIZE
  6
CONTINUOUS
 10
-93.55480194091795
 20
939.3504638671874
 30
0.0
 11
20.97027015686035
 21
939.3504638671874
 31
0.0
  0
CIRCLE
  5
479
  8
SIZE
  6
CONTINUOUS
 10
-0.029729733243585
 20
939.3504638671874
 30
0.0
 40
0.5
  0
CIRCLE
  5
47A
  8
SIZE
  6
CONTINUOUS
 10
-0.029729733243585
 20
939.3504638671874
 30
0.0
 40
0.4
  0
CIRCLE
  5
47B
  8
SIZE
  6
CONTINUOUS
 10
-0.029729733243585
 20
939.3504638671874
 30
0.0
 40
0.3
  0
CIRCLE
  5
47C
  8
SIZE
  6
CONTINUOUS
 10
-0.029729733243585
 20
939.3504638671874
 30
0.0
 40
0.2
  0
CIRCLE
  5
47D
  8
SIZE
  6
CONTINUOUS
 10
-0.029729733243585
 20
939.3504638671874
 30
0.0
 40
0.1
  0
CIRCLE
  5
47E
  8
SIZE
  6
CONTINUOUS
 10
15.97027015686035
 20
939.3504638671874
 30
0.0
 40
0.5
  0
CIRCLE
  5
47F
  8
SIZE
  6
CONTINUOUS
 10
15.97027015686035
 20
939.3504638671874
 30
0.0
 40
0.4
  0
CIRCLE
  5
480
  8
SIZE
  6
CONTINUOUS
 10
15.97027015686035
 20
939.3504638671874
 30
0.0
 40
0.3
  0
CIRCLE
  5
481
  8
SIZE
  6
CONTINUOUS
 10
15.97027015686035
 20
939.3504638671874
 30
0.0
 40
0.2
  0
CIRCLE
  5
482
  8
SIZE
  6
CONTINUOUS
 10
15.97027015686035
 20
939.3504638671874
 30
0.0
 40
0.1
  0
POINT
  5
483
  8
DEFPOINTS
  6
BYBLOCK
 10
15.97027015686035
 20
674.96484375
 30
0.0
  0
POINT
  5
484
  8
DEFPOINTS
  6
BYBLOCK
 10
-0.029729733243585
 20
709.9648437499999
 30
0.0
  0
POINT
  5
485
  8
DEFPOINTS
  6
BYBLOCK
 10
-0.029729733243585
 20
939.3504638671874
 30
0.0
  0
ENDBLK
  5
486
  8
SIZE
  0
BLOCK
  8
SIZE
  2
*D8
 70
     1
 10
0.0
 20
0.0
 30
0.0
  3
*D8
  1

  0
TEXT
  5
489
  8
SIZE
  6
CONTINUOUS
 10
-402.7898558958352
 20
940.3504883050919
 30
0.0
 40
2.799999952316284
  1
13.5
 50
0.000002504478167
 41
0.6999999829701011
  7
STANDARD1
  0
LINE
  5
48A
  8
SIZE
  6
CONTINUOUS
 10
-298.5297241210937
 20
669.96484375
 30
0.0
 11
-298.5297241210937
 21
941.3504638671875
 31
0.0
  0
LINE
  5
48B
  8
SIZE
  6
CONTINUOUS
 10
-285.0297241210938
 20
710.9648437499999
 30
0.0
 11
-285.0297241210938
 21
941.3504638671875
 31
0.0
  0
LINE
  5
48C
  8
SIZE
  6
CONTINUOUS
 10
-404.1898498535156
 20
939.3504638671874
 30
0.0
 11
-280.0297241210937
 21
939.3504638671874
 31
0.0
  0
CIRCLE
  5
48D
  8
SIZE
  6
CONTINUOUS
 10
-298.5297241210937
 20
939.3504638671874
 30
0.0
 40
0.5
  0
CIRCLE
  5
48E
  8
SIZE
  6
CONTINUOUS
 10
-298.5297241210937
 20
939.3504638671874
 30
0.0
 40
0.4
  0
CIRCLE
  5
48F
  8
SIZE
  6
CONTINUOUS
 10
-298.5297241210937
 20
939.3504638671874
 30
0.0
 40
0.3
  0
CIRCLE
  5
490
  8
SIZE
  6
CONTINUOUS
 10
-298.5297241210937
 20
939.3504638671874
 30
0.0
 40
0.2
  0
CIRCLE
  5
491
  8
SIZE
  6
CONTINUOUS
 10
-298.5297241210937
 20
939.3504638671874
 30
0.0
 40
0.1
  0
CIRCLE
  5
492
  8
SIZE
  6
CONTINUOUS
 10
-285.0297241210938
 20
939.3504638671874
 30
0.0
 40
0.5
  0
CIRCLE
  5
493
  8
SIZE
  6
CONTINUOUS
 10
-285.0297241210938
 20
939.3504638671874
 30
0.0
 40
0.4
  0
CIRCLE
  5
494
  8
SIZE
  6
CONTINUOUS
 10
-285.0297241210938
 20
939.3504638671874
 30
0.0
 40
0.3
  0
CIRCLE
  5
495
  8
SIZE
  6
CONTINUOUS
 10
-285.0297241210938
 20
939.3504638671874
 30
0.0
 40
0.2
  0
CIRCLE
  5
496
  8
SIZE
  6
CONTINUOUS
 10
-285.0297241210938
 20
939.3504638671874
 30
0.0
 40
0.1
  0
POINT
  5
497
  8
DEFPOINTS
  6
BYBLOCK
 10
-285.0297241210938
 20
709.9648437499999
 30
0.0
  0
POINT
  5
498
  8
DEFPOINTS
  6
BYBLOCK
 10
-298.5297241210937
 20
668.9648437499999
 30
0.0
  0
POINT
  5
499
  8
DEFPOINTS
  6
BYBLOCK
 10
-298.5297241210937
 20
939.3504638671874
 30
0.0
  0
ENDBLK
  5
49A
  8
SIZE
  0
BLOCK
  8
SIZE
  2
*D9
 70
     1
 10
0.0
 20
0.0
 30
0.0
  3
*D9
  1

  0
TEXT
  5
49D
  8
SIZE
  6
CONTINUOUS
 10
-387.9697265013041
 20
1078.254296898842
 30
0.0
 40
2.799999952316284
  1
200
 50
0.000002504478167
 41
0.6999999829701011
  7
STANDARD1
  0
LINE
  5
49E
  8
SIZE
  6
CONTINUOUS
 10
-485.0297241210937
 20
815.9648437499999
 30
0.0
 11
-485.0297241210937
 21
1079.254272460937
 31
0.0
  0
LINE
  5
49F
  8
SIZE
  6
CONTINUOUS
 10
-285.0297241210938
 20
815.9648437499999
 30
0.0
 11
-285.0297241210938
 21
1079.254272460937
 31
0.0
  0
LINE
  5
4A0
  8
SIZE
  6
CONTINUOUS
 10
-485.0297241210937
 20
1077.254272460938
 30
0.0
 11
-285.0297241210938
 21
1077.254272460938
 31
0.0
  0
CIRCLE
  5
4A1
  8
SIZE
  6
CONTINUOUS
 10
-485.0297241210937
 20
1077.254272460938
 30
0.0
 40
0.5
  0
CIRCLE
  5
4A2
  8
SIZE
  6
CONTINUOUS
 10
-485.0297241210937
 20
1077.254272460938
 30
0.0
 40
0.4
  0
CIRCLE
  5
4A3
  8
SIZE
  6
CONTINUOUS
 10
-485.0297241210937
 20
1077.254272460938
 30
0.0
 40
0.3
  0
CIRCLE
  5
4A4
  8
SIZE
  6
CONTINUOUS
 10
-485.0297241210937
 20
1077.254272460938
 30
0.0
 40
0.2
  0
CIRCLE
  5
4A5
  8
SIZE
  6
CONTINUOUS
 10
-485.0297241210937
 20
1077.254272460938
 30
0.0
 40
0.1
  0
CIRCLE
  5
4A6
  8
SIZE
  6
CONTINUOUS
 10
-285.0297241210938
 20
1077.254272460938
 30
0.0
 40
0.5
  0
CIRCLE
  5
4A7
  8
SIZE
  6
CONTINUOUS
 10
-285.0297241210938
 20
1077.254272460938
 30
0.0
 40
0.4
  0
CIRCLE
  5
4A8
  8
SIZE
  6
CONTINUOUS
 10
-285.0297241210938
 20
1077.254272460938
 30
0.0
 40
0.3
  0
CIRCLE
  5
4A9
  8
SIZE
  6
CONTINUOUS
 10
-285.0297241210938
 20
1077.254272460938
 30
0.0
 40
0.2
  0
CIRCLE
  5
4AA
  8
SIZE
  6
CONTINUOUS
 10
-285.0297241210938
 20
1077.254272460938
 30
0.0
 40
0.1
  0
POINT
  5
4AB
  8
DEFPOINTS
  6
BYBLOCK
 10
-285.0297241210938
 20
814.9648437499999
 30
0.0
  0
POINT
  5
4AC
  8
DEFPOINTS
  6
BYBLOCK
 10
-485.0297241210937
 20
814.9648437499999
 30
0.0
  0
POINT
  5
4AD
  8
DEFPOINTS
  6
BYBLOCK
 10
-485.0297241210937
 20
1077.254272460938
 30
0.0
  0
ENDBLK
  5
4AE
  8
SIZE
  0
BLOCK
  8
SIZE
  2
*D10
 70
     1
 10
0.0
 20
0.0
 30
0.0
  3
*D10
  1

  0
TEXT
  5
4B1
  8
SIZE
  6
CONTINUOUS
 10
-145.469726501304
 20
-353.3678649663924
 30
0.0
 40
2.799999952316284
  1
285
 50
0.000002504478167
 41
0.6999999829701011
  7
STANDARD1
  0
LINE
  5
4B2
  8
SIZE
  6
CONTINUOUS
 10
-0.029729733243585
 20
18.96486473083496
 30
0.0
 11
-0.029729733243585
 21
-356.3678588867188
 31
0.0
  0
LINE
  5
4B3
  8
SIZE
  6
CONTINUOUS
 10
-285.0297241210938
 20
18.96486473083496
 30
0.0
 11
-285.0297241210938
 21
-356.3678588867188
 31
0.0
  0
LINE
  5
4B4
  8
SIZE
  6
CONTINUOUS
 10
-0.029729733243585
 20
-354.3678588867188
 30
0.0
 11
-285.0297241210938
 21
-354.3678588867188
 31
0.0
  0
CIRCLE
  5
4B5
  8
SIZE
  6
CONTINUOUS
 10
-0.029729733243585
 20
-354.3678588867188
 30
0.0
 40
0.5
  0
CIRCLE
  5
4B6
  8
SIZE
  6
CONTINUOUS
 10
-0.029729733243585
 20
-354.3678588867188
 30
0.0
 40
0.4
  0
CIRCLE
  5
4B7
  8
SIZE
  6
CONTINUOUS
 10
-0.029729733243585
 20
-354.3678588867188
 30
0.0
 40
0.3
  0
CIRCLE
  5
4B8
  8
SIZE
  6
CONTINUOUS
 10
-0.029729733243585
 20
-354.3678588867188
 30
0.0
 40
0.2
  0
CIRCLE
  5
4B9
  8
SIZE
  6
CONTINUOUS
 10
-0.029729733243585
 20
-354.3678588867188
 30
0.0
 40
0.1
  0
CIRCLE
  5
4BA
  8
SIZE
  6
CONTINUOUS
 10
-285.0297241210938
 20
-354.3678588867188
 30
0.0
 40
0.5
  0
CIRCLE
  5
4BB
  8
SIZE
  6
CONTINUOUS
 10
-285.0297241210938
 20
-354.3678588867188
 30
0.0
 40
0.4
  0
CIRCLE
  5
4BC
  8
SIZE
  6
CONTINUOUS
 10
-285.0297241210938
 20
-354.3678588867188
 30
0.0
 40
0.3
  0
CIRCLE
  5
4BD
  8
SIZE
  6
CONTINUOUS
 10
-285.0297241210938
 20
-354.3678588867188
 30
0.0
 40
0.2
  0
CIRCLE
  5
4BE
  8
SIZE
  6
CONTINUOUS
 10
-285.0297241210938
 20
-354.3678588867188
 30
0.0
 40
0.1
  0
POINT
  5
4BF
  8
DEFPOINTS
  6
BYBLOCK
 10
-285.0297241210938
 20
19.96486473083496
 30
0.0
  0
POINT
  5
4C0
  8
DEFPOINTS
  6
BYBLOCK
 10
-0.029729733243585
 20
19.96486473083496
 30
0.0
  0
POINT
  5
4C1
  8
DEFPOINTS
  6
BYBLOCK
 10
-0.029729733243585
 20
-354.3678588867188
 30
0.0
  0
ENDBLK
  5
4C2
  8
SIZE
  0
BLOCK
  8
SIZE
  2
*D11
 70
     1
 10
0.0
 20
0.0
 30
0.0
  3
*D11
  1

  0
TEXT
  5
4C5
  8
SIZE
  6
CONTINUOUS
 10
-600.1849609613417
 20
200.0248566897747
 30
0.0
 40
2.799999952316284
  1
406
 50
90.00000500895634
 41
0.6999999829701011
  7
STANDARD1
  0
LINE
  5
4C6
  8
SIZE
  6
CONTINUOUS
 10
-236.0297241210937
 20
405.964874267578
 30
0.0
 11
-601.1849365234375
 21
405.964874267578
 31
0.0
  0
LINE
  5
4C7
  8
SIZE
  6
CONTINUOUS
 10
-318.0297241210937
 20
-0.035135135054588
 30
0.0
 11
-601.1849365234375
 21
-0.035135135054588
 31
0.0
  0
LINE
  5
4C8
  8
SIZE
  6
CONTINUOUS
 10
-599.1849365234376
 20
405.964874267578
 30
0.0
 11
-599.1849365234376
 21
-0.035135135054588
 31
0.0
  0
CIRCLE
  5
4C9
  8
SIZE
  6
CONTINUOUS
 10
-599.1849365234376
 20
405.964874267578
 30
0.0
 40
0.5
  0
CIRCLE
  5
4CA
  8
SIZE
  6
CONTINUOUS
 10
-599.1849365234376
 20
405.964874267578
 30
0.0
 40
0.4
  0
CIRCLE
  5
4CB
  8
SIZE
  6
CONTINUOUS
 10
-599.1849365234376
 20
405.964874267578
 30
0.0
 40
0.3
  0
CIRCLE
  5
4CC
  8
SIZE
  6
CONTINUOUS
 10
-599.1849365234376
 20
405.964874267578
 30
0.0
 40
0.2
  0
CIRCLE
  5
4CD
  8
SIZE
  6
CONTINUOUS
 10
-599.1849365234376
 20
405.964874267578
 30
0.0
 40
0.1
  0
CIRCLE
  5
4CE
  8
SIZE
  6
CONTINUOUS
 10
-599.1849365234376
 20
-0.035135135054588
 30
0.0
 40
0.5
  0
CIRCLE
  5
4CF
  8
SIZE
  6
CONTINUOUS
 10
-599.1849365234376
 20
-0.035135135054588
 30
0.0
 40
0.4
  0
CIRCLE
  5
4D0
  8
SIZE
  6
CONTINUOUS
 10
-599.1849365234376
 20
-0.035135135054588
 30
0.0
 40
0.3
  0
CIRCLE
  5
4D1
  8
SIZE
  6
CONTINUOUS
 10
-599.1849365234376
 20
-0.035135135054588
 30
0.0
 40
0.2
  0
CIRCLE
  5
4D2
  8
SIZE
  6
CONTINUOUS
 10
-599.1849365234376
 20
-0.035135135054588
 30
0.0
 40
0.1
  0
POINT
  5
4D3
  8
DEFPOINTS
  6
BYBLOCK
 10
-317.0297241210937
 20
-0.035135135054588
 30
0.0
  0
POINT
  5
4D4
  8
DEFPOINTS
  6
BYBLOCK
 10
-235.0297241210937
 20
405.964874267578
 30
0.0
  0
POINT
  5
4D5
  8
DEFPOINTS
  6
BYBLOCK
 10
-599.1849365234376
 20
405.964874267578
 30
0.0
  0
ENDBLK
  5
4D6
  8
SIZE
  0
BLOCK
  8
SIZE
  2
*D12
 70
     1
 10
0.0
 20
0.0
 30
0.0
  3
*D12
  1

  0
TEXT
  5
4D9
  8
SIZE
  6
CONTINUOUS
 10
-738.1844116449356
 20
404.5248719485638
 30
0.0
 40
2.799999952316284
  1
815
 50
90.00000500895634
 41
0.6999999829701011
  7
STANDARD1
  0
LINE
  5
4DA
  8
SIZE
  6
CONTINUOUS
 10
98.97026824951172
 20
814.9648437499999
 30
0.0
 11
-739.1843872070312
 21
814.9648437499999
 31
0.0
  0
LINE
  5
4DB
  8
SIZE
  6
CONTINUOUS
 10
-318.0297241210937
 20
-0.035135135054588
 30
0.0
 11
-739.1843872070312
 21
-0.035135135054588
 31
0.0
  0
LINE
  5
4DC
  8
SIZE
  6
CONTINUOUS
 10
-737.1843872070312
 20
814.9648437499999
 30
0.0
 11
-737.1843872070312
 21
-0.035135135054588
 31
0.0
  0
CIRCLE
  5
4DD
  8
SIZE
  6
CONTINUOUS
 10
-737.1843872070312
 20
814.9648437499999
 30
0.0
 40
0.5
  0
CIRCLE
  5
4DE
  8
SIZE
  6
CONTINUOUS
 10
-737.1843872070312
 20
814.9648437499999
 30
0.0
 40
0.4
  0
CIRCLE
  5
4DF
  8
SIZE
  6
CONTINUOUS
 10
-737.1843872070312
 20
814.9648437499999
 30
0.0
 40
0.3
  0
CIRCLE
  5
4E0
  8
SIZE
  6
CONTINUOUS
 10
-737.1843872070312
 20
814.9648437499999
 30
0.0
 40
0.2
  0
CIRCLE
  5
4E1
  8
SIZE
  6
CONTINUOUS
 10
-737.1843872070312
 20
814.9648437499999
 30
0.0
 40
0.1
  0
CIRCLE
  5
4E2
  8
SIZE
  6
CONTINUOUS
 10
-737.1843872070312
 20
-0.035135135054588
 30
0.0
 40
0.5
  0
CIRCLE
  5
4E3
  8
SIZE
  6
CONTINUOUS
 10
-737.1843872070312
 20
-0.035135135054588
 30
0.0
 40
0.4
  0
CIRCLE
  5
4E4
  8
SIZE
  6
CONTINUOUS
 10
-737.1843872070312
 20
-0.035135135054588
 30
0.0
 40
0.3
  0
CIRCLE
  5
4E5
  8
SIZE
  6
CONTINUOUS
 10
-737.1843872070312
 20
-0.035135135054588
 30
0.0
 40
0.2
  0
CIRCLE
  5
4E6
  8
SIZE
  6
CONTINUOUS
 10
-737.1843872070312
 20
-0.035135135054588
 30
0.0
 40
0.1
  0
POINT
  5
4E7
  8
DEFPOINTS
  6
BYBLOCK
 10
-317.0297241210937
 20
-0.035135135054588
 30
0.0
  0
POINT
  5
4E8
  8
DEFPOINTS
  6
BYBLOCK
 10
99.97026824951172
 20
814.9648437499999
 30
0.0
  0
POINT
  5
4E9
  8
DEFPOINTS
  6
BYBLOCK
 10
-737.1843872070312
 20
814.9648437499999
 30
0.0
  0
ENDBLK
  5
4EA
  8
SIZE
  0
BLOCK
  8
SIZE
  2
*D13
 70
     1
 10
0.0
 20
0.0
 30
0.0
  3
*D13
  1

  0
TEXT
  5
4ED
  8
SIZE
  6
CONTINUOUS
 10
448.97028195858
 20
-92.62260424772526
 30
0.0
 40
2.799999952316284
  1
15
 50
90.00000500895634
 41
0.6999999829701011
  7
STANDARD1
  0
LINE
  5
4EE
  8
SIZE
  6
CONTINUOUS
 10
20.2702693939209
 20
-15.03513526916504
 30
0.0
 11
451.9702758789063
 21
-15.03513526916504
 31
0.0
  0
LINE
  5
4EF
  8
SIZE
  6
CONTINUOUS
 10
100.9702682495117
 20
-0.035135135054588
 30
0.0
 11
451.9702758789063
 21
-0.035135135054588
 31
0.0
  0
LINE
  5
4F0
  8
SIZE
  6
CONTINUOUS
 10
449.9702758789062
 20
-94.02260589599608
 30
0.0
 11
449.9702758789062
 21
4.96486473083496
 31
0.0
  0
CIRCLE
  5
4F1
  8
SIZE
  6
CONTINUOUS
 10
449.9702758789062
 20
-15.03513526916504
 30
0.0
 40
0.5
  0
CIRCLE
  5
4F2
  8
SIZE
  6
CONTINUOUS
 10
449.9702758789062
 20
-15.03513526916504
 30
0.0
 40
0.4
  0
CIRCLE
  5
4F3
  8
SIZE
  6
CONTINUOUS
 10
449.9702758789062
 20
-15.03513526916504
 30
0.0
 40
0.3
  0
CIRCLE
  5
4F4
  8
SIZE
  6
CONTINUOUS
 10
449.9702758789062
 20
-15.03513526916504
 30
0.0
 40
0.2
  0
CIRCLE
  5
4F5
  8
SIZE
  6
CONTINUOUS
 10
449.9702758789062
 20
-15.03513526916504
 30
0.0
 40
0.1
  0
CIRCLE
  5
4F6
  8
SIZE
  6
CONTINUOUS
 10
449.9702758789062
 20
-0.035135135054588
 30
0.0
 40
0.5
  0
CIRCLE
  5
4F7
  8
SIZE
  6
CONTINUOUS
 10
449.9702758789062
 20
-0.035135135054588
 30
0.0
 40
0.4
  0
CIRCLE
  5
4F8
  8
SIZE
  6
CONTINUOUS
 10
449.9702758789062
 20
-0.035135135054588
 30
0.0
 40
0.3
  0
CIRCLE
  5
4F9
  8
SIZE
  6
CONTINUOUS
 10
449.9702758789062
 20
-0.035135135054588
 30
0.0
 40
0.2
  0
CIRCLE
  5
4FA
  8
SIZE
  6
CONTINUOUS
 10
449.9702758789062
 20
-0.035135135054588
 30
0.0
 40
0.1
  0
POINT
  5
4FB
  8
DEFPOINTS
  6
BYBLOCK
 10
99.97026824951172
 20
-0.035135135054588
 30
0.0
  0
POINT
  5
4FC
  8
DEFPOINTS
  6
BYBLOCK
 10
19.27026939392089
 20
-15.03513526916504
 30
0.0
  0
POINT
  5
4FD
  8
DEFPOINTS
  6
BYBLOCK
 10
449.9702758789062
 20
-15.03513526916504
 30
0.0
  0
ENDBLK
  5
4FE
  8
SIZE
  0
BLOCK
  8
SIZE
  2
*D14
 70
     1
 10
0.0
 20
0.0
 30
0.0
  3
*D14
  1

  0
TEXT
  5
501
  8
SIZE
  6
CONTINUOUS
 10
-147.469726501304
 20
-549.0351318120958
 30
0.0
 40
2.799999952316284
  1
345
 50
0.000002504478167
 41
0.6999999829701011
  7
STANDARD1
  0
LINE
  5
502
  8
SIZE
  6
CONTINUOUS
 10
27.97027015686035
 20
-1.035135135054588
 30
0.0
 11
27.97027015686035
 21
-552.03515625
 31
0.0
  0
LINE
  5
503
  8
SIZE
  6
CONTINUOUS
 10
-317.0297241210937
 20
-1.035135135054588
 30
0.0
 11
-317.0297241210937
 21
-552.03515625
 31
0.0
  0
LINE
  5
504
  8
SIZE
  6
CONTINUOUS
 10
27.97027015686035
 20
-550.0351562499999
 30
0.0
 11
-317.0297241210937
 21
-550.0351562499999
 31
0.0
  0
CIRCLE
  5
505
  8
SIZE
  6
CONTINUOUS
 10
27.97027015686035
 20
-550.0351562499999
 30
0.0
 40
0.5
  0
CIRCLE
  5
506
  8
SIZE
  6
CONTINUOUS
 10
27.97027015686035
 20
-550.0351562499999
 30
0.0
 40
0.4
  0
CIRCLE
  5
507
  8
SIZE
  6
CONTINUOUS
 10
27.97027015686035
 20
-550.0351562499999
 30
0.0
 40
0.3
  0
CIRCLE
  5
508
  8
SIZE
  6
CONTINUOUS
 10
27.97027015686035
 20
-550.0351562499999
 30
0.0
 40
0.2
  0
CIRCLE
  5
509
  8
SIZE
  6
CONTINUOUS
 10
27.97027015686035
 20
-550.0351562499999
 30
0.0
 40
0.1
  0
CIRCLE
  5
50A
  8
SIZE
  6
CONTINUOUS
 10
-317.0297241210937
 20
-550.0351562499999
 30
0.0
 40
0.5
  0
CIRCLE
  5
50B
  8
SIZE
  6
CONTINUOUS
 10
-317.0297241210937
 20
-550.0351562499999
 30
0.0
 40
0.4
  0
CIRCLE
  5
50C
  8
SIZE
  6
CONTINUOUS
 10
-317.0297241210937
 20
-550.0351562499999
 30
0.0
 40
0.3
  0
CIRCLE
  5
50D
  8
SIZE
  6
CONTINUOUS
 10
-317.0297241210937
 20
-550.0351562499999
 30
0.0
 40
0.2
  0
CIRCLE
  5
50E
  8
SIZE
  6
CONTINUOUS
 10
-317.0297241210937
 20
-550.0351562499999
 30
0.0
 40
0.1
  0
POINT
  5
50F
  8
DEFPOINTS
  6
BYBLOCK
 10
-317.0297241210937
 20
-0.035135135054588
 30
0.0
  0
POINT
  5
510
  8
DEFPOINTS
  6
BYBLOCK
 10
27.97027015686035
 20
-0.035135135054588
 30
0.0
  0
POINT
  5
511
  8
DEFPOINTS
  6
BYBLOCK
 10
27.97027015686035
 20
-550.0351562499999
 30
0.0
  0
ENDBLK
  5
512
  8
SIZE
  0
BLOCK
  8
SIZE
  2
*D15
 70
     1
 10
0.0
 20
0.0
 30
0.0
  3
*D15
  1

  0
TEXT
  5
515
  8
SIZE
  6
CONTINUOUS
 10
-386.02971804142
 20
58.34953701814384
 30
0.0
 40
2.799999952316284
  1
8
 50
90.00000500895634
 41
0.6999999829701011
  7
STANDARD1
  0
LINE
  5
516
  8
SIZE
  6
CONTINUOUS
 10
-318.0297241210937
 20
-0.035135135054588
 30
0.0
 11
-387.0297241210938
 21
-0.035135135054588
 31
0.0
  0
LINE
  5
517
  8
SIZE
  6
CONTINUOUS
 10
-318.0297241210937
 20
7.96486473083496
 30
0.0
 11
-387.0297241210938
 21
7.96486473083496
 31
0.0
  0
LINE
  5
518
  8
SIZE
  6
CONTINUOUS
 10
-385.0297241210938
 20
-5.035135269165039
 30
0.0
 11
-385.0297241210938
 21
61.70953750610352
 31
0.0
  0
CIRCLE
  5
519
  8
SIZE
  6
CONTINUOUS
 10
-385.0297241210938
 20
-0.035135135054588
 30
0.0
 40
0.5
  0
CIRCLE
  5
51A
  8
SIZE
  6
CONTINUOUS
 10
-385.0297241210938
 20
-0.035135135054588
 30
0.0
 40
0.4
  0
CIRCLE
  5
51B
  8
SIZE
  6
CONTINUOUS
 10
-385.0297241210938
 20
-0.035135135054588
 30
0.0
 40
0.3
  0
CIRCLE
  5
51C
  8
SIZE
  6
CONTINUOUS
 10
-385.0297241210938
 20
-0.035135135054588
 30
0.0
 40
0.2
  0
CIRCLE
  5
51D
  8
SIZE
  6
CONTINUOUS
 10
-385.0297241210938
 20
-0.035135135054588
 30
0.0
 40
0.1
  0
CIRCLE
  5
51E
  8
SIZE
  6
CONTINUOUS
 10
-385.0297241210938
 20
7.96486473083496
 30
0.0
 40
0.5
  0
CIRCLE
  5
51F
  8
SIZE
  6
CONTINUOUS
 10
-385.0297241210938
 20
7.96486473083496
 30
0.0
 40
0.4
  0
CIRCLE
  5
520
  8
SIZE
  6
CONTINUOUS
 10
-385.0297241210938
 20
7.96486473083496
 30
0.0
 40
0.3
  0
CIRCLE
  5
521
  8
SIZE
  6
CONTINUOUS
 10
-385.0297241210938
 20
7.96486473083496
 30
0.0
 40
0.2
  0
CIRCLE
  5
522
  8
SIZE
  6
CONTINUOUS
 10
-385.0297241210938
 20
7.96486473083496
 30
0.0
 40
0.1
  0
POINT
  5
523
  8
DEFPOINTS
  6
BYBLOCK
 10
-317.0297241210937
 20
7.96486473083496
 30
0.0
  0
POINT
  5
524
  8
DEFPOINTS
  6
BYBLOCK
 10
-317.0297241210937
 20
-0.035135135054588
 30
0.0
  0
POINT
  5
525
  8
DEFPOINTS
  6
BYBLOCK
 10
-385.0297241210938
 20
-0.035135135054588
 30
0.0
  0
ENDBLK
  5
526
  8
SIZE
  0
BLOCK
  8
SIZE
  2
*D16
 70
     1
 10
0.0
 20
0.0
 30
0.0
  3
*D16
  1

  0
TEXT
  5
529
  8
SIZE
  6
CONTINUOUS
 10
-72.16166680892125
 20
-249.0351470708847
 30
0.0
 40
2.799999952316284
  1
28
 50
0.000002504478167
 41
0.6999999829701011
  7
STANDARD1
  0
LINE
  5
52A
  8
SIZE
  6
CONTINUOUS
 10
27.97027015686035
 20
0.9648648500442502
 30
0.0
 11
27.97027015686035
 21
-252.0351409912109
 31
0.0
  0
LINE
  5
52B
  8
SIZE
  6
CONTINUOUS
 10
-0.029729733243585
 20
-1.035135135054588
 30
0.0
 11
-0.029729733243585
 21
-252.0351409912109
 31
0.0
  0
LINE
  5
52C
  8
SIZE
  6
CONTINUOUS
 10
32.97026824951172
 20
-250.0351409912109
 30
0.0
 11
-73.5616683959961
 21
-250.0351409912109
 31
0.0
  0
CIRCLE
  5
52D
  8
SIZE
  6
CONTINUOUS
 10
27.97027015686035
 20
-250.0351409912109
 30
0.0
 40
0.5
  0
CIRCLE
  5
52E
  8
SIZE
  6
CONTINUOUS
 10
27.97027015686035
 20
-250.0351409912109
 30
0.0
 40
0.4
  0
CIRCLE
  5
52F
  8
SIZE
  6
CONTINUOUS
 10
27.97027015686035
 20
-250.0351409912109
 30
0.0
 40
0.3
  0
CIRCLE
  5
530
  8
SIZE
  6
CONTINUOUS
 10
27.97027015686035
 20
-250.0351409912109
 30
0.0
 40
0.2
  0
CIRCLE
  5
531
  8
SIZE
  6
CONTINUOUS
 10
27.97027015686035
 20
-250.0351409912109
 30
0.0
 40
0.1
  0
CIRCLE
  5
532
  8
SIZE
  6
CONTINUOUS
 10
-0.029729733243585
 20
-250.0351409912109
 30
0.0
 40
0.5
  0
CIRCLE
  5
533
  8
SIZE
  6
CONTINUOUS
 10
-0.029729733243585
 20
-250.0351409912109
 30
0.0
 40
0.4
  0
CIRCLE
  5
534
  8
SIZE
  6
CONTINUOUS
 10
-0.029729733243585
 20
-250.0351409912109
 30
0.0
 40
0.3
  0
CIRCLE
  5
535
  8
SIZE
  6
CONTINUOUS
 10
-0.029729733243585
 20
-250.0351409912109
 30
0.0
 40
0.2
  0
CIRCLE
  5
536
  8
SIZE
  6
CONTINUOUS
 10
-0.029729733243585
 20
-250.0351409912109
 30
0.0
 40
0.1
  0
POINT
  5
537
  8
DEFPOINTS
  6
BYBLOCK
 10
-0.029729733243585
 20
-0.035135135054588
 30
0.0
  0
POINT
  5
538
  8
DEFPOINTS
  6
BYBLOCK
 10
27.97027015686035
 20
1.964864850044251
 30
0.0
  0
POINT
  5
539
  8
DEFPOINTS
  6
BYBLOCK
 10
27.97027015686035
 20
-250.0351409912109
 30
0.0
  0
ENDBLK
  5
53A
  8
SIZE
  0
BLOCK
  8
SIZE
  2
*D17
 70
     1
 10
0.0
 20
0.0
 30
0.0
  3
*D17
  1

  0
TEXT
  5
53D
  8
SIZE
  6
CONTINUOUS
 10
-176.1829680784524
 20
-449.0351623296738
 30
0.0
 40
2.799999952316284
  1
315
 50
0.000002504478167
 41
0.6999999829701011
  7
STANDARD1
  0
LINE
  5
53E
  8
SIZE
  6
CONTINUOUS
 10
9.970270156860352
 20
-21.03513526916504
 30
0.0
 11
9.970270156860352
 21
-452.03515625
 31
0.0
  0
LINE
  5
53F
  8
SIZE
  6
CONTINUOUS
 10
-305.0297241210937
 20
-21.03513526916504
 30
0.0
 11
-305.0297241210937
 21
-452.03515625
 31
0.0
  0
LINE
  5
540
  8
SIZE
  6
CONTINUOUS
 10
9.970270156860352
 20
-450.0351562499999
 30
0.0
 11
-305.0297241210937
 21
-450.0351562499999
 31
0.0
  0
CIRCLE
  5
541
  8
SIZE
  6
CONTINUOUS
 10
9.970270156860352
 20
-450.0351562499999
 30
0.0
 40
0.5
  0
CIRCLE
  5
542
  8
SIZE
  6
CONTINUOUS
 10
9.970270156860352
 20
-450.0351562499999
 30
0.0
 40
0.4
  0
CIRCLE
  5
543
  8
SIZE
  6
CONTINUOUS
 10
9.970270156860352
 20
-450.0351562499999
 30
0.0
 40
0.3
  0
CIRCLE
  5
544
  8
SIZE
  6
CONTINUOUS
 10
9.970270156860352
 20
-450.0351562499999
 30
0.0
 40
0.2
  0
CIRCLE
  5
545
  8
SIZE
  6
CONTINUOUS
 10
9.970270156860352
 20
-450.0351562499999
 30
0.0
 40
0.1
  0
CIRCLE
  5
546
  8
SIZE
  6
CONTINUOUS
 10
-305.0297241210937
 20
-450.0351562499999
 30
0.0
 40
0.5
  0
CIRCLE
  5
547
  8
SIZE
  6
CONTINUOUS
 10
-305.0297241210937
 20
-450.0351562499999
 30
0.0
 40
0.4
  0
CIRCLE
  5
548
  8
SIZE
  6
CONTINUOUS
 10
-305.0297241210937
 20
-450.0351562499999
 30
0.0
 40
0.3
  0
CIRCLE
  5
549
  8
SIZE
  6
CONTINUOUS
 10
-305.0297241210937
 20
-450.0351562499999
 30
0.0
 40
0.2
  0
CIRCLE
  5
54A
  8
SIZE
  6
CONTINUOUS
 10
-305.0297241210937
 20
-450.0351562499999
 30
0.0
 40
0.1
  0
POINT
  5
54B
  8
DEFPOINTS
  6
BYBLOCK
 10
-305.0297241210937
 20
-20.03513526916504
 30
0.0
  0
POINT
  5
54C
  8
DEFPOINTS
  6
BYBLOCK
 10
9.970270156860352
 20
-20.03513526916504
 30
0.0
  0
POINT
  5
54D
  8
DEFPOINTS
  6
BYBLOCK
 10
9.970270156860352
 20
-450.0351562499999
 30
0.0
  0
ENDBLK
  5
54E
  8
SIZE
  0
BLOCK
  8
SIZE
  2
*D18
 70
     1
 10
0.0
 20
0.0
 30
0.0
  3
*D18
  1

  0
TEXT
  5
551
  8
SIZE
  6
CONTINUOUS
 10
-237.969726501304
 20
-149.2899688482284
 30
0.0
 40
2.799999952316284
  1
164
 50
0.000002504478167
 41
0.6999999829701011
  7
STANDARD1
  0
LINE
  5
552
  8
SIZE
  6
CONTINUOUS
 10
-317.0297241210937
 20
-1.035135135054588
 30
0.0
 11
-317.0297241210937
 21
-152.2899627685547
 31
0.0
  0
LINE
  5
553
  8
SIZE
  6
CONTINUOUS
 10
-153.0297241210937
 20
225.964859008789
 30
0.0
 11
-153.0297241210937
 21
-152.2899627685547
 31
0.0
  0
LINE
  5
554
  8
SIZE
  6
CONTINUOUS
 10
-317.0297241210937
 20
-150.2899627685547
 30
0.0
 11
-153.0297241210937
 21
-150.2899627685547
 31
0.0
  0
CIRCLE
  5
555
  8
SIZE
  6
CONTINUOUS
 10
-317.0297241210937
 20
-150.2899627685547
 30
0.0
 40
0.5
  0
CIRCLE
  5
556
  8
SIZE
  6
CONTINUOUS
 10
-317.0297241210937
 20
-150.2899627685547
 30
0.0
 40
0.4
  0
CIRCLE
  5
557
  8
SIZE
  6
CONTINUOUS
 10
-317.0297241210937
 20
-150.2899627685547
 30
0.0
 40
0.3
  0
CIRCLE
  5
558
  8
SIZE
  6
CONTINUOUS
 10
-317.0297241210937
 20
-150.2899627685547
 30
0.0
 40
0.2
  0
CIRCLE
  5
559
  8
SIZE
  6
CONTINUOUS
 10
-317.0297241210937
 20
-150.2899627685547
 30
0.0
 40
0.1
  0
CIRCLE
  5
55A
  8
SIZE
  6
CONTINUOUS
 10
-153.0297241210937
 20
-150.2899627685547
 30
0.0
 40
0.5
  0
CIRCLE
  5
55B
  8
SIZE
  6
CONTINUOUS
 10
-153.0297241210937
 20
-150.2899627685547
 30
0.0
 40
0.4
  0
CIRCLE
  5
55C
  8
SIZE
  6
CONTINUOUS
 10
-153.0297241210937
 20
-150.2899627685547
 30
0.0
 40
0.3
  0
CIRCLE
  5
55D
  8
SIZE
  6
CONTINUOUS
 10
-153.0297241210937
 20
-150.2899627685547
 30
0.0
 40
0.2
  0
CIRCLE
  5
55E
  8
SIZE
  6
CONTINUOUS
 10
-153.0297241210937
 20
-150.2899627685547
 30
0.0
 40
0.1
  0
POINT
  5
55F
  8
DEFPOINTS
  6
BYBLOCK
 10
-153.0297241210937
 20
226.964859008789
 30
0.0
  0
POINT
  5
560
  8
DEFPOINTS
  6
BYBLOCK
 10
-317.0297241210937
 20
-0.035135135054588
 30
0.0
  0
POINT
  5
561
  8
DEFPOINTS
  6
BYBLOCK
 10
-317.0297241210937
 20
-150.2899627685547
 30
0.0
  0
ENDBLK
  5
562
  8
SIZE
  0
BLOCK
  8
SIZE
  2
*D19
 70
     1
 10
0.0
 20
0.0
 30
0.0
  3
*D19
  1

  0
TEXT
  5
565
  8
SIZE
  6
CONTINUOUS
 10
-231.969726501304
 20
-248.8312743902207
 30
0.0
 40
2.799999952316284
  1
176
 50
0.000002504478167
 41
0.6999999829701011
  7
STANDARD1
  0
LINE
  5
566
  8
SIZE
  6
CONTINUOUS
 10
-141.0297241210937
 20
105.9648666381836
 30
0.0
 11
-141.0297241210937
 21
-251.8312683105469
 31
0.0
  0
LINE
  5
567
  8
SIZE
  6
CONTINUOUS
 10
-317.0297241210937
 20
-1.035135135054588
 30
0.0
 11
-317.0297241210937
 21
-251.8312683105469
 31
0.0
  0
LINE
  5
568
  8
SIZE
  6
CONTINUOUS
 10
-141.0297241210937
 20
-249.8312683105469
 30
0.0
 11
-317.0297241210937
 21
-249.8312683105469
 31
0.0
  0
CIRCLE
  5
569
  8
SIZE
  6
CONTINUOUS
 10
-141.0297241210937
 20
-249.8312683105469
 30
0.0
 40
0.5
  0
CIRCLE
  5
56A
  8
SIZE
  6
CONTINUOUS
 10
-141.0297241210937
 20
-249.8312683105469
 30
0.0
 40
0.4
  0
CIRCLE
  5
56B
  8
SIZE
  6
CONTINUOUS
 10
-141.0297241210937
 20
-249.8312683105469
 30
0.0
 40
0.3
  0
CIRCLE
  5
56C
  8
SIZE
  6
CONTINUOUS
 10
-141.0297241210937
 20
-249.8312683105469
 30
0.0
 40
0.2
  0
CIRCLE
  5
56D
  8
SIZE
  6
CONTINUOUS
 10
-141.0297241210937
 20
-249.8312683105469
 30
0.0
 40
0.1
  0
CIRCLE
  5
56E
  8
SIZE
  6
CONTINUOUS
 10
-317.0297241210937
 20
-249.8312683105469
 30
0.0
 40
0.5
  0
CIRCLE
  5
56F
  8
SIZE
  6
CONTINUOUS
 10
-317.0297241210937
 20
-249.8312683105469
 30
0.0
 40
0.4
  0
CIRCLE
  5
570
  8
SIZE
  6
CONTINUOUS
 10
-317.0297241210937
 20
-249.8312683105469
 30
0.0
 40
0.3
  0
CIRCLE
  5
571
  8
SIZE
  6
CONTINUOUS
 10
-317.0297241210937
 20
-249.8312683105469
 30
0.0
 40
0.2
  0
CIRCLE
  5
572
  8
SIZE
  6
CONTINUOUS
 10
-317.0297241210937
 20
-249.8312683105469
 30
0.0
 40
0.1
  0
POINT
  5
573
  8
DEFPOINTS
  6
BYBLOCK
 10
-317.0297241210937
 20
-0.035135135054588
 30
0.0
  0
POINT
  5
574
  8
DEFPOINTS
  6
BYBLOCK
 10
-141.0297241210937
 20
106.9648666381836
 30
0.0
  0
POINT
  5
575
  8
DEFPOINTS
  6
BYBLOCK
 10
-141.0297241210937
 20
-249.8312683105469
 30
0.0
  0
ENDBLK
  5
576
  8
SIZE
  0
BLOCK
  8
SIZE
  2
*D20
 70
     1
 10
0.0
 20
0.0
 30
0.0
  3
*D20
  1

  0
TEXT
  5
579
  8
SIZE
  6
CONTINUOUS
 10
337.5681518316269
 20
100.5248643191692
 30
0.0
 40
2.799999952316284
  1
207
 50
90.00000500895634
 41
0.6999999829701011
  7
STANDARD1
  0
LINE
  5
57A
  8
SIZE
  6
CONTINUOUS
 10
-132.0297241210937
 20
206.964859008789
 30
0.0
 11
340.5681457519532
 21
206.964859008789
 31
0.0
  0
LINE
  5
57B
  8
SIZE
  6
CONTINUOUS
 10
33.97027206420899
 20
-0.035135135054588
 30
0.0
 11
340.5681457519532
 21
-0.035135135054588
 31
0.0
  0
LINE
  5
57C
  8
SIZE
  6
CONTINUOUS
 10
338.5681457519532
 20
206.964859008789
 30
0.0
 11
338.5681457519532
 21
-0.035135135054588
 31
0.0
  0
CIRCLE
  5
57D
  8
SIZE
  6
CONTINUOUS
 10
338.5681457519532
 20
206.964859008789
 30
0.0
 40
0.5
  0
CIRCLE
  5
57E
  8
SIZE
  6
CONTINUOUS
 10
338.5681457519532
 20
206.964859008789
 30
0.0
 40
0.4
  0
CIRCLE
  5
57F
  8
SIZE
  6
CONTINUOUS
 10
338.5681457519532
 20
206.964859008789
 30
0.0
 40
0.3
  0
CIRCLE
  5
580
  8
SIZE
  6
CONTINUOUS
 10
338.5681457519532
 20
206.964859008789
 30
0.0
 40
0.2
  0
CIRCLE
  5
581
  8
SIZE
  6
CONTINUOUS
 10
338.5681457519532
 20
206.964859008789
 30
0.0
 40
0.1
  0
CIRCLE
  5
582
  8
SIZE
  6
CONTINUOUS
 10
338.5681457519532
 20
-0.035135135054588
 30
0.0
 40
0.5
  0
CIRCLE
  5
583
  8
SIZE
  6
CONTINUOUS
 10
338.5681457519532
 20
-0.035135135054588
 30
0.0
 40
0.4
  0
CIRCLE
  5
584
  8
SIZE
  6
CONTINUOUS
 10
338.5681457519532
 20
-0.035135135054588
 30
0.0
 40
0.3
  0
CIRCLE
  5
585
  8
SIZE
  6
CONTINUOUS
 10
338.5681457519532
 20
-0.035135135054588
 30
0.0
 40
0.2
  0
CIRCLE
  5
586
  8
SIZE
  6
CONTINUOUS
 10
338.5681457519532
 20
-0.035135135054588
 30
0.0
 40
0.1
  0
POINT
  5
587
  8
DEFPOINTS
  6
BYBLOCK
 10
32.97027206420898
 20
-0.035135135054588
 30
0.0
  0
POINT
  5
588
  8
DEFPOINTS
  6
BYBLOCK
 10
-133.0297241210937
 20
206.964859008789
 30
0.0
  0
POINT
  5
589
  8
DEFPOINTS
  6
BYBLOCK
 10
338.5681457519532
 20
206.964859008789
 30
0.0
  0
ENDBLK
  5
58A
  8
SIZE
  0
BLOCK
  8
SIZE
  2
*D21
 70
     1
 10
0.0
 20
0.0
 30
0.0
  3
*D21
  1

  0
TEXT
  5
58D
  8
SIZE
  6
CONTINUOUS
 10
229.8752197027206
 20
60.5248681338665
 30
0.0
 40
2.799999952316284
  1
127
 50
90.00000500895634
 41
0.6999999829701011
  7
STANDARD1
  0
LINE
  5
58E
  8
SIZE
  6
CONTINUOUS
 10
-120.0297317504882
 20
126.9648666381836
 30
0.0
 11
232.8752136230469
 21
126.9648666381836
 31
0.0
  0
LINE
  5
58F
  8
SIZE
  6
CONTINUOUS
 10
33.97027206420899
 20
-0.035135135054588
 30
0.0
 11
232.8752136230469
 21
-0.035135135054588
 31
0.0
  0
LINE
  5
590
  8
SIZE
  6
CONTINUOUS
 10
230.8752136230469
 20
126.9648666381836
 30
0.0
 11
230.8752136230469
 21
-0.035135135054588
 31
0.0
  0
CIRCLE
  5
591
  8
SIZE
  6
CONTINUOUS
 10
230.8752136230469
 20
126.9648666381836
 30
0.0
 40
0.5
  0
CIRCLE
  5
592
  8
SIZE
  6
CONTINUOUS
 10
230.8752136230469
 20
126.9648666381836
 30
0.0
 40
0.4
  0
CIRCLE
  5
593
  8
SIZE
  6
CONTINUOUS
 10
230.8752136230469
 20
126.9648666381836
 30
0.0
 40
0.3
  0
CIRCLE
  5
594
  8
SIZE
  6
CONTINUOUS
 10
230.8752136230469
 20
126.9648666381836
 30
0.0
 40
0.2
  0
CIRCLE
  5
595
  8
SIZE
  6
CONTINUOUS
 10
230.8752136230469
 20
126.9648666381836
 30
0.0
 40
0.1
  0
CIRCLE
  5
596
  8
SIZE
  6
CONTINUOUS
 10
230.8752136230469
 20
-0.035135135054588
 30
0.0
 40
0.5
  0
CIRCLE
  5
597
  8
SIZE
  6
CONTINUOUS
 10
230.8752136230469
 20
-0.035135135054588
 30
0.0
 40
0.4
  0
CIRCLE
  5
598
  8
SIZE
  6
CONTINUOUS
 10
230.8752136230469
 20
-0.035135135054588
 30
0.0
 40
0.3
  0
CIRCLE
  5
599
  8
SIZE
  6
CONTINUOUS
 10
230.8752136230469
 20
-0.035135135054588
 30
0.0
 40
0.2
  0
CIRCLE
  5
59A
  8
SIZE
  6
CONTINUOUS
 10
230.8752136230469
 20
-0.035135135054588
 30
0.0
 40
0.1
  0
POINT
  5
59B
  8
DEFPOINTS
  6
BYBLOCK
 10
32.97027206420898
 20
-0.035135135054588
 30
0.0
  0
POINT
  5
59C
  8
DEFPOINTS
  6
BYBLOCK
 10
-121.0297317504883
 20
126.9648666381836
 30
0.0
  0
POINT
  5
59D
  8
DEFPOINTS
  6
BYBLOCK
 10
230.8752136230469
 20
126.9648666381836
 30
0.0
  0
ENDBLK
  5
59E
  8
SIZE
  0
BLOCK
  8
0
  2
_ORIGIN
 70
     0
 10
0.0
 20
0.0
 30
0.0
  3
_ORIGIN
  1

  0
CIRCLE
  5
5A1
  8
0
  6
BYBLOCK
 62
     0
 10
0.0
 20
0.0
 30
0.0
 40
0.5
  0
LINE
  5
5A2
  8
0
  6
BYBLOCK
 62
     0
 10
0.0
 20
0.0
 30
0.0
 11
-1.0
 21
0.0
 31
0.0
  0
ENDBLK
  5
5A3
  8
0
  0
BLOCK
  8
0
  2
*D23
 70
     1
 10
0.0
 20
0.0
 30
0.0
  3
*D23
  1

  0
LINE
  5
5A6
  8
SIZE
 62
     0
 10
42.97027206420898
 20
-0.0351351350545908
 30
0.0
 11
240.9752136468887
 21
-0.0351351350546469
 31
0.0
  0
LINE
  5
5A7
  8
SIZE
 62
     0
 10
-111.0297317504883
 20
126.9648666381836
 30
0.0
 11
240.9752136468887
 21
126.9648666381835
 31
0.0
  0
LINE
  5
5A8
  8
SIZE
 62
     0
 10
228.4752136468887
 20
9.964864864945357
 30
0.0
 11
228.4752136468888
 21
116.9648666381835
 31
0.0
  0
INSERT
  5
5A9
  8
SIZE
 62
     0
  2
_ORIGIN
 10
228.4752136468887
 20
-0.0351351350546434
 30
0.0
 41
10.0
 42
10.0
 43
10.0
 50
270.0
  0
INSERT
  5
5AA
  8
SIZE
 62
     0
  2
_ORIGIN
 10
228.4752136468888
 20
126.9648666381835
 30
0.0
 41
10.0
 42
10.0
 43
10.0
 50
90.0
  0
TEXT
  5
5AB
  8
SIZE
 62
     0
 10
218.4752136468887
 20
23.7148665157917
 30
0.0
 40
30.0
  1
127
 50
90.0
 72
     1
 11
218.4752136468887
 21
63.4648665157917
 31
0.0
  0
POINT
  5
5AC
  8
DEFPOINTS
 62
     0
 10
32.97027206420898
 20
-0.035135135054588
 30
0.0
  0
POINT
  5
5AD
  8
DEFPOINTS
 62
     0
 10
-121.0297317504883
 20
126.9648666381836
 30
0.0
  0
POINT
  5
5AE
  8
DEFPOINTS
 62
     0
 10
228.4752136468888
 20
126.9648666381835
 30
0.0
  0
ENDBLK
  5
5AF
  8
0
  0
BLOCK
  8
0
  2
*D24
 70
     1
 10
0.0
 20
0.0
 30
0.0
  3
*D24
  1

  0
LINE
  5
5B2
  8
SIZE
 62
     0
 10
42.97027206420898
 20
-0.0351351350545908
 30
0.0
 11
348.6681457757949
 21
-0.0351351350546774
 31
0.0
  0
LINE
  5
5B3
  8
SIZE
 62
     0
 10
-123.0297241210938
 20
206.964859008789
 30
0.0
 11
348.6681457757949
 21
206.9648590087889
 31
0.0
  0
LINE
  5
5B4
  8
SIZE
 62
     0
 10
336.1681457757949
 20
9.964864864945326
 30
0.0
 11
336.168145775795
 21
196.9648590087889
 31
0.0
  0
INSERT
  5
5B5
  8
SIZE
 62
     0
  2
_ORIGIN
 10
336.1681457757949
 20
-0.0351351350546739
 30
0.0
 41
10.0
 42
10.0
 43
10.0
 50
270.0
  0
INSERT
  5
5B6
  8
SIZE
 62
     0
  2
_ORIGIN
 10
336.168145775795
 20
206.9648590087889
 30
0.0
 41
10.0
 42
10.0
 43
10.0
 50
90.0
  0
TEXT
  5
5B7
  8
SIZE
 62
     0
 10
326.1681457757949
 20
61.01486651579171
 30
0.0
 40
30.0
  1
207
 50
90.0
 72
     1
 11
326.1681457757949
 21
103.4648665157917
 31
0.0
  0
POINT
  5
5B8
  8
DEFPOINTS
 62
     0
 10
32.97027206420898
 20
-0.035135135054588
 30
0.0
  0
POINT
  5
5B9
  8
DEFPOINTS
 62
     0
 10
-133.0297241210937
 20
206.964859008789
 30
0.0
  0
POINT
  5
5BA
  8
DEFPOINTS
 62
     0
 10
336.168145775795
 20
206.9648590087889
 30
0.0
  0
ENDBLK
  5
5BB
  8
0
  0
BLOCK
  8
0
  2
*D25
 70
     1
 10
0.0
 20
0.0
 30
0.0
  3
*D25
  1

  0
LINE
  5
5BE
  8
SIZE
 62
     0
 10
-317.0297241210937
 20
-10.03513513505459
 30
0.0
 11
-317.0297241210937
 21
-259.9312683343887
 31
0.0
  0
LINE
  5
5BF
  8
SIZE
 62
     0
 10
-141.0297241210937
 20
96.9648666381836
 30
0.0
 11
-141.0297241210938
 21
-259.9312683343887
 31
0.0
  0
LINE
  5
5C0
  8
SIZE
 62
     0
 10
-307.0297241210937
 20
-247.4312683343887
 30
0.0
 11
-151.0297241210938
 21
-247.4312683343887
 31
0.0
  0
INSERT
  5
5C1
  8
SIZE
 62
     0
  2
_ORIGIN
 10
-317.0297241210937
 20
-247.4312683343887
 30
0.0
 41
10.0
 42
10.0
 43
10.0
 50
180.0
  0
INSERT
  5
5C2
  8
SIZE
 62
     0
  2
_ORIGIN
 10
-141.0297241210938
 20
-247.4312683343887
 30
0.0
 41
10.0
 42
10.0
 43
10.0
  0
TEXT
  5
5C3
  8
SIZE
 62
     0
 10
-268.7797241822897
 20
-237.4312683343887
 30
0.0
 40
30.0
  1
176
 72
     1
 11
-229.0297241822897
 21
-237.4312683343887
 31
0.0
  0
POINT
  5
5C4
  8
DEFPOINTS
 62
     0
 10
-317.0297241210937
 20
-0.035135135054588
 30
0.0
  0
POINT
  5
5C5
  8
DEFPOINTS
 62
     0
 10
-141.0297241210937
 20
106.9648666381836
 30
0.0
  0
POINT
  5
5C6
  8
DEFPOINTS
 62
     0
 10
-141.0297241210938
 20
-247.4312683343887
 30
0.0
  0
ENDBLK
  5
5C7
  8
0
  0
BLOCK
  8
0
  2
*D26
 70
     1
 10
0.0
 20
0.0
 30
0.0
  3
*D26
  1

  0
LINE
  5
5CA
  8
SIZE
 62
     0
 10
-153.0297241210937
 20
216.9648590087891
 30
0.0
 11
-153.0297241210938
 21
-160.3899627923965
 31
0.0
  0
LINE
  5
5CB
  8
SIZE
 62
     0
 10
-317.0297241210937
 20
-10.03513513505459
 30
0.0
 11
-317.0297241210937
 21
-160.3899627923965
 31
0.0
  0
LINE
  5
5CC
  8
SIZE
 62
     0
 10
-163.0297241210937
 20
-147.8899627923965
 30
0.0
 11
-307.0297241210937
 21
-147.8899627923965
 31
0.0
  0
INSERT
  5
5CD
  8
SIZE
 62
     0
  2
_ORIGIN
 10
-153.0297241210938
 20
-147.8899627923965
 30
0.0
 41
10.0
 42
10.0
 43
10.0
  0
INSERT
  5
5CE
  8
SIZE
 62
     0
  2
_ORIGIN
 10
-317.0297241210937
 20
-147.8899627923965
 30
0.0
 41
10.0
 42
10.0
 43
10.0
 50
180.0
  0
TEXT
  5
5CF
  8
SIZE
 62
     0
 10
-274.7797241822897
 20
-137.8899627923965
 30
0.0
 40
30.0
  1
164
 72
     1
 11
-235.0297241822897
 21
-137.8899627923965
 31
0.0
  0
POINT
  5
5D0
  8
DEFPOINTS
 62
     0
 10
-153.0297241210937
 20
226.964859008789
 30
0.0
  0
POINT
  5
5D1
  8
DEFPOINTS
 62
     0
 10
-317.0297241210937
 20
-0.035135135054588
 30
0.0
  0
POINT
  5
5D2
  8
DEFPOINTS
 62
     0
 10
-317.0297241210937
 20
-147.8899627923965
 30
0.0
  0
ENDBLK
  5
5D3
  8
0
  0
BLOCK
  8
0
  2
*D27
 70
     1
 10
0.0
 20
0.0
 30
0.0
  3
*D27
  1

  0
LINE
  5
5D6
  8
SIZE
 62
     0
 10
-305.0297241210937
 20
-30.03513526916504
 30
0.0
 11
-305.0297241210937
 21
-460.1351561453303
 31
0.0
  0
LINE
  5
5D7
  8
SIZE
 62
     0
 10
9.970270156860352
 20
-30.03513526916504
 30
0.0
 11
9.970270156860323
 21
-460.1351561453303
 31
0.0
  0
LINE
  5
5D8
  8
SIZE
 62
     0
 10
-295.0297241210937
 20
-447.6351561453303
 30
0.0
 11
-0.0297298431396751
 21
-447.6351561453303
 31
0.0
  0
INSERT
  5
5D9
  8
SIZE
 62
     0
  2
_ORIGIN
 10
-305.0297241210937
 20
-447.6351561453303
 30
0.0
 41
10.0
 42
10.0
 43
10.0
 50
180.0
  0
INSERT
  5
5DA
  8
SIZE
 62
     0
  2
_ORIGIN
 10
9.970270156860323
 20
-447.6351561453303
 30
0.0
 41
10.0
 42
10.0
 43
10.0
  0
TEXT
  5
5DB
  8
SIZE
 62
     0
 10
-212.9929683224378
 20
-437.6351561453303
 30
0.0
 40
30.0
  1
315
 72
     1
 11
-173.2429683224378
 21
-437.6351561453303
 31
0.0
  0
POINT
  5
5DC
  8
DEFPOINTS
 62
     0
 10
-305.0297241210937
 20
-20.03513526916504
 30
0.0
  0
POINT
  5
5DD
  8
DEFPOINTS
 62
     0
 10
9.970270156860352
 20
-20.03513526916504
 30
0.0
  0
POINT
  5
5DE
  8
DEFPOINTS
 62
     0
 10
9.970270156860323
 20
-447.6351561453303
 30
0.0
  0
ENDBLK
  5
5DF
  8
0
  0
BLOCK
  8
0
  2
*D28
 70
     1
 10
0.0
 20
0.0
 30
0.0
  3
*D28
  1

  0
LINE
  5
5E2
  8
SIZE
 62
     0
 10
-0.0297297332435856
 20
-10.03513513505459
 30
0.0
 11
-0.0297297332436009
 21
-260.1351410150528
 31
0.0
  0
LINE
  5
5E3
  8
SIZE
 62
     0
 10
27.97027015686035
 20
-8.03513514995575
 30
0.0
 11
27.97027015686034
 21
-260.1351410150528
 31
0.0
  0
LINE
  5
5E4
  8
SIZE
 62
     0
 10
37.97027015686034
 20
-247.6351410150528
 30
0.0
 11
47.97027015686033
 21
-247.6351410150528
 31
0.0
  0
LINE
  5
5E5
  8
SIZE
 62
     0
 10
-10.0297297332436
 20
-247.6351410150528
 30
0.0
 11
-105.2016678468405
 21
-247.6351410150528
 31
0.0
  0
LINE
  5
5E6
  8
SIZE
 62
     0
 10
27.97027015686034
 20
-247.6351410150528
 30
0.0
 11
-0.0297297332436002
 21
-247.6351410150528
 31
0.0
  0
INSERT
  5
5E7
  8
SIZE
 62
     0
  2
_ORIGIN
 10
27.97027015686034
 20
-247.6351410150528
 30
0.0
 41
10.0
 42
10.0
 43
10.0
 50
180.0
  0
INSERT
  5
5E8
  8
SIZE
 62
     0
  2
_ORIGIN
 10
-0.0297297332436002
 20
-247.6351410150528
 30
0.0
 41
10.0
 42
10.0
 43
10.0
  0
TEXT
  5
5E9
  8
SIZE
 62
     0
 10
-100.2016678468405
 20
-237.6351410150528
 30
0.0
 40
30.0
  1
28
 72
     1
 11
-70.20166784684048
 21
-237.6351410150528
 31
0.0
  0
POINT
  5
5EA
  8
DEFPOINTS
 62
     0
 10
-0.029729733243585
 20
-0.035135135054588
 30
0.0
  0
POINT
  5
5EB
  8
DEFPOINTS
 62
     0
 10
27.97027015686035
 20
1.964864850044251
 30
0.0
  0
POINT
  5
5EC
  8
DEFPOINTS
 62
     0
 10
27.97027015686034
 20
-247.6351410150528
 30
0.0
  0
ENDBLK
  5
5ED
  8
0
  0
BLOCK
  8
0
  2
*D29
 70
     1
 10
0.0
 20
0.0
 30
0.0
  3
*D29
  1

  0
LINE
  5
5F0
  8
SIZE
 62
     0
 10
-327.0297241210937
 20
7.964864730834964
 30
0.0
 11
-399.929724097252
 21
7.964864730834984
 31
0.0
  0
LINE
  5
5F1
  8
SIZE
 62
     0
 10
-327.0297241210937
 20
-0.0351351350545852
 30
0.0
 11
-399.929724097252
 21
-0.0351351350545645
 31
0.0
  0
LINE
  5
5F2
  8
SIZE
 62
     0
 10
-387.429724097252
 20
-10.03513513505457
 30
0.0
 11
-387.429724097252
 21
-20.03513513505457
 31
0.0
  0
LINE
  5
5F3
  8
SIZE
 62
     0
 10
-387.429724097252
 20
17.96486473083498
 30
0.0
 11
-387.429724097252
 21
79.32953631559647
 31
0.0
  0
LINE
  5
5F4
  8
SIZE
 62
     0
 10
-387.429724097252
 20
-0.0351351350545681
 30
0.0
 11
-387.429724097252
 21
7.964864730834981
 31
0.0
  0
INSERT
  5
5F5
  8
SIZE
 62
     0
  2
_ORIGIN
 10
-387.429724097252
 20
-0.0351351350545681
 30
0.0
 41
10.0
 42
10.0
 43
10.0
 50
90.0
  0
INSERT
  5
5F6
  8
SIZE
 62
     0
  2
_ORIGIN
 10
-387.429724097252
 20
7.964864730834981
 30
0.0
 41
10.0
 42
10.0
 43
10.0
 50
270.0
  0
TEXT
  5
5F7
  8
SIZE
 62
     0
 10
-397.4297240972519
 20
44.32953631559641
 30
0.0
 40
30.0
  1
8
 50
90.0
 72
     1
 11
-397.4297240972519
 21
59.32953631559641
 31
0.0
  0
POINT
  5
5F8
  8
DEFPOINTS
 62
     0
 10
-317.0297241210937
 20
7.96486473083496
 30
0.0
  0
POINT
  5
5F9
  8
DEFPOINTS
 62
     0
 10
-317.0297241210937
 20
-0.035135135054588
 30
0.0
  0
POINT
  5
5FA
  8
DEFPOINTS
 62
     0
 10
-387.429724097252
 20
-0.0351351350545681
 30
0.0
  0
ENDBLK
  5
5FB
  8
0
  0
BLOCK
  8
0
  2
*D30
 70
     1
 10
0.0
 20
0.0
 30
0.0
  3
*D30
  1

  0
LINE
  5
5FE
  8
SIZE
 62
     0
 10
-317.0297241210937
 20
-10.03513513505459
 30
0.0
 11
-317.0297241210938
 21
-560.1351562738417
 31
0.0
  0
LINE
  5
5FF
  8
SIZE
 62
     0
 10
27.97027015686035
 20
-10.03513513505459
 30
0.0
 11
27.97027015686032
 21
-560.1351562738417
 31
0.0
  0
LINE
  5
600
  8
SIZE
 62
     0
 10
-307.0297241210937
 20
-547.6351562738417
 30
0.0
 11
17.97027015686032
 21
-547.6351562738417
 31
0.0
  0
INSERT
  5
601
  8
SIZE
 62
     0
  2
_ORIGIN
 10
-317.0297241210938
 20
-547.6351562738417
 30
0.0
 41
10.0
 42
10.0
 43
10.0
 50
180.0
  0
INSERT
  5
602
  8
SIZE
 62
     0
  2
_ORIGIN
 10
27.97027015686032
 20
-547.6351562738417
 30
0.0
 41
10.0
 42
10.0
 43
10.0
  0
TEXT
  5
603
  8
SIZE
 62
     0
 10
-189.5297241822897
 20
-537.6351562738417
 30
0.0
 40
30.0
  1
345
 72
     1
 11
-144.5297241822897
 21
-537.6351562738417
 31
0.0
  0
POINT
  5
604
  8
DEFPOINTS
 62
     0
 10
-317.0297241210937
 20
-0.035135135054588
 30
0.0
  0
POINT
  5
605
  8
DEFPOINTS
 62
     0
 10
27.97027015686035
 20
-0.035135135054588
 30
0.0
  0
POINT
  5
606
  8
DEFPOINTS
 62
     0
 10
27.97027015686032
 20
-547.6351562738417
 30
0.0
  0
ENDBLK
  5
607
  8
0
  0
BLOCK
  8
0
  2
*D31
 70
     1
 10
0.0
 20
0.0
 30
0.0
  3
*D31
  1

  0
LINE
  5
60A
  8
SIZE
 62
     0
 10
109.9702682495117
 20
-0.0351351350545908
 30
0.0
 11
460.0702757313994
 21
-0.03513513505469
 31
0.0
  0
LINE
  5
60B
  8
SIZE
 62
     0
 10
29.2702693939209
 20
-15.03513526916504
 30
0.0
 11
460.0702757313994
 21
-15.03513526916516
 31
0.0
  0
LINE
  5
60C
  8
SIZE
 62
     0
 10
447.5702757313994
 20
9.964864864945312
 30
0.0
 11
447.5702757313994
 21
19.96486486494531
 31
0.0
  0
LINE
  5
60D
  8
SIZE
 62
     0
 10
447.5702757313994
 20
-25.03513526916516
 30
0.0
 11
447.5702757313994
 21
-120.6626045735714
 31
0.0
  0
LINE
  5
60E
  8
SIZE
 62
     0
 10
447.5702757313994
 20
-0.0351351350546865
 30
0.0
 11
447.5702757313994
 21
-15.03513526916516
 31
0.0
  0
INSERT
  5
60F
  8
SIZE
 62
     0
  2
_ORIGIN
 10
447.5702757313994
 20
-0.0351351350546865
 30
0.0
 41
10.0
 42
10.0
 43
10.0
 50
270.0
  0
INSERT
  5
610
  8
SIZE
 62
     0
  2
_ORIGIN
 10
447.5702757313994
 20
-15.03513526916516
 30
0.0
 41
10.0
 42
10.0
 43
10.0
 50
90.0
  0
TEXT
  5
611
  8
SIZE
 62
     0
 10
437.5702757313994
 20
-115.4126045735714
 30
0.0
 40
30.0
  1
15
 50
90.0
 72
     1
 11
437.5702757313994
 21
-90.66260457357141
 31
0.0
  0
POINT
  5
612
  8
DEFPOINTS
 62
     0
 10
99.97026824951172
 20
-0.035135135054588
 30
0.0
  0
POINT
  5
613
  8
DEFPOINTS
 62
     0
 10
19.27026939392089
 20
-15.03513526916504
 30
0.0
  0
POINT
  5
614
  8
DEFPOINTS
 62
     0
 10
447.5702757313994
 20
-15.03513526916516
 30
0.0
  0
ENDBLK
  5
615
  8
0
  0
BLOCK
  8
0
  2
*D32
 70
     1
 10
0.0
 20
0.0
 30
0.0
  3
*D32
  1

  0
LINE
  5
618
  8
SIZE
 62
     0
 10
-327.0297241210937
 20
-0.0351351350545852
 30
0.0
 11
-752.0843871831894
 21
-0.0351351350544648
 31
0.0
  0
LINE
  5
619
  8
SIZE
 62
     0
 10
89.97026824951172
 20
814.9648437499999
 30
0.0
 11
-752.0843871831893
 21
814.9648437500001
 31
0.0
  0
LINE
  5
61A
  8
SIZE
 62
     0
 10
-739.5843871831894
 20
9.96486486494553
 30
0.0
 11
-739.5843871831893
 21
804.9648437500001
 31
0.0
  0
INSERT
  5
61B
  8
SIZE
 62
     0
  2
_ORIGIN
 10
-739.5843871831894
 20
-0.0351351350544683
 30
0.0
 41
10.0
 42
10.0
 43
10.0
 50
270.0
  0
INSERT
  5
61C
  8
SIZE
 62
     0
  2
_ORIGIN
 10
-739.5843871831893
 20
814.9648437500001
 30
0.0
 41
10.0
 42
10.0
 43
10.0
 50
90.0
  0
TEXT
  5
61D
  8
SIZE
 62
     0
 10
-749.5843871831894
 20
367.7148741451862
 30
0.0
 40
30.0
  1
815
 50
90.0
 72
     1
 11
-749.5843871831894
 21
407.4648741451862
 31
0.0
  0
POINT
  5
61E
  8
DEFPOINTS
 62
     0
 10
-317.0297241210937
 20
-0.035135135054588
 30
0.0
  0
POINT
  5
61F
  8
DEFPOINTS
 62
     0
 10
99.97026824951172
 20
814.9648437499999
 30
0.0
  0
POINT
  5
620
  8
DEFPOINTS
 62
     0
 10
-739.5843871831893
 20
814.9648437500001
 30
0.0
  0
ENDBLK
  5
621
  8
0
  0
BLOCK
  8
0
  2
*D33
 70
     1
 10
0.0
 20
0.0
 30
0.0
  3
*D33
  1

  0
LINE
  5
624
  8
SIZE
 62
     0
 10
-327.0297241210937
 20
-0.0351351350545852
 30
0.0
 11
-614.0849364995956
 21
-0.0351351350545039
 31
0.0
  0
LINE
  5
625
  8
SIZE
 62
     0
 10
-245.0297241210937
 20
405.964874267578
 30
0.0
 11
-614.0849364995955
 21
405.9648742675781
 31
0.0
  0
LINE
  5
626
  8
SIZE
 62
     0
 10
-601.5849364995956
 20
9.964864864945492
 30
0.0
 11
-601.5849364995955
 21
395.9648742675781
 31
0.0
  0
INSERT
  5
627
  8
SIZE
 62
     0
  2
_ORIGIN
 10
-601.5849364995956
 20
-0.0351351350545074
 30
0.0
 41
10.0
 42
10.0
 43
10.0
 50
270.0
  0
INSERT
  5
628
  8
SIZE
 62
     0
  2
_ORIGIN
 10
-601.5849364995955
 20
405.9648742675781
 30
0.0
 41
10.0
 42
10.0
 43
10.0
 50
90.0
  0
TEXT
  5
629
  8
SIZE
 62
     0
 10
-611.5849364995956
 20
160.5148588863971
 30
0.0
 40
30.0
  1
406
 50
90.0
 72
     1
 11
-611.5849364995956
 21
202.9648588863972
 31
0.0
  0
POINT
  5
62A
  8
DEFPOINTS
 62
     0
 10
-317.0297241210937
 20
-0.035135135054588
 30
0.0
  0
POINT
  5
62B
  8
DEFPOINTS
 62
     0
 10
-235.0297241210937
 20
405.964874267578
 30
0.0
  0
POINT
  5
62C
  8
DEFPOINTS
 62
     0
 10
-601.5849364995955
 20
405.9648742675781
 30
0.0
  0
ENDBLK
  5
62D
  8
0
  0
BLOCK
  8
0
  2
*D34
 70
     1
 10
0.0
 20
0.0
 30
0.0
  3
*D34
  1

  0
LINE
  5
630
  8
SIZE
 62
     0
 10
-285.0297241210938
 20
9.96486473083496
 30
0.0
 11
-285.0297241210938
 21
-364.4678589105605
 31
0.0
  0
LINE
  5
631
  8
SIZE
 62
     0
 10
-0.0297297332435856
 20
9.96486473083496
 30
0.0
 11
-0.0297297332436086
 21
-364.4678589105605
 31
0.0
  0
LINE
  5
632
  8
SIZE
 62
     0
 10
-275.0297241210938
 20
-351.9678589105605
 30
0.0
 11
-10.02972973324361
 21
-351.9678589105605
 31
0.0
  0
INSERT
  5
633
  8
SIZE
 62
     0
  2
_ORIGIN
 10
-285.0297241210938
 20
-351.9678589105605
 30
0.0
 41
10.0
 42
10.0
 43
10.0
 50
180.0
  0
INSERT
  5
634
  8
SIZE
 62
     0
  2
_ORIGIN
 10
-0.0297297332436078
 20
-351.9678589105605
 30
0.0
 41
10.0
 42
10.0
 43
10.0
  0
TEXT
  5
635
  8
SIZE
 62
     0
 10
-187.5297241822897
 20
-341.9678589105605
 30
0.0
 40
30.0
  1
285
 72
     1
 11
-142.5297241822897
 21
-341.9678589105605
 31
0.0
  0
POINT
  5
636
  8
DEFPOINTS
 62
     0
 10
-285.0297241210938
 20
19.96486473083496
 30
0.0
  0
POINT
  5
637
  8
DEFPOINTS
 62
     0
 10
-0.029729733243585
 20
19.96486473083496
 30
0.0
  0
POINT
  5
638
  8
DEFPOINTS
 62
     0
 10
-0.0297297332436078
 20
-351.9678589105605
 30
0.0
  0
ENDBLK
  5
639
  8
0
  0
BLOCK
  8
0
  2
*D35
 70
     1
 10
0.0
 20
0.0
 30
0.0
  3
*D35
  1

  0
LINE
  5
63C
  8
SIZE
 62
     0
 10
-285.0297241210938
 20
824.9648437499999
 30
0.0
 11
-285.0297241210938
 21
1092.154272437095
 31
0.0
  0
LINE
  5
63D
  8
SIZE
 62
     0
 10
-485.0297241210937
 20
824.9648437499999
 30
0.0
 11
-485.0297241210937
 21
1092.154272437095
 31
0.0
  0
LINE
  5
63E
  8
SIZE
 62
     0
 10
-295.0297241210937
 20
1079.654272437095
 30
0.0
 11
-475.0297241210937
 21
1079.654272437095
 31
0.0
  0
INSERT
  5
63F
  8
SIZE
 62
     0
  2
_ORIGIN
 10
-285.0297241210938
 20
1079.654272437095
 30
0.0
 41
10.0
 42
10.0
 43
10.0
  0
INSERT
  5
640
  8
SIZE
 62
     0
  2
_ORIGIN
 10
-485.0297241210937
 20
1079.654272437095
 30
0.0
 41
10.0
 42
10.0
 43
10.0
 50
180.0
  0
TEXT
  5
641
  8
SIZE
 62
     0
 10
-424.9297241822898
 20
1089.654272437096
 30
0.0
 40
30.0
  1
200
 72
     1
 11
-385.0297241822898
 21
1089.654272437096
 31
0.0
  0
POINT
  5
642
  8
DEFPOINTS
 62
     0
 10
-285.0297241210938
 20
814.9648437499999
 30
0.0
  0
POINT
  5
643
  8
DEFPOINTS
 62
     0
 10
-485.0297241210937
 20
814.9648437499999
 30
0.0
  0
POINT
  5
644
  8
DEFPOINTS
 62
     0
 10
-485.0297241210937
 20
1079.654272437095
 30
0.0
  0
ENDBLK
  5
645
  8
0
  0
BLOCK
  8
0
  2
*D36
 70
     1
 10
0.0
 20
0.0
 30
0.0
  3
*D36
  1

  0
LINE
  5
648
  8
SIZE
 62
     0
 10
-285.0297241210938
 20
719.96484375
 30
0.0
 11
-285.0297241210938
 21
954.2504638433456
 31
0.0
  0
LINE
  5
649
  8
SIZE
 62
     0
 10
-298.5297241210937
 20
678.96484375
 30
0.0
 11
-298.5297241210937
 21
954.2504638433456
 31
0.0
  0
LINE
  5
64A
  8
SIZE
 62
     0
 10
-275.0297241210938
 20
941.7504638433456
 30
0.0
 11
-265.0297241210938
 21
941.7504638433456
 31
0.0
  0
LINE
  5
64B
  8
SIZE
 62
     0
 10
-308.5297241210937
 20
941.7504638433456
 30
0.0
 11
-428.8698425904928
 21
941.7504638433456
 31
0.0
  0
LINE
  5
64C
  8
SIZE
 62
     0
 10
-285.0297241210938
 20
941.7504638433456
 30
0.0
 11
-298.5297241210937
 21
941.7504638433456
 31
0.0
  0
INSERT
  5
64D
  8
SIZE
 62
     0
  2
_ORIGIN
 10
-285.0297241210938
 20
941.7504638433456
 30
0.0
 41
10.0
 42
10.0
 43
10.0
 50
180.0
  0
INSERT
  5
64E
  8
SIZE
 62
     0
  2
_ORIGIN
 10
-298.5297241210937
 20
941.7504638433456
 30
0.0
 41
10.0
 42
10.0
 43
10.0
  0
TEXT
  5
64F
  8
SIZE
 62
     0
 10
-423.6198425904928
 20
951.7504638433456
 30
0.0
 40
30.0
  1
13
 72
     1
 11
-398.8698425904928
 21
951.7504638433456
 31
0.0
  0
POINT
  5
650
  8
DEFPOINTS
 62
     0
 10
-285.0297241210938
 20
709.9648437499999
 30
0.0
  0
POINT
  5
651
  8
DEFPOINTS
 62
     0
 10
-298.5297241210937
 20
668.9648437499999
 30
0.0
  0
POINT
  5
652
  8
DEFPOINTS
 62
     0
 10
-298.5297241210937
 20
941.7504638433456
 30
0.0
  0
ENDBLK
  5
653
  8
0
  0
BLOCK
  8
0
  2
*D37
 70
     1
 10
0.0
 20
0.0
 30
0.0
  3
*D37
  1

  0
LINE
  5
656
  8
SIZE
 62
     0
 10
15.97027015686035
 20
684.9648437499999
 30
0.0
 11
15.97027015686037
 21
954.2504638433456
 31
0.0
  0
LINE
  5
657
  8
SIZE
 62
     0
 10
-0.0297297332435844
 20
719.96484375
 30
0.0
 11
-0.0297297332435701
 21
954.2504638433456
 31
0.0
  0
LINE
  5
658
  8
SIZE
 62
     0
 10
25.97027015686037
 20
941.7504638433456
 30
0.0
 11
35.97027015686037
 21
941.7504638433456
 31
0.0
  0
LINE
  5
659
  8
SIZE
 62
     0
 10
-10.02972973324357
 20
941.7504638433456
 30
0.0
 11
-120.1948013917623
 21
941.7504638433456
 31
0.0
  0
LINE
  5
65A
  8
SIZE
 62
     0
 10
15.97027015686037
 20
941.7504638433456
 30
0.0
 11
-0.0297297332435708
 21
941.7504638433456
 31
0.0
  0
INSERT
  5
65B
  8
SIZE
 62
     0
  2
_ORIGIN
 10
15.97027015686037
 20
941.7504638433456
 30
0.0
 41
10.0
 42
10.0
 43
10.0
 50
180.0
  0
INSERT
  5
65C
  8
SIZE
 62
     0
  2
_ORIGIN
 10
-0.0297297332435708
 20
941.7504638433456
 30
0.0
 41
10.0
 42
10.0
 43
10.0
  0
TEXT
  5
65D
  8
SIZE
 62
     0
 10
-114.9448013917624
 20
951.7504638433456
 30
0.0
 40
30.0
  1
16
 72
     1
 11
-90.19480139176235
 21
951.7504638433456
 31
0.0
  0
POINT
  5
65E
  8
DEFPOINTS
 62
     0
 10
15.97027015686035
 20
674.96484375
 30
0.0
  0
POINT
  5
65F
  8
DEFPOINTS
 62
     0
 10
-0.029729733243585
 20
709.9648437499999
 30
0.0
  0
POINT
  5
660
  8
DEFPOINTS
 62
     0
 10
-0.0297297332435708
 20
941.7504638433456
 30
0.0
  0
ENDBLK
  5
661
  8
0
  0
BLOCK
  8
0
  2
*D38
 70
     1
 10
0.0
 20
0.0
 30
0.0
  3
*D38
  1

  0
LINE
  5
664
  8
SIZE
 62
     0
 10
99.97026824951172
 20
824.9648437499999
 30
0.0
 11
99.97026824951173
 21
1092.154272437095
 31
0.0
  0
LINE
  5
665
  8
SIZE
 62
     0
 10
-0.0297297332435844
 20
719.96484375
 30
0.0
 11
-0.0297297332435616
 21
1092.154272437095
 31
0.0
  0
LINE
  5
666
  8
SIZE
 62
     0
 10
89.97026824951173
 20
1079.654272437095
 30
0.0
 11
9.970270266756438
 21
1079.654272437095
 31
0.0
  0
INSERT
  5
667
  8
SIZE
 62
     0
  2
_ORIGIN
 10
99.97026824951173
 20
1079.654272437095
 30
0.0
 41
10.0
 42
10.0
 43
10.0
  0
INSERT
  5
668
  8
SIZE
 62
     0
  2
_ORIGIN
 10
-0.0297297332435624
 20
1079.654272437095
 30
0.0
 41
10.0
 42
10.0
 43
10.0
 50
180.0
  0
TEXT
  5
669
  8
SIZE
 62
     0
 10
15.32027200301303
 20
1089.654272437096
 30
0.0
 40
30.0
  1
100
 72
     1
 11
49.97027200301303
 21
1089.654272437096
 31
0.0
  0
POINT
  5
66A
  8
DEFPOINTS
 62
     0
 10
99.97026824951172
 20
814.9648437499999
 30
0.0
  0
POINT
  5
66B
  8
DEFPOINTS
 62
     0
 10
-0.029729733243585
 20
709.9648437499999
 30
0.0
  0
POINT
  5
66C
  8
DEFPOINTS
 62
     0
 10
-0.0297297332435624
 20
1079.654272437095
 30
0.0
  0
ENDBLK
  5
66D
  8
0
  0
BLOCK
  8
0
  2
*D39
 70
     1
 10
0.0
 20
0.0
 30
0.0
  3
*D39
  1

  0
LINE
  5
670
  8
SIZE
 62
     0
 10
-0.0297297332435844
 20
719.96484375
 30
0.0
 11
-0.0297297332435616
 21
1092.154272437095
 31
0.0
  0
LINE
  5
671
  8
SIZE
 62
     0
 10
-285.0297241210938
 20
719.96484375
 30
0.0
 11
-285.0297241210938
 21
1092.154272437095
 31
0.0
  0
LINE
  5
672
  8
SIZE
 62
     0
 10
-10.02972973324356
 20
1079.654272437095
 30
0.0
 11
-275.0297241210938
 21
1079.654272437095
 31
0.0
  0
INSERT
  5
673
  8
SIZE
 62
     0
  2
_ORIGIN
 10
-0.0297297332435624
 20
1079.654272437095
 30
0.0
 41
10.0
 42
10.0
 43
10.0
  0
INSERT
  5
674
  8
SIZE
 62
     0
  2
_ORIGIN
 10
-285.0297241210938
 20
1079.654272437095
 30
0.0
 41
10.0
 42
10.0
 43
10.0
 50
180.0
  0
TEXT
  5
675
  8
SIZE
 62
     0
 10
-187.5297241822897
 20
1089.654272437096
 30
0.0
 40
30.0
  1
285
 72
     1
 11
-142.5297241822897
 21
1089.654272437096
 31
0.0
  0
POINT
  5
676
  8
DEFPOINTS
 62
     0
 10
-0.029729733243585
 20
709.9648437499999
 30
0.0
  0
POINT
  5
677
  8
DEFPOINTS
 62
     0
 10
-285.0297241210938
 20
709.9648437499999
 30
0.0
  0
POINT
  5
678
  8
DEFPOINTS
 62
     0
 10
-285.0297241210938
 20
1079.654272437095
 30
0.0
  0
ENDBLK
  5
679
  8
0
  0
BLOCK
  8
0
  2
*D40
 70
     1
 10
0.0
 20
0.0
 30
0.0
  3
*D40
  1

  0
LINE
  5
67C
  8
SIZE
 62
     0
 10
-0.0297297332435856
 20
9.96486473083496
 30
0.0
 11
-0.0297297332435961
 21
-160.3899627923965
 31
0.0
  0
LINE
  5
67D
  8
SIZE
 62
     0
 10
-0.7263310551643377
 20
-32.13792991638184
 30
0.0
 11
-0.7263310551643455
 21
-160.3899627923965
 31
0.0
  0
LINE
  5
67E
  8
SIZE
 62
     0
 10
9.970270266756405
 20
-147.8899627923965
 30
0.0
 11
19.9702702667564
 21
-147.8899627923965
 31
0.0
  0
LINE
  5
67F
  8
SIZE
 62
     0
 10
-10.72633105516434
 20
-147.8899627923965
 30
0.0
 11
-80.82778173844204
 21
-147.8899627923965
 31
0.0
  0
LINE
  5
680
  8
SIZE
 62
     0
 10
-0.0297297332435953
 20
-147.8899627923965
 30
0.0
 11
-0.7263310551643447
 21
-147.8899627923965
 31
0.0
  0
INSERT
  5
681
  8
SIZE
 62
     0
  2
_ORIGIN
 10
-0.0297297332435953
 20
-147.8899627923965
 30
0.0
 41
10.0
 42
10.0
 43
10.0
 50
180.0
  0
INSERT
  5
682
  8
SIZE
 62
     0
  2
_ORIGIN
 10
-0.7263310551643447
 20
-147.8899627923965
 30
0.0
 41
10.0
 42
10.0
 43
10.0
  0
TEXT
  5
683
  8
SIZE
 62
     0
 10
-75.57778173844204
 20
-137.8899627923965
 30
0.0
 40
30.0
  1
1
 72
     1
 11
-65.82778173844204
 21
-137.8899627923965
 31
0.0
  0
POINT
  5
684
  8
DEFPOINTS
 62
     0
 10
-0.029729733243585
 20
19.96486473083496
 30
0.0
  0
POINT
  5
685
  8
DEFPOINTS
 62
     0
 10
-0.726331055164337
 20
-22.13792991638184
 30
0.0
  0
POINT
  5
686
  8
DEFPOINTS
 62
     0
 10
-0.7263310551643447
 20
-147.8899627923965
 30
0.0
  0
ENDBLK
  5
687
  8
0
  0
BLOCK
  8
0
  2
*D41
 70
     1
 10
0.0
 20
0.0
 30
0.0
  3
*D41
  1

  0
LINE
  5
68A
  8
SIZE
 62
     0
 10
-0.0297297332435856
 20
9.96486473083496
 30
0.0
 11
-0.0297297332436086
 21
-364.4678589105605
 31
0.0
  0
LINE
  5
68B
  8
SIZE
 62
     0
 10
9.970270156860352
 20
9.96486473083496
 30
0.0
 11
9.970270156860328
 21
-364.4678589105605
 31
0.0
  0
LINE
  5
68C
  8
SIZE
 62
     0
 10
-10.02972973324361
 20
-351.9678589105605
 30
0.0
 11
-20.02972973324361
 21
-351.9678589105605
 31
0.0
  0
LINE
  5
68D
  8
SIZE
 62
     0
 10
19.97027015686033
 20
-351.9678589105605
 30
0.0
 11
113.69602960189
 21
-351.9678589105605
 31
0.0
  0
LINE
  5
68E
  8
SIZE
 62
     0
 10
-0.0297297332436078
 20
-351.9678589105605
 30
0.0
 11
9.970270156860328
 21
-351.9678589105605
 31
0.0
  0
INSERT
  5
68F
  8
SIZE
 62
     0
  2
_ORIGIN
 10
-0.0297297332436078
 20
-351.9678589105605
 30
0.0
 41
10.0
 42
10.0
 43
10.0
  0
INSERT
  5
690
  8
SIZE
 62
     0
  2
_ORIGIN
 10
9.970270156860328
 20
-351.9678589105605
 30
0.0
 41
10.0
 42
10.0
 43
10.0
 50
180.0
  0
TEXT
  5
691
  8
SIZE
 62
     0
 10
63.99602960188997
 20
-341.9678589105605
 30
0.0
 40
30.0
  1
10
 72
     1
 11
86.19602960188998
 21
-341.9678589105605
 31
0.0
  0
POINT
  5
692
  8
DEFPOINTS
 62
     0
 10
-0.029729733243585
 20
19.96486473083496
 30
0.0
  0
POINT
  5
693
  8
DEFPOINTS
 62
     0
 10
9.970270156860352
 20
19.96486473083496
 30
0.0
  0
POINT
  5
694
  8
DEFPOINTS
 62
     0
 10
9.970270156860328
 20
-351.9678589105605
 30
0.0
  0
ENDBLK
  5
695
  8
0
  0
BLOCK
  8
0
  2
*D42
 70
     1
 10
0.0
 20
0.0
 30
0.0
  3
*D42
  1

  0
LINE
  5
698
  8
SIZE
 62
     0
 10
4.970270156860351
 20
714.9648437499999
 30
0.0
 11
459.0702759027482
 21
714.9648437499998
 31
0.0
  0
LINE
  5
699
  8
SIZE
 62
     0
 10
109.9702682495117
 20
814.9648437499999
 30
0.0
 11
459.0702759027482
 21
814.9648437499999
 31
0.0
  0
LINE
  5
69A
  8
SIZE
 62
     0
 10
446.5702759027482
 20
724.9648437499999
 30
0.0
 11
446.5702759027482
 21
804.9648437499998
 31
0.0
  0
INSERT
  5
69B
  8
SIZE
 62
     0
  2
_ORIGIN
 10
446.5702759027482
 20
714.9648437499998
 30
0.0
 41
10.0
 42
10.0
 43
10.0
 50
270.0
  0
INSERT
  5
69C
  8
SIZE
 62
     0
  2
_ORIGIN
 10
446.5702759027482
 20
814.9648437499999
 30
0.0
 41
10.0
 42
10.0
 43
10.0
 50
90.0
  0
TEXT
  5
69D
  8
SIZE
 62
     0
 10
436.570275902748
 20
730.3148436276081
 30
0.0
 40
30.0
  1
100
 50
90.0
 72
     1
 11
436.570275902748
 21
764.964843627608
 31
0.0
  0
POINT
  5
69E
  8
DEFPOINTS
 62
     0
 10
-5.029729843139648
 20
714.9648437499999
 30
0.0
  0
POINT
  5
69F
  8
DEFPOINTS
 62
     0
 10
99.97026824951172
 20
814.9648437499999
 30
0.0
  0
POINT
  5
6A0
  8
DEFPOINTS
 62
     0
 10
446.5702759027482
 20
814.9648437499999
 30
0.0
  0
ENDBLK
  5
6A1
  8
0
  0
BLOCK
  8
0
  2
*D43
 70
     1
 10
0.0
 20
0.0
 30
0.0
  3
*D43
  1

  0
LINE
  5
6A4
  8
SIZE
 62
     0
 10
42.97027206420898
 20
-0.0351351350545908
 30
0.0
 11
613.8093506097792
 21
-0.0351351350547525
 31
0.0
  0
LINE
  5
6A5
  8
SIZE
 62
     0
 10
109.9702682495117
 20
814.9648437499999
 30
0.0
 11
613.8093506097796
 21
814.9648437499999
 31
0.0
  0
LINE
  5
6A6
  8
SIZE
 62
     0
 10
601.3093506097792
 20
9.964864864945252
 30
0.0
 11
601.3093506097796
 21
804.9648437499998
 31
0.0
  0
INSERT
  5
6A7
  8
SIZE
 62
     0
  2
_ORIGIN
 10
601.3093506097792
 20
-0.035135135054749
 30
0.0
 41
10.0
 42
10.0
 43
10.0
 50
270.0
  0
INSERT
  5
6A8
  8
SIZE
 62
     0
  2
_ORIGIN
 10
601.3093506097796
 20
814.9648437499999
 30
0.0
 41
10.0
 42
10.0
 43
10.0
 50
90.0
  0
TEXT
  5
6A9
  8
SIZE
 62
     0
 10
591.3093506097792
 20
367.7148741451862
 30
0.0
 40
30.0
  1
815
 50
90.0
 72
     1
 11
591.3093506097792
 21
407.4648741451862
 31
0.0
  0
POINT
  5
6AA
  8
DEFPOINTS
 62
     0
 10
32.97027206420898
 20
-0.035135135054588
 30
0.0
  0
POINT
  5
6AB
  8
DEFPOINTS
 62
     0
 10
99.97026824951172
 20
814.9648437499999
 30
0.0
  0
POINT
  5
6AC
  8
DEFPOINTS
 62
     0
 10
601.3093506097796
 20
814.9648437499999
 30
0.0
  0
ENDBLK
  5
6AD
  8
0
  0
BLOCK
  8
0
  2
*D44
 70
     1
 10
0.0
 20
0.0
 30
0.0
  3
*D44
  1

  0
LINE
  5
6B0
  8
SIZE
 62
     0
 10
42.97027206420898
 20
-0.0351351350545908
 30
0.0
 11
459.070275902748
 21
-0.0351351350547087
 31
0.0
  0
LINE
  5
6B1
  8
SIZE
 62
     0
 10
4.970270156860351
 20
714.9648437499999
 30
0.0
 11
459.0702759027482
 21
714.9648437499998
 31
0.0
  0
LINE
  5
6B2
  8
SIZE
 62
     0
 10
446.570275902748
 20
9.964864864945294
 30
0.0
 11
446.5702759027482
 21
704.9648437499999
 31
0.0
  0
INSERT
  5
6B3
  8
SIZE
 62
     0
  2
_ORIGIN
 10
446.570275902748
 20
-0.0351351350547052
 30
0.0
 41
10.0
 42
10.0
 43
10.0
 50
270.0
  0
INSERT
  5
6B4
  8
SIZE
 62
     0
  2
_ORIGIN
 10
446.5702759027482
 20
714.9648437499998
 30
0.0
 41
10.0
 42
10.0
 43
10.0
 50
90.0
  0
TEXT
  5
6B5
  8
SIZE
 62
     0
 10
436.570275902748
 20
317.7148741451862
 30
0.0
 40
30.0
  1
715
 50
90.0
 72
     1
 11
436.570275902748
 21
357.4648741451862
 31
0.0
  0
POINT
  5
6B6
  8
DEFPOINTS
 62
     0
 10
32.97027206420898
 20
-0.035135135054588
 30
0.0
  0
POINT
  5
6B7
  8
DEFPOINTS
 62
     0
 10
-5.029729843139648
 20
714.9648437499999
 30
0.0
  0
POINT
  5
6B8
  8
DEFPOINTS
 62
     0
 10
446.5702759027482
 20
714.9648437499998
 30
0.0
  0
ENDBLK
  5
6B9
  8
0
  0
ENDSEC
  0
SECTION
  2
ENTITIES
  0
LINE
  5
6BA
  8
OUTLINE
  6
CONTINUOUS
 10
16.0
 20
625.0000000000001
 30
0.0
 11
16.0
 21
675.0000000000001
 31
0.0
  0
LINE
  5
6BB
  8
OUTLINE
  6
CONTINUOUS
 10
16.0
 20
625.0000000000001
 30
0.0
 11
0.000000000000003
 21
625.0000000000001
 31
0.0
  0
LINE
  5
6BC
  8
OUTLINE
  6
CONTINUOUS
 10
16.0
 20
675.0000000000001
 30
0.0
 11
0.000000000000003
 21
675.0000000000001
 31
0.0
  0
LINE
  5
6BD
  8
OUTLINE
  6
CONTINUOUS
 10
-316.9999999999999
 20
7.999999999999999
 30
0.0
 11
-316.9999999999999
 21
0.0
 31
0.0
  0
LINE
  5
6BE
  8
OUTLINE
  6
CONTINUOUS
 10
28.00000000000012
 20
7.999999999999998
 30
0.0
 11
-316.9999999999999
 21
7.999999999999999
 31
0.0
  0
LINE
  5
6BF
  8
OUTLINE
  6
CONTINUOUS
 10
28.00000000000012
 20
7.999999999999998
 30
0.0
 11
28.00000000000012
 21
0.0
 31
0.0
  0
LINE
  5
6C0
  8
OUTLINE
  6
CONTINUOUS
 10
33.0808371024903
 20
0.0
 30
0.0
 11
-316.9999999999999
 21
0.0
 31
0.0
  0
LINE
  5
6C1
  8
OUTLINE
  6
CONTINUOUS
 10
-6.964101615137761
 20
7.999999999999999
 30
0.0
 11
-13.89230484541326
 21
19.99999999999999
 31
0.0
  0
LINE
  5
6C2
  8
OUTLINE
  6
CONTINUOUS
 10
-278.0358983848623
 20
7.999999999999999
 30
0.0
 11
-271.1076951545867
 21
20.0
 31
0.0
  0
LINE
  5
6C3
  8
OUTLINE
  6
CONTINUOUS
 10
-285.0
 20
20.0
 30
0.0
 11
0.000000000000003
 21
20.0
 31
0.0
  0
ARC
  5
6C4
  8
OUTLINE
  6
CONTINUOUS
 10
-280.0
 20
710.0000000000001
 30
0.0
 40
5.0
 50
90.0
 51
180.0
  0
LINE
  5
6C5
  8
OUTLINE
  6
CONTINUOUS
 10
-285.0
 20
710.0000000000001
 30
0.0
 11
-285.0
 21
20.0
 31
0.0
  0
LINE
  5
6C6
  8
OUTLINE
  6
CONTINUOUS
 10
-280.0
 20
715.0000000000001
 30
0.0
 11
-4.999999999999996
 21
715.0000000000001
 31
0.0
  0
LINE
  5
6C7
  8
OUTLINE
  6
CONTINUOUS
 10
0.000000000000003
 20
20.0
 30
0.0
 11
0.000000000000003
 21
710.0000000000001
 31
0.0
  0
ARC
  5
6C8
  8
OUTLINE
  6
CONTINUOUS
 10
-4.999999999999996
 20
710.0000000000001
 30
0.0
 40
5.0
 50
0.0
 51
90.0
  0
LINE
  5
6C9
  8
DETAIL
  6
CONTINUOUS
 10
-49.43802975047147
 20
-20.47808076551954
 30
0.0
 11
-49.43802975047147
 21
0.0
 31
0.0
  0
LINE
  5
6CA
  8
DETAIL
  6
CONTINUOUS
 10
-37.68802975047146
 20
-5.369747432186569
 30
0.0
 11
-37.68802975047146
 21
0.0
 31
0.0
  0
LINE
  5
6CB
  8
DETAIL
  6
CONTINUOUS
 10
-0.6966013413901229
 20
-6.602795045823706
 30
0.0
 11
-0.6966013413901229
 21
-22.1027950458237
 31
0.0
  0
LINE
  5
6CC
  8
DETAIL
  6
CONTINUOUS
 10
-49.43802975047147
 20
-20.47808076551954
 30
0.0
 11
-0.6966013413901229
 21
-22.1027950458237
 31
0.0
  0
LINE
  5
6CD
  8
DETAIL
  6
CONTINUOUS
 10
-37.68802975047146
 20
-5.369747432186569
 30
0.0
 11
-0.6966013413901229
 21
-6.602795045823706
 31
0.0
  0
ARC
  5
6CE
  8
DETAIL
  6
CONTINUOUS
 10
-234.0
 20
663.0000000000001
 30
0.0
 40
1.0
 50
90.0
 51
180.0
  0
ARC
  5
6CF
  8
DETAIL
  6
CONTINUOUS
 10
-101.0
 20
663.0000000000001
 30
0.0
 40
1.0
 50
0.0
 51
90.0
  0
LINE
  5
6D0
  8
DETAIL
  6
CONTINUOUS
 10
-70.0
 20
47.00000000000001
 30
0.0
 11
-235.0
 21
47.00000000000001
 31
0.0
  0
LINE
  5
6D1
  8
DETAIL
  6
CONTINUOUS
 10
-95.00000000000006
 20
266.9999999999999
 30
0.0
 11
-95.0
 21
47.00000000000001
 31
0.0
  0
LINE
  5
6D2
  8
DETAIL
  6
CONTINUOUS
 10
-235.0
 20
266.9999999999999
 30
0.0
 11
-235.0
 21
47.00000000000001
 31
0.0
  0
LINE
  5
6D3
  8
DETAIL
  6
CONTINUOUS
 10
-216.2402352083002
 20
633.9548713210521
 30
0.0
 11
-127.6730578736598
 21
633.0225852438492
 31
0.0
  0
LINE
  5
6D4
  8
DETAIL
  6
CONTINUOUS
 10
-100.0
 20
267.9999999999999
 30
0.0
 11
-101.0
 21
266.9999999999999
 31
0.0
  0
LINE
  5
6D5
  8
DETAIL
  6
CONTINUOUS
 10
-235.0
 20
267.9999999999999
 30
0.0
 11
-234.0
 21
266.9999999999999
 31
0.0
  0
LINE
  5
6D6
  8
DETAIL
  6
CONTINUOUS
 10
-70.00000000000004
 20
266.9999999999999
 30
0.0
 11
-235.0
 21
266.9999999999999
 31
0.0
  0
LINE
  5
6D7
  8
DETAIL
  6
CONTINUOUS
 10
-101.0
 20
664.0000000000001
 30
0.0
 11
-234.0
 21
664.0000000000001
 31
0.0
  0
LINE
  5
6D8
  8
DETAIL
  6
CONTINUOUS
 10
-100.0
 20
663.0000000000001
 30
0.0
 11
-100.0
 21
266.9999999999999
 31
0.0
  0
LINE
  5
6D9
  8
DETAIL
  6
CONTINUOUS
 10
-235.0
 20
663.0000000000001
 30
0.0
 11
-235.0
 21
266.9999999999999
 31
0.0
  0
LINE
  5
6DA
  8
DETAIL
  6
CONTINUOUS
 10
16.0
 20
625.0000000000001
 30
0.0
 11
16.0
 21
675.0000000000001
 31
0.0
  0
LINE
  5
6DB
  8
DETAIL
  6
CONTINUOUS
 10
16.0
 20
625.0000000000001
 30
0.0
 11
0.000000000000003
 21
625.0000000000001
 31
0.0
  0
LINE
  5
6DC
  8
DETAIL
  6
CONTINUOUS
 10
16.0
 20
675.0000000000001
 30
0.0
 11
0.000000000000003
 21
675.0000000000001
 31
0.0
  0
LINE
  5
6DD
  8
DETAIL
  6
CONTINUOUS
 10
-6.964101615137761
 20
7.999999999999999
 30
0.0
 11
-13.89230484541326
 21
19.99999999999999
 31
0.0
  0
ARC
  5
6DE
  8
DETAIL
  6
CONTINUOUS
 10
-4.999999999999996
 20
710.0000000000001
 30
0.0
 40
5.0
 50
0.0
 51
90.0
  0
LINE
  5
6DF
  8
DETAIL
  6
CONTINUOUS
 10
0.000000000000003
 20
20.0
 30
0.0
 11
0.000000000000003
 21
710.0000000000001
 31
0.0
  0
LINE
  5
6E0
  8
DETAIL
  6
CONTINUOUS
 10
-298.5
 20
221.0
 30
0.0
 11
-298.5
 21
669.0000000000001
 31
0.0
  0
LINE
  5
6E1
  8
DETAIL
  6
CONTINUOUS
 10
-285.0
 20
221.0
 30
0.0
 11
-298.5
 21
221.0
 31
0.0
  0
LINE
  5
6E2
  8
DETAIL
  6
CONTINUOUS
 10
-285.0
 20
669.0000000000001
 30
0.0
 11
-298.5
 21
669.0000000000001
 31
0.0
  0
LINE
  5
6E3
  8
DETAIL
  6
DASHED
 10
-140.9999999999998
 20
137.0638833107543
 30
0.0
 11
-140.9999999999998
 21
116.9361166892456
 31
0.0
  0
ARC
  5
6E4
  8
DETAIL
  6
DASHED
 10
-169.65
 20
127.0000000000002
 30
0.0
 40
10.84999999999991
 50
90.0
 51
270.0
  0
LINE
  5
6E5
  8
DETAIL
  6
DASHED
 10
-140.9999999999998
 20
137.0638833107543
 30
0.0
 11
-155.9999999999998
 21
137.8500000000001
 31
0.0
  0
LINE
  5
6E6
  8
DETAIL
  6
DASHED
 10
-155.9999999999998
 20
137.8500000000001
 30
0.0
 11
-155.9999999999998
 21
116.1500000000003
 31
0.0
  0
LINE
  5
6E7
  8
DETAIL
  6
DASHED
 10
-140.9999999999998
 20
116.9361166892456
 30
0.0
 11
-155.9999999999998
 21
116.1500000000003
 31
0.0
  0
LINE
  5
6E8
  8
DETAIL
  6
DASHED
 10
-155.9999999999998
 20
116.1500000000003
 30
0.0
 11
-169.65
 21
116.1500000000003
 31
0.0
  0
LINE
  5
6E9
  8
DETAIL
  6
DASHED
 10
-155.9999999999998
 20
137.8500000000001
 30
0.0
 11
-169.65
 21
137.8500000000001
 31
0.0
  0
LINE
  5
6EA
  8
DETAIL
  6
DASHED
 10
-167.9999999999998
 20
217.8500000000001
 30
0.0
 11
-181.6499999999999
 21
217.8500000000001
 31
0.0
  0
LINE
  5
6EB
  8
DETAIL
  6
DASHED
 10
-167.9999999999998
 20
196.1500000000004
 30
0.0
 11
-181.6499999999999
 21
196.1500000000004
 31
0.0
  0
LINE
  5
6EC
  8
DETAIL
  6
DASHED
 10
-152.9999999999998
 20
217.0638833107544
 30
0.0
 11
-152.9999999999998
 21
196.9361166892456
 31
0.0
  0
LINE
  5
6ED
  8
DETAIL
  6
DASHED
 10
-152.9999999999998
 20
196.9361166892456
 30
0.0
 11
-167.9999999999998
 21
196.1500000000004
 31
0.0
  0
LINE
  5
6EE
  8
DETAIL
  6
DASHED
 10
-167.9999999999998
 20
217.8500000000001
 30
0.0
 11
-167.9999999999998
 21
196.1500000000004
 31
0.0
  0
LINE
  5
6EF
  8
DETAIL
  6
DASHED
 10
-152.9999999999998
 20
217.0638833107544
 30
0.0
 11
-167.9999999999998
 21
217.8500000000001
 31
0.0
  0
LINE
  5
6F0
  8
DETAIL
  6
CONTINUOUS
 10
33.0
 20
0.0
 30
0.0
 11
-316.9999999999999
 21
0.0
 31
0.0
  0
LINE
  5
6F1
  8
DETAIL
  6
CONTINUOUS
 10
-280.0
 20
715.0000000000001
 30
0.0
 11
-4.999999999999996
 21
715.0000000000001
 31
0.0
  0
LINE
  5
6F2
  8
DETAIL
  6
CONTINUOUS
 10
28.00000000000012
 20
7.999999999999999
 30
0.0
 11
28.00000000000012
 21
0.0
 31
0.0
  0
LINE
  5
6F3
  8
DETAIL
  6
CONTINUOUS
 10
-316.9999999999999
 20
7.999999999999999
 30
0.0
 11
-316.9999999999999
 21
0.0
 31
0.0
  0
LINE
  5
6F4
  8
DETAIL
  6
CONTINUOUS
 10
-285.0
 20
710.0000000000001
 30
0.0
 11
-285.0
 21
20.0
 31
0.0
  0
LINE
  5
6F5
  8
DETAIL
  6
CONTINUOUS
 10
-285.0
 20
20.0
 30
0.0
 11
0.000000000000003
 21
20.0
 31
0.0
  0
LINE
  5
6F6
  8
DETAIL
  6
CONTINUOUS
 10
28.00000000000012
 20
7.999999999999999
 30
0.0
 11
-316.9999999999999
 21
7.999999999999999
 31
0.0
  0
ARC
  5
6F7
  8
DETAIL
  6
CONTINUOUS
 10
-280.0
 20
710.0000000000001
 30
0.0
 40
5.0
 50
90.0
 51
180.0
  0
LINE
  5
6F8
  8
DETAIL
  6
CONTINUOUS
 10
-285.0
 20
690.0000000000001
 30
0.0
 11
0.000000000000003
 21
690.0000000000001
 31
0.0
  0
ARC
  5
6F9
  8
DETAIL
  6
DASHED
 10
-181.6499999999999
 20
207.0000000000003
 30
0.0
 40
10.84999999999991
 50
90.0
 51
270.0
  0
LINE
  5
6FA
  8
DETAIL
  6
CONTINUOUS
 10
-278.0358983848623
 20
7.999999999999999
 30
0.0
 11
-271.1076951545867
 21
20.0
 31
0.0
  0
LINE
  5
6FB
  8
DETAIL
  6
CONTINUOUS
 10
-70.00000000000004
 20
266.9999999999999
 30
0.0
 11
-70.00000000000001
 21
47.00000000000001
 31
0.0
  0
LINE
  5
6FC
  8
BASIS
  6
DASHDOT
 10
-235.0
 20
405.9999999999999
 30
0.0
 11
-355.0
 21
405.9999999999999
 31
0.0
  0
LINE
  5
6FD
  8
SIZE
  6
CONTINUOUS
 62
    30
 10
43.00000179742236
 20
-0.0000000016606038
 30
0.0
 11
459.1000056359614
 21
-0.0000000016607217
 31
0.0
  0
LINE
  5
6FE
  8
SIZE
  6
CONTINUOUS
 62
    30
 10
4.999999890073741
 20
714.9999788833939
 30
0.0
 11
459.1000056359616
 21
714.9999788833937
 31
0.0
  0
LINE
  5
6FF
  8
SIZE
  6
CONTINUOUS
 62
    30
 10
446.6000056359614
 20
9.999999998339282
 30
0.0
 11
446.6000056359616
 21
704.9999788833939
 31
0.0
  0
CIRCLE
  5
700
  8
SIZE
  6
CONTINUOUS
 62
    30
 10
446.6000056359614
 20
-0.0000000016607182
 30
0.0
 40
5.0
  0
LINE
  5
701
  8
SIZE
  6
CONTINUOUS
 62
    30
 10
446.6000056359614
 20
-0.0000000016607182
 30
0.0
 11
446.6000056359614
 21
9.999999998339282
 31
0.0
  0
CIRCLE
  5
702
  8
SIZE
  6
CONTINUOUS
 62
    30
 10
446.6000056359616
 20
714.9999788833937
 30
0.0
 40
5.0
  0
LINE
  5
703
  8
SIZE
  6
CONTINUOUS
 62
    30
 10
446.6000056359616
 20
714.9999788833937
 30
0.0
 11
446.6000056359616
 21
704.9999788833937
 31
0.0
  0
TEXT
  5
704
  8
SIZE
  6
CONTINUOUS
 62
    30
 10
436.6000056359614
 20
314.6428664214372
 30
0.0
 40
30.0
  1
715
 50
90.0
 72
     1
 11
436.6000056359614
 21
357.5000092785801
 31
0.0
  0
POINT
  5
705
  8
DEFPOINTS
  6
CONTINUOUS
 62
    30
 10
33.00000179742236
 20
-0.000000001660601
 30
0.0
  0
POINT
  5
706
  8
DEFPOINTS
  6
CONTINUOUS
 62
    30
 10
-5.000000109926258
 20
714.9999788833939
 30
0.0
  0
POINT
  5
707
  8
DEFPOINTS
  6
CONTINUOUS
 62
    30
 10
446.6000056359616
 20
714.9999788833937
 30
0.0
  0
LINE
  5
708
  8
SIZE
  6
CONTINUOUS
 62
    30
 10
43.00000179742236
 20
-0.0000000016606038
 30
0.0
 11
613.8390803429926
 21
-0.0000000016607655
 31
0.0
  0
LINE
  5
709
  8
SIZE
  6
CONTINUOUS
 62
    30
 10
109.9999979827251
 20
814.9999788833939
 30
0.0
 11
613.8390803429929
 21
814.9999788833939
 31
0.0
  0
LINE
  5
70A
  8
SIZE
  6
CONTINUOUS
 62
    30
 10
601.3390803429926
 20
9.99999999833924
 30
0.0
 11
601.3390803429929
 21
804.9999788833937
 31
0.0
  0
CIRCLE
  5
70B
  8
SIZE
  6
CONTINUOUS
 62
    30
 10
601.3390803429926
 20
-0.000000001660762
 30
0.0
 40
5.0
  0
LINE
  5
70C
  8
SIZE
  6
CONTINUOUS
 62
    30
 10
601.3390803429926
 20
-0.000000001660762
 30
0.0
 11
601.3390803429926
 21
9.99999999833924
 31
0.0
  0
CIRCLE
  5
70D
  8
SIZE
  6
CONTINUOUS
 62
    30
 10
601.3390803429929
 20
814.9999788833939
 30
0.0
 40
5.0
  0
LINE
  5
70E
  8
SIZE
  6
CONTINUOUS
 62
    30
 10
601.3390803429929
 20
814.9999788833939
 30
0.0
 11
601.3390803429929
 21
804.9999788833939
 31
0.0
  0
TEXT
  5
70F
  8
SIZE
  6
CONTINUOUS
 62
    30
 10
591.3390803429926
 20
364.6428664214372
 30
0.0
 40
30.0
  1
815
 50
90.0
 72
     1
 11
591.3390803429926
 21
407.5000092785801
 31
0.0
  0
POINT
  5
710
  8
DEFPOINTS
  6
CONTINUOUS
 62
    30
 10
33.00000179742236
 20
-0.000000001660601
 30
0.0
  0
POINT
  5
711
  8
DEFPOINTS
  6
CONTINUOUS
 62
    30
 10
99.9999979827251
 20
814.9999788833939
 30
0.0
  0
POINT
  5
712
  8
DEFPOINTS
  6
CONTINUOUS
 62
    30
 10
601.3390803429929
 20
814.9999788833939
 30
0.0
  0
LINE
  5
713
  8
SIZE
  6
CONTINUOUS
 62
    30
 10
4.999999890073741
 20
714.9999788833939
 30
0.0
 11
459.1000056359616
 21
714.9999788833937
 31
0.0
  0
LINE
  5
714
  8
SIZE
  6
CONTINUOUS
 62
    30
 10
109.9999979827251
 20
814.9999788833939
 30
0.0
 11
459.1000056359616
 21
814.9999788833939
 31
0.0
  0
LINE
  5
715
  8
SIZE
  6
CONTINUOUS
 62
    30
 10
446.6000056359616
 20
724.9999788833939
 30
0.0
 11
446.6000056359616
 21
804.9999788833937
 31
0.0
  0
CIRCLE
  5
716
  8
SIZE
  6
CONTINUOUS
 62
    30
 10
446.6000056359616
 20
714.9999788833937
 30
0.0
 40
5.0
  0
LINE
  5
717
  8
SIZE
  6
CONTINUOUS
 62
    30
 10
446.6000056359616
 20
714.9999788833937
 30
0.0
 11
446.6000056359616
 21
724.9999788833937
 31
0.0
  0
CIRCLE
  5
718
  8
SIZE
  6
CONTINUOUS
 62
    30
 10
446.6000056359616
 20
814.9999788833939
 30
0.0
 40
5.0
  0
LINE
  5
719
  8
SIZE
  6
CONTINUOUS
 62
    30
 10
446.6000056359616
 20
814.9999788833939
 30
0.0
 11
446.6000056359616
 21
804.9999788833939
 31
0.0
  0
TEXT
  5
71A
  8
SIZE
  6
CONTINUOUS
 62
    30
 10
436.6000056359614
 20
719.999978761002
 30
0.0
 40
30.0
  1
100
 50
90.0
 72
     1
 11
436.6000056359614
 21
764.999978761002
 31
0.0
  0
POINT
  5
71B
  8
DEFPOINTS
  6
CONTINUOUS
 62
    30
 10
-5.000000109926258
 20
714.9999788833939
 30
0.0
  0
POINT
  5
71C
  8
DEFPOINTS
  6
CONTINUOUS
 62
    30
 10
99.9999979827251
 20
814.9999788833939
 30
0.0
  0
POINT
  5
71D
  8
DEFPOINTS
  6
CONTINUOUS
 62
    30
 10
446.6000056359616
 20
814.9999788833939
 30
0.0
  0
LINE
  5
71E
  8
SIZE
  6
CONTINUOUS
 62
    30
 10
-0.0000000000301956
 20
9.999999864228947
 30
0.0
 11
-0.0000000000302186
 21
-364.4327237771665
 31
0.0
  0
LINE
  5
71F
  8
SIZE
  6
CONTINUOUS
 62
    30
 10
9.999999890073742
 20
9.999999864228947
 30
0.0
 11
9.999999890073719
 21
-364.4327237771665
 31
0.0
  0
LINE
  5
720
  8
SIZE
  6
CONTINUOUS
 62
    30
 10
-10.00000000003022
 20
-351.9327237771665
 30
0.0
 11
-20.00000000003022
 21
-351.9327237771665
 31
0.0
  0
LINE
  5
721
  8
SIZE
  6
CONTINUOUS
 62
    30
 10
19.99999989007372
 20
-351.9327237771665
 30
0.0
 11
113.7257593351034
 21
-351.9327237771665
 31
0.0
  0
LINE
  5
722
  8
SIZE
  6
CONTINUOUS
 62
    30
 10
-0.0000000000302178
 20
-351.9327237771665
 30
0.0
 11
9.999999890073719
 21
-351.9327237771665
 31
0.0
  0
CIRCLE
  5
723
  8
SIZE
  6
CONTINUOUS
 62
    30
 10
-0.0000000000302178
 20
-351.9327237771665
 30
0.0
 40
5.0
  0
LINE
  5
724
  8
SIZE
  6
CONTINUOUS
 62
    30
 10
-0.0000000000302178
 20
-351.9327237771665
 30
0.0
 11
-10.00000000003022
 21
-351.9327237771665
 31
0.0
  0
CIRCLE
  5
725
  8
SIZE
  6
CONTINUOUS
 62
    30
 10
9.999999890073719
 20
-351.9327237771665
 30
0.0
 40
5.0
  0
LINE
  5
726
  8
SIZE
  6
CONTINUOUS
 62
    30
 10
9.999999890073719
 20
-351.9327237771665
 30
0.0
 11
19.99999989007372
 21
-351.9327237771665
 31
0.0
  0
TEXT
  5
727
  8
SIZE
  6
CONTINUOUS
 62
    30
 10
55.51147362081765
 20
-341.9327237771665
 30
0.0
 40
30.0
  1
10
 72
     1
 11
86.22575933510336
 21
-341.9327237771665
 31
0.0
  0
POINT
  5
728
  8
DEFPOINTS
  6
CONTINUOUS
 62
    30
 10
-0.000000000030195
 20
19.99999986422895
 30
0.0
  0
POINT
  5
729
  8
DEFPOINTS
  6
CONTINUOUS
 62
    30
 10
9.999999890073742
 20
19.99999986422895
 30
0.0
  0
POINT
  5
72A
  8
DEFPOINTS
  6
CONTINUOUS
 62
    30
 10
9.999999890073719
 20
-351.9327237771665
 30
0.0
  0
LINE
  5
72B
  8
SIZE
  6
CONTINUOUS
 62
    30
 10
-0.0000000000301956
 20
9.999999864228947
 30
0.0
 11
-0.0000000000302061
 21
-160.3548276590025
 31
0.0
  0
LINE
  5
72C
  8
SIZE
  6
CONTINUOUS
 62
    30
 10
-0.6966013219509477
 20
-32.10279478298786
 30
0.0
 11
-0.6966013219509555
 21
-160.3548276590025
 31
0.0
  0
LINE
  5
72D
  8
SIZE
  6
CONTINUOUS
 62
    30
 10
9.999999999969795
 20
-147.8548276590025
 30
0.0
 11
19.99999999996979
 21
-147.8548276590025
 31
0.0
  0
LINE
  5
72E
  8
SIZE
  6
CONTINUOUS
 62
    30
 10
-10.69660132195095
 20
-147.8548276590025
 30
0.0
 11
-80.79805200522866
 21
-147.8548276590025
 31
0.0
  0
LINE
  5
72F
  8
SIZE
  6
CONTINUOUS
 62
    30
 10
-0.0000000000302053
 20
-147.8548276590025
 30
0.0
 11
-0.6966013219509547
 21
-147.8548276590025
 31
0.0
  0
CIRCLE
  5
730
  8
SIZE
  6
CONTINUOUS
 62
    30
 10
-0.0000000000302053
 20
-147.8548276590025
 30
0.0
 40
5.0
  0
LINE
  5
731
  8
SIZE
  6
CONTINUOUS
 62
    30
 10
-0.0000000000302053
 20
-147.8548276590025
 30
0.0
 11
9.999999999969795
 21
-147.8548276590025
 31
0.0
  0
CIRCLE
  5
732
  8
SIZE
  6
CONTINUOUS
 62
    30
 10
-0.6966013219509547
 20
-147.8548276590025
 30
0.0
 40
5.0
  0
LINE
  5
733
  8
SIZE
  6
CONTINUOUS
 62
    30
 10
-0.6966013219509547
 20
-147.8548276590025
 30
0.0
 11
-10.69660132195095
 21
-147.8548276590025
 31
0.0
  0
TEXT
  5
734
  8
SIZE
  6
CONTINUOUS
 62
    30
 10
-77.9409091480858
 20
-137.8548276590025
 30
0.0
 40
30.0
  1
1
 72
     1
 11
-65.79805200522866
 21
-137.8548276590025
 31
0.0
  0
POINT
  5
735
  8
DEFPOINTS
  6
CONTINUOUS
 62
    30
 10
-0.000000000030195
 20
19.99999986422895
 30
0.0
  0
POINT
  5
736
  8
DEFPOINTS
  6
CONTINUOUS
 62
    30
 10
-0.696601321950947
 20
-22.10279478298785
 30
0.0
  0
POINT
  5
737
  8
DEFPOINTS
  6
CONTINUOUS
 62
    30
 10
-0.6966013219509547
 20
-147.8548276590025
 30
0.0
  0
LINE
  5
738
  8
SIZE
  6
CONTINUOUS
 62
    30
 10
-0.0000000000301944
 20
719.999978883394
 30
0.0
 11
-0.0000000000301716
 21
1092.189407570489
 31
0.0
  0
LINE
  5
739
  8
SIZE
  6
CONTINUOUS
 62
    30
 10
-284.9999943878804
 20
719.999978883394
 30
0.0
 11
-284.9999943878804
 21
1092.189407570489
 31
0.0
  0
LINE
  5
73A
  8
SIZE
  6
CONTINUOUS
 62
    30
 10
-10.00000000003017
 20
1079.689407570489
 30
0.0
 11
-274.9999943878804
 21
1079.689407570489
 31
0.0
  0
CIRCLE
  5
73B
  8
SIZE
  6
CONTINUOUS
 62
    30
 10
-0.0000000000301724
 20
1079.689407570489
 30
0.0
 40
5.0
  0
LINE
  5
73C
  8
SIZE
  6
CONTINUOUS
 62
    30
 10
-0.0000000000301724
 20
1079.689407570489
 30
0.0
 11
-10.00000000003017
 21
1079.689407570489
 31
0.0
  0
CIRCLE
  5
73D
  8
SIZE
  6
CONTINUOUS
 62
    30
 10
-284.9999943878804
 20
1079.689407570489
 30
0.0
 40
5.0
  0
LINE
  5
73E
  8
SIZE
  6
CONTINUOUS
 62
    30
 10
-284.9999943878804
 20
1079.689407570489
 30
0.0
 11
-274.9999943878804
 21
1079.689407570489
 31
0.0
  0
TEXT
  5
73F
  8
SIZE
  6
CONTINUOUS
 62
    30
 10
-185.3571373062192
 20
1089.68940757049
 30
0.0
 40
30.0
  1
285
 72
     1
 11
-142.4999944490763
 21
1089.68940757049
 31
0.0
  0
POINT
  5
740
  8
DEFPOINTS
  6
CONTINUOUS
 62
    30
 10
-0.000000000030195
 20
709.9999788833939
 30
0.0
  0
POINT
  5
741
  8
DEFPOINTS
  6
CONTINUOUS
 62
    30
 10
-284.9999943878804
 20
709.9999788833939
 30
0.0
  0
POINT
  5
742
  8
DEFPOINTS
  6
CONTINUOUS
 62
    30
 10
-284.9999943878804
 20
1079.689407570489
 30
0.0
  0
LINE
  5
743
  8
SIZE
  6
CONTINUOUS
 62
    30
 10
99.9999979827251
 20
824.9999788833939
 30
0.0
 11
99.99999798272512
 21
1092.189407570489
 31
0.0
  0
LINE
  5
744
  8
SIZE
  6
CONTINUOUS
 62
    30
 10
-0.0000000000301944
 20
719.999978883394
 30
0.0
 11
-0.0000000000301716
 21
1092.189407570489
 31
0.0
  0
LINE
  5
745
  8
SIZE
  6
CONTINUOUS
 62
    30
 10
89.99999798272512
 20
1079.689407570489
 30
0.0
 11
9.999999999969829
 21
1079.689407570489
 31
0.0
  0
CIRCLE
  5
746
  8
SIZE
  6
CONTINUOUS
 62
    30
 10
99.99999798272512
 20
1079.689407570489
 30
0.0
 40
5.0
  0
LINE
  5
747
  8
SIZE
  6
CONTINUOUS
 62
    30
 10
99.99999798272512
 20
1079.689407570489
 30
0.0
 11
89.99999798272512
 21
1079.689407570489
 31
0.0
  0
CIRCLE
  5
748
  8
SIZE
  6
CONTINUOUS
 62
    30
 10
-0.0000000000301724
 20
1079.689407570489
 30
0.0
 40
5.0
  0
LINE
  5
749
  8
SIZE
  6
CONTINUOUS
 62
    30
 10
-0.0000000000301724
 20
1079.689407570489
 30
0.0
 11
9.999999999969829
 21
1079.689407570489
 31
0.0
  0
TEXT
  5
74A
  8
SIZE
  6
CONTINUOUS
 62
    30
 10
5.000001736226416
 20
1089.68940757049
 30
0.0
 40
30.0
  1
100
 72
     1
 11
50.00000173622642
 21
1089.68940757049
 31
0.0
  0
POINT
  5
74B
  8
DEFPOINTS
  6
CONTINUOUS
 62
    30
 10
99.9999979827251
 20
814.9999788833939
 30
0.0
  0
POINT
  5
74C
  8
DEFPOINTS
  6
CONTINUOUS
 62
    30
 10
-0.000000000030195
 20
709.9999788833939
 30
0.0
  0
POINT
  5
74D
  8
DEFPOINTS
  6
CONTINUOUS
 62
    30
 10
-0.0000000000301724
 20
1079.689407570489
 30
0.0
  0
LINE
  5
74E
  8
SIZE
  6
CONTINUOUS
 62
    30
 10
15.99999989007374
 20
684.9999788833939
 30
0.0
 11
15.99999989007376
 21
954.2855989767396
 31
0.0
  0
LINE
  5
74F
  8
SIZE
  6
CONTINUOUS
 62
    30
 10
-0.0000000000301944
 20
719.999978883394
 30
0.0
 11
-0.0000000000301801
 21
954.2855989767396
 31
0.0
  0
LINE
  5
750
  8
SIZE
  6
CONTINUOUS
 62
    30
 10
25.99999989007376
 20
941.7855989767396
 30
0.0
 11
35.99999989007376
 21
941.7855989767396
 31
0.0
  0
LINE
  5
751
  8
SIZE
  6
CONTINUOUS
 62
    30
 10
-10.00000000003018
 20
941.7855989767396
 30
0.0
 11
-120.1650716585489
 21
941.7855989767396
 31
0.0
  0
LINE
  5
752
  8
SIZE
  6
CONTINUOUS
 62
    30
 10
15.99999989007376
 20
941.7855989767396
 30
0.0
 11
-0.0000000000301808
 21
941.7855989767396
 31
0.0
  0
CIRCLE
  5
753
  8
SIZE
  6
CONTINUOUS
 62
    30
 10
15.99999989007376
 20
941.7855989767396
 30
0.0
 40
5.0
  0
LINE
  5
754
  8
SIZE
  6
CONTINUOUS
 62
    30
 10
15.99999989007376
 20
941.7855989767396
 30
0.0
 11
25.99999989007376
 21
941.7855989767396
 31
0.0
  0
CIRCLE
  5
755
  8
SIZE
  6
CONTINUOUS
 62
    30
 10
-0.0000000000301808
 20
941.7855989767396
 30
0.0
 40
5.0
  0
LINE
  5
756
  8
SIZE
  6
CONTINUOUS
 62
    30
 10
-0.0000000000301808
 20
941.7855989767396
 30
0.0
 11
-10.00000000003018
 21
941.7855989767396
 31
0.0
  0
TEXT
  5
757
  8
SIZE
  6
CONTINUOUS
 62
    30
 10
-120.8793573728347
 20
951.7855989767396
 30
0.0
 40
30.0
  1
16
 72
     1
 11
-90.16507165854897
 21
951.7855989767396
 31
0.0
  0
POINT
  5
758
  8
DEFPOINTS
  6
CONTINUOUS
 62
    30
 10
15.99999989007374
 20
674.999978883394
 30
0.0
  0
POINT
  5
759
  8
DEFPOINTS
  6
CONTINUOUS
 62
    30
 10
-0.000000000030195
 20
709.9999788833939
 30
0.0
  0
POINT
  5
75A
  8
DEFPOINTS
  6
CONTINUOUS
 62
    30
 10
-0.0000000000301808
 20
941.7855989767396
 30
0.0
  0
LINE
  5
75B
  8
SIZE
  6
CONTINUOUS
 62
    30
 10
-284.9999943878804
 20
719.999978883394
 30
0.0
 11
-284.9999943878804
 21
954.2855989767396
 31
0.0
  0
LINE
  5
75C
  8
SIZE
  6
CONTINUOUS
 62
    30
 10
-298.4999943878803
 20
678.999978883394
 30
0.0
 11
-298.4999943878803
 21
954.2855989767396
 31
0.0
  0
LINE
  5
75D
  8
SIZE
  6
CONTINUOUS
 62
    30
 10
-274.9999943878804
 20
941.7855989767396
 30
0.0
 11
-264.9999943878804
 21
941.7855989767396
 31
0.0
  0
LINE
  5
75E
  8
SIZE
  6
CONTINUOUS
 62
    30
 10
-308.4999943878803
 20
941.7855989767396
 30
0.0
 11
-428.8401128572794
 21
941.7855989767396
 31
0.0
  0
LINE
  5
75F
  8
SIZE
  6
CONTINUOUS
 62
    30
 10
-284.9999943878804
 20
941.7855989767396
 30
0.0
 11
-298.4999943878803
 21
941.7855989767396
 31
0.0
  0
CIRCLE
  5
760
  8
SIZE
  6
CONTINUOUS
 62
    30
 10
-284.9999943878804
 20
941.7855989767396
 30
0.0
 40
5.0
  0
LINE
  5
761
  8
SIZE
  6
CONTINUOUS
 62
    30
 10
-284.9999943878804
 20
941.7855989767396
 30
0.0
 11
-274.9999943878804
 21
941.7855989767396
 31
0.0
  0
CIRCLE
  5
762
  8
SIZE
  6
CONTINUOUS
 62
    30
 10
-298.4999943878803
 20
941.7855989767396
 30
0.0
 40
5.0
  0
LINE
  5
763
  8
SIZE
  6
CONTINUOUS
 62
    30
 10
-298.4999943878803
 20
941.7855989767396
 30
0.0
 11
-308.4999943878803
 21
941.7855989767396
 31
0.0
  0
TEXT
  5
764
  8
SIZE
  6
CONTINUOUS
 62
    30
 10
-429.5543985715651
 20
951.7855989767396
 30
0.0
 40
30.0
  1
13
 72
     1
 11
-398.8401128572794
 21
951.7855989767396
 31
0.0
  0
POINT
  5
765
  8
DEFPOINTS
  6
CONTINUOUS
 62
    30
 10
-284.9999943878804
 20
709.9999788833939
 30
0.0
  0
POINT
  5
766
  8
DEFPOINTS
  6
CONTINUOUS
 62
    30
 10
-298.4999943878803
 20
668.9999788833939
 30
0.0
  0
POINT
  5
767
  8
DEFPOINTS
  6
CONTINUOUS
 62
    30
 10
-298.4999943878803
 20
941.7855989767396
 30
0.0
  0
LINE
  5
768
  8
SIZE
  6
CONTINUOUS
 62
    30
 10
-284.9999943878804
 20
824.9999788833939
 30
0.0
 11
-284.9999943878804
 21
1092.189407570489
 31
0.0
  0
LINE
  5
769
  8
SIZE
  6
CONTINUOUS
 62
    30
 10
-484.9999943878803
 20
824.9999788833939
 30
0.0
 11
-484.9999943878803
 21
1092.189407570489
 31
0.0
  0
LINE
  5
76A
  8
SIZE
  6
CONTINUOUS
 62
    30
 10
-294.9999943878803
 20
1079.689407570489
 30
0.0
 11
-474.9999943878803
 21
1079.689407570489
 31
0.0
  0
CIRCLE
  5
76B
  8
SIZE
  6
CONTINUOUS
 62
    30
 10
-284.9999943878804
 20
1079.689407570489
 30
0.0
 40
5.0
  0
LINE
  5
76C
  8
SIZE
  6
CONTINUOUS
 62
    30
 10
-284.9999943878804
 20
1079.689407570489
 30
0.0
 11
-294.9999943878804
 21
1079.689407570489
 31
0.0
  0
CIRCLE
  5
76D
  8
SIZE
  6
CONTINUOUS
 62
    30
 10
-484.9999943878803
 20
1079.689407570489
 30
0.0
 40
5.0
  0
LINE
  5
76E
  8
SIZE
  6
CONTINUOUS
 62
    30
 10
-484.9999943878803
 20
1079.689407570489
 30
0.0
 11
-474.9999943878803
 21
1079.689407570489
 31
0.0
  0
TEXT
  5
76F
  8
SIZE
  6
CONTINUOUS
 62
    30
 10
-427.8571373062192
 20
1089.68940757049
 30
0.0
 40
30.0
  1
200
 72
     1
 11
-384.9999944490764
 21
1089.68940757049
 31
0.0
  0
POINT
  5
770
  8
DEFPOINTS
  6
CONTINUOUS
 62
    30
 10
-284.9999943878804
 20
814.9999788833939
 30
0.0
  0
POINT
  5
771
  8
DEFPOINTS
  6
CONTINUOUS
 62
    30
 10
-484.9999943878803
 20
814.9999788833939
 30
0.0
  0
POINT
  5
772
  8
DEFPOINTS
  6
CONTINUOUS
 62
    30
 10
-484.9999943878803
 20
1079.689407570489
 30
0.0
  0
LINE
  5
773
  8
SIZE
  6
CONTINUOUS
 62
    30
 10
-284.9999943878804
 20
9.999999864228947
 30
0.0
 11
-284.9999943878804
 21
-364.4327237771665
 31
0.0
  0
LINE
  5
774
  8
SIZE
  6
CONTINUOUS
 62
    30
 10
-0.0000000000301956
 20
9.999999864228947
 30
0.0
 11
-0.0000000000302186
 21
-364.4327237771665
 31
0.0
  0
LINE
  5
775
  8
SIZE
  6
CONTINUOUS
 62
    30
 10
-274.9999943878804
 20
-351.9327237771665
 30
0.0
 11
-10.00000000003022
 21
-351.9327237771665
 31
0.0
  0
CIRCLE
  5
776
  8
SIZE
  6
CONTINUOUS
 62
    30
 10
-284.9999943878804
 20
-351.9327237771665
 30
0.0
 40
5.0
  0
LINE
  5
777
  8
SIZE
  6
CONTINUOUS
 62
    30
 10
-284.9999943878804
 20
-351.9327237771665
 30
0.0
 11
-274.9999943878804
 21
-351.9327237771665
 31
0.0
  0
CIRCLE
  5
778
  8
SIZE
  6
CONTINUOUS
 62
    30
 10
-0.0000000000302178
 20
-351.9327237771665
 30
0.0
 40
5.0
  0
LINE
  5
779
  8
SIZE
  6
CONTINUOUS
 62
    30
 10
-0.0000000000302178
 20
-351.9327237771665
 30
0.0
 11
-10.00000000003022
 21
-351.9327237771665
 31
0.0
  0
TEXT
  5
77A
  8
SIZE
  6
CONTINUOUS
 62
    30
 10
-185.3571373062192
 20
-341.9327237771665
 30
0.0
 40
30.0
  1
285
 72
     1
 11
-142.4999944490763
 21
-341.9327237771665
 31
0.0
  0
POINT
  5
77B
  8
DEFPOINTS
  6
CONTINUOUS
 62
    30
 10
-284.9999943878804
 20
19.99999986422895
 30
0.0
  0
POINT
  5
77C
  8
DEFPOINTS
  6
CONTINUOUS
 62
    30
 10
-0.000000000030195
 20
19.99999986422895
 30
0.0
  0
POINT
  5
77D
  8
DEFPOINTS
  6
CONTINUOUS
 62
    30
 10
-0.0000000000302178
 20
-351.9327237771665
 30
0.0
  0
LINE
  5
77E
  8
SIZE
  6
CONTINUOUS
 62
    30
 10
-326.9999943878803
 20
-0.0000000016605982
 30
0.0
 11
-614.0552067663823
 21
-0.0000000016605169
 31
0.0
  0
LINE
  5
77F
  8
SIZE
  6
CONTINUOUS
 62
    30
 10
-244.9999943878803
 20
406.000009400972
 30
0.0
 11
-614.0552067663822
 21
406.0000094009721
 31
0.0
  0
LINE
  5
780
  8
SIZE
  6
CONTINUOUS
 62
    30
 10
-601.5552067663823
 20
9.99999999833948
 30
0.0
 11
-601.5552067663822
 21
396.0000094009721
 31
0.0
  0
CIRCLE
  5
781
  8
SIZE
  6
CONTINUOUS
 62
    30
 10
-601.5552067663823
 20
-0.0000000016605204
 30
0.0
 40
5.0
  0
LINE
  5
782
  8
SIZE
  6
CONTINUOUS
 62
    30
 10
-601.5552067663823
 20
-0.0000000016605204
 30
0.0
 11
-601.5552067663823
 21
9.999999998339481
 31
0.0
  0
CIRCLE
  5
783
  8
SIZE
  6
CONTINUOUS
 62
    30
 10
-601.5552067663822
 20
406.0000094009721
 30
0.0
 40
5.0
  0
LINE
  5
784
  8
SIZE
  6
CONTINUOUS
 62
    30
 10
-601.5552067663822
 20
406.0000094009721
 30
0.0
 11
-601.5552067663822
 21
396.0000094009721
 31
0.0
  0
TEXT
  5
785
  8
SIZE
  6
CONTINUOUS
 62
    30
 10
-611.5552067663823
 20
160.1428511626483
 30
0.0
 40
30.0
  1
406
 50
90.0
 72
     1
 11
-611.5552067663823
 21
202.9999940197912
 31
0.0
  0
POINT
  5
786
  8
DEFPOINTS
  6
CONTINUOUS
 62
    30
 10
-316.9999943878803
 20
-0.000000001660601
 30
0.0
  0
POINT
  5
787
  8
DEFPOINTS
  6
CONTINUOUS
 62
    30
 10
-234.9999943878803
 20
406.000009400972
 30
0.0
  0
POINT
  5
788
  8
DEFPOINTS
  6
CONTINUOUS
 62
    30
 10
-601.5552067663822
 20
406.0000094009721
 30
0.0
  0
LINE
  5
789
  8
SIZE
  6
CONTINUOUS
 62
    30
 10
-326.9999943878803
 20
-0.0000000016605982
 30
0.0
 11
-752.054657449976
 21
-0.0000000016604778
 31
0.0
  0
LINE
  5
78A
  8
SIZE
  6
CONTINUOUS
 62
    30
 10
89.9999979827251
 20
814.9999788833939
 30
0.0
 11
-752.0546574499759
 21
814.9999788833941
 31
0.0
  0
LINE
  5
78B
  8
SIZE
  6
CONTINUOUS
 62
    30
 10
-739.554657449976
 20
9.999999998339518
 30
0.0
 11
-739.5546574499759
 21
804.9999788833941
 31
0.0
  0
CIRCLE
  5
78C
  8
SIZE
  6
CONTINUOUS
 62
    30
 10
-739.554657449976
 20
-0.0000000016604813
 30
0.0
 40
5.0
  0
LINE
  5
78D
  8
SIZE
  6
CONTINUOUS
 62
    30
 10
-739.554657449976
 20
-0.0000000016604813
 30
0.0
 11
-739.554657449976
 21
9.99999999833952
 31
0.0
  0
CIRCLE
  5
78E
  8
SIZE
  6
CONTINUOUS
 62
    30
 10
-739.5546574499759
 20
814.9999788833941
 30
0.0
 40
5.0
  0
LINE
  5
78F
  8
SIZE
  6
CONTINUOUS
 62
    30
 10
-739.5546574499759
 20
814.9999788833941
 30
0.0
 11
-739.5546574499759
 21
804.9999788833941
 31
0.0
  0
TEXT
  5
790
  8
SIZE
  6
CONTINUOUS
 62
    30
 10
-749.554657449976
 20
364.6428664214372
 30
0.0
 40
30.0
  1
815
 50
90.0
 72
     1
 11
-749.554657449976
 21
407.5000092785801
 31
0.0
  0
POINT
  5
791
  8
DEFPOINTS
  6
CONTINUOUS
 62
    30
 10
-316.9999943878803
 20
-0.000000001660601
 30
0.0
  0
POINT
  5
792
  8
DEFPOINTS
  6
CONTINUOUS
 62
    30
 10
99.9999979827251
 20
814.9999788833939
 30
0.0
  0
POINT
  5
793
  8
DEFPOINTS
  6
CONTINUOUS
 62
    30
 10
-739.5546574499759
 20
814.9999788833941
 30
0.0
  0
LINE
  5
794
  8
SIZE
  6
CONTINUOUS
 62
    30
 10
109.9999979827251
 20
-0.0000000016606038
 30
0.0
 11
460.1000054646128
 21
-0.000000001660703
 31
0.0
  0
LINE
  5
795
  8
SIZE
  6
CONTINUOUS
 62
    30
 10
29.29999912713429
 20
-15.00000013577105
 30
0.0
 11
460.1000054646128
 21
-15.00000013577117
 31
0.0
  0
LINE
  5
796
  8
SIZE
  6
CONTINUOUS
 62
    30
 10
447.6000054646128
 20
9.9999999983393
 30
0.0
 11
447.6000054646128
 21
19.99999999833929
 31
0.0
  0
LINE
  5
797
  8
SIZE
  6
CONTINUOUS
 62
    30
 10
447.6000054646128
 20
-25.00000013577117
 30
0.0
 11
447.6000054646128
 21
-120.6274694401774
 31
0.0
  0
LINE
  5
798
  8
SIZE
  6
CONTINUOUS
 62
    30
 10
447.6000054646128
 20
-0.0000000016606995
 30
0.0
 11
447.6000054646128
 21
-15.00000013577117
 31
0.0
  0
CIRCLE
  5
799
  8
SIZE
  6
CONTINUOUS
 62
    30
 10
447.6000054646128
 20
-0.0000000016606995
 30
0.0
 40
5.0
  0
LINE
  5
79A
  8
SIZE
  6
CONTINUOUS
 62
    30
 10
447.6000054646128
 20
-0.0000000016606995
 30
0.0
 11
447.6000054646128
 21
9.999999998339302
 31
0.0
  0
CIRCLE
  5
79B
  8
SIZE
  6
CONTINUOUS
 62
    30
 10
447.6000054646128
 20
-15.00000013577117
 30
0.0
 40
5.0
  0
LINE
  5
79C
  8
SIZE
  6
CONTINUOUS
 62
    30
 10
447.6000054646128
 20
-15.00000013577117
 30
0.0
 11
447.6000054646128
 21
-25.00000013577117
 31
0.0
  0
TEXT
  5
79D
  8
SIZE
  6
CONTINUOUS
 62
    30
 10
437.6000054646128
 20
-121.3417551544631
 30
0.0
 40
30.0
  1
15
 50
90.0
 72
     1
 11
437.6000054646128
 21
-90.62746944017742
 31
0.0
  0
POINT
  5
79E
  8
DEFPOINTS
  6
CONTINUOUS
 62
    30
 10
99.9999979827251
 20
-0.000000001660601
 30
0.0
  0
POINT
  5
79F
  8
DEFPOINTS
  6
CONTINUOUS
 62
    30
 10
19.29999912713428
 20
-15.00000013577105
 30
0.0
  0
POINT
  5
7A0
  8
DEFPOINTS
  6
CONTINUOUS
 62
    30
 10
447.6000054646128
 20
-15.00000013577117
 30
0.0
  0
LINE
  5
7A1
  8
SIZE
  6
CONTINUOUS
 62
    30
 10
-316.9999943878803
 20
-10.0000000016606
 30
0.0
 11
-316.9999943878804
 21
-560.1000211404478
 31
0.0
  0
LINE
  5
7A2
  8
SIZE
  6
CONTINUOUS
 62
    30
 10
27.99999989007374
 20
-10.0000000016606
 30
0.0
 11
27.99999989007371
 21
-560.1000211404478
 31
0.0
  0
LINE
  5
7A3
  8
SIZE
  6
CONTINUOUS
 62
    30
 10
-306.9999943878803
 20
-547.6000211404478
 30
0.0
 11
17.99999989007371
 21
-547.6000211404478
 31
0.0
  0
CIRCLE
  5
7A4
  8
SIZE
  6
CONTINUOUS
 62
    30
 10
-316.9999943878804
 20
-547.6000211404478
 30
0.0
 40
5.0
  0
LINE
  5
7A5
  8
SIZE
  6
CONTINUOUS
 62
    30
 10
-316.9999943878804
 20
-547.6000211404478
 30
0.0
 11
-306.9999943878804
 21
-547.6000211404478
 31
0.0
  0
CIRCLE
  5
7A6
  8
SIZE
  6
CONTINUOUS
 62
    30
 10
27.99999989007371
 20
-547.6000211404478
 30
0.0
 40
5.0
  0
LINE
  5
7A7
  8
SIZE
  6
CONTINUOUS
 62
    30
 10
27.99999989007371
 20
-547.6000211404478
 30
0.0
 11
17.99999989007371
 21
-547.6000211404478
 31
0.0
  0
TEXT
  5
7A8
  8
SIZE
  6
CONTINUOUS
 62
    30
 10
-187.3571373062192
 20
-537.6000211404478
 30
0.0
 40
30.0
  1
345
 72
     1
 11
-144.4999944490763
 21
-537.6000211404478
 31
0.0
  0
POINT
  5
7A9
  8
DEFPOINTS
  6
CONTINUOUS
 62
    30
 10
-316.9999943878803
 20
-0.000000001660601
 30
0.0
  0
POINT
  5
7AA
  8
DEFPOINTS
  6
CONTINUOUS
 62
    30
 10
27.99999989007374
 20
-0.000000001660601
 30
0.0
  0
POINT
  5
7AB
  8
DEFPOINTS
  6
CONTINUOUS
 62
    30
 10
27.99999989007371
 20
-547.6000211404478
 30
0.0
  0
LINE
  5
7AC
  8
SIZE
  6
CONTINUOUS
 62
    30
 10
-326.9999943878803
 20
7.99999986422895
 30
0.0
 11
-399.8999943640386
 21
7.999999864228971
 31
0.0
  0
LINE
  5
7AD
  8
SIZE
  6
CONTINUOUS
 62
    30
 10
-326.9999943878803
 20
-0.0000000016605982
 30
0.0
 11
-399.8999943640386
 21
-0.0000000016605775
 31
0.0
  0
LINE
  5
7AE
  8
SIZE
  6
CONTINUOUS
 62
    30
 10
-387.3999943640386
 20
-10.00000000166058
 30
0.0
 11
-387.3999943640386
 21
-20.00000000166058
 31
0.0
  0
LINE
  5
7AF
  8
SIZE
  6
CONTINUOUS
 62
    30
 10
-387.3999943640386
 20
17.99999986422896
 30
0.0
 11
-387.3999943640386
 21
79.36467144899046
 31
0.0
  0
LINE
  5
7B0
  8
SIZE
  6
CONTINUOUS
 62
    30
 10
-387.3999943640386
 20
-0.0000000016605811
 30
0.0
 11
-387.3999943640386
 21
7.999999864228968
 31
0.0
  0
CIRCLE
  5
7B1
  8
SIZE
  6
CONTINUOUS
 62
    30
 10
-387.3999943640386
 20
-0.0000000016605811
 30
0.0
 40
5.0
  0
LINE
  5
7B2
  8
SIZE
  6
CONTINUOUS
 62
    30
 10
-387.3999943640386
 20
-0.0000000016605811
 30
0.0
 11
-387.3999943640386
 21
-10.00000000166058
 31
0.0
  0
CIRCLE
  5
7B3
  8
SIZE
  6
CONTINUOUS
 62
    30
 10
-387.3999943640386
 20
7.999999864228968
 30
0.0
 40
5.0
  0
LINE
  5
7B4
  8
SIZE
  6
CONTINUOUS
 62
    30
 10
-387.3999943640386
 20
7.999999864228968
 30
0.0
 11
-387.3999943640386
 21
17.99999986422897
 31
0.0
  0
TEXT
  5
7B5
  8
SIZE
  6
CONTINUOUS
 62
    30
 10
-397.3999943640385
 20
45.07895716327611
 30
0.0
 40
30.0
  1
8
 50
90.0
 72
     1
 11
-397.3999943640385
 21
59.36467144899039
 31
0.0
  0
POINT
  5
7B6
  8
DEFPOINTS
  6
CONTINUOUS
 62
    30
 10
-316.9999943878803
 20
7.999999864228947
 30
0.0
  0
POINT
  5
7B7
  8
DEFPOINTS
  6
CONTINUOUS
 62
    30
 10
-316.9999943878803
 20
-0.000000001660601
 30
0.0
  0
POINT
  5
7B8
  8
DEFPOINTS
  6
CONTINUOUS
 62
    30
 10
-387.3999943640386
 20
-0.0000000016605811
 30
0.0
  0
LINE
  5
7B9
  8
SIZE
  6
CONTINUOUS
 62
    30
 10
-0.0000000000301956
 20
-10.0000000016606
 30
0.0
 11
-0.0000000000302109
 21
-260.1000058816588
 31
0.0
  0
LINE
  5
7BA
  8
SIZE
  6
CONTINUOUS
 62
    30
 10
27.99999989007374
 20
-8.000000016561762
 30
0.0
 11
27.99999989007373
 21
-260.1000058816588
 31
0.0
  0
LINE
  5
7BB
  8
SIZE
  6
CONTINUOUS
 62
    30
 10
37.99999989007372
 20
-247.6000058816588
 30
0.0
 11
47.99999989007372
 21
-247.6000058816588
 31
0.0
  0
LINE
  5
7BC
  8
SIZE
  6
CONTINUOUS
 62
    30
 10
-10.00000000003021
 20
-247.6000058816588
 30
0.0
 11
-105.1719381136271
 21
-247.6000058816588
 31
0.0
  0
LINE
  5
7BD
  8
SIZE
  6
CONTINUOUS
 62
    30
 10
27.99999989007373
 20
-247.6000058816588
 30
0.0
 11
-0.0000000000302102
 21
-247.6000058816588
 31
0.0
  0
CIRCLE
  5
7BE
  8
SIZE
  6
CONTINUOUS
 62
    30
 10
27.99999989007373
 20
-247.6000058816588
 30
0.0
 40
5.0
  0
LINE
  5
7BF
  8
SIZE
  6
CONTINUOUS
 62
    30
 10
27.99999989007373
 20
-247.6000058816588
 30
0.0
 11
37.99999989007372
 21
-247.6000058816588
 31
0.0
  0
CIRCLE
  5
7C0
  8
SIZE
  6
CONTINUOUS
 62
    30
 10
-0.0000000000302102
 20
-247.6000058816588
 30
0.0
 40
5.0
  0
LINE
  5
7C1
  8
SIZE
  6
CONTINUOUS
 62
    30
 10
-0.0000000000302102
 20
-247.6000058816588
 30
0.0
 11
-10.00000000003021
 21
-247.6000058816588
 31
0.0
  0
TEXT
  5
7C2
  8
SIZE
  6
CONTINUOUS
 62
    30
 10
-98.74336668505566
 20
-237.6000058816588
 30
0.0
 40
30.0
  1
28
 72
     1
 11
-70.17193811362709
 21
-237.6000058816588
 31
0.0
  0
POINT
  5
7C3
  8
DEFPOINTS
  6
CONTINUOUS
 62
    30
 10
-0.000000000030195
 20
-0.000000001660601
 30
0.0
  0
POINT
  5
7C4
  8
DEFPOINTS
  6
CONTINUOUS
 62
    30
 10
27.99999989007374
 20
1.999999983438238
 30
0.0
  0
POINT
  5
7C5
  8
DEFPOINTS
  6
CONTINUOUS
 62
    30
 10
27.99999989007373
 20
-247.6000058816588
 30
0.0
  0
LINE
  5
7C6
  8
SIZE
  6
CONTINUOUS
 62
    30
 10
-304.9999943878803
 20
-30.00000013577105
 30
0.0
 11
-304.9999943878803
 21
-460.1000210119363
 31
0.0
  0
LINE
  5
7C7
  8
SIZE
  6
CONTINUOUS
 62
    30
 10
9.999999890073742
 20
-30.00000013577105
 30
0.0
 11
9.999999890073713
 21
-460.1000210119363
 31
0.0
  0
LINE
  5
7C8
  8
SIZE
  6
CONTINUOUS
 62
    30
 10
-294.9999943878803
 20
-447.6000210119363
 30
0.0
 11
-0.0000001099262851
 21
-447.6000210119363
 31
0.0
  0
CIRCLE
  5
7C9
  8
SIZE
  6
CONTINUOUS
 62
    30
 10
-304.9999943878803
 20
-447.6000210119363
 30
0.0
 40
5.0
  0
LINE
  5
7CA
  8
SIZE
  6
CONTINUOUS
 62
    30
 10
-304.9999943878803
 20
-447.6000210119363
 30
0.0
 11
-294.9999943878803
 21
-447.6000210119363
 31
0.0
  0
CIRCLE
  5
7CB
  8
SIZE
  6
CONTINUOUS
 62
    30
 10
9.999999890073713
 20
-447.6000210119363
 30
0.0
 40
5.0
  0
LINE
  5
7CC
  8
SIZE
  6
CONTINUOUS
 62
    30
 10
9.999999890073713
 20
-447.6000210119363
 30
0.0
 11
-0.0000001099262869
 21
-447.6000210119363
 31
0.0
  0
TEXT
  5
7CD
  8
SIZE
  6
CONTINUOUS
 62
    30
 10
-216.0703814463673
 20
-437.6000210119363
 30
0.0
 40
30.0
  1
315
 72
     1
 11
-173.2132385892244
 21
-437.6000210119363
 31
0.0
  0
POINT
  5
7CE
  8
DEFPOINTS
  6
CONTINUOUS
 62
    30
 10
-304.9999943878803
 20
-20.00000013577105
 30
0.0
  0
POINT
  5
7CF
  8
DEFPOINTS
  6
CONTINUOUS
 62
    30
 10
9.999999890073742
 20
-20.00000013577105
 30
0.0
  0
POINT
  5
7D0
  8
DEFPOINTS
  6
CONTINUOUS
 62
    30
 10
9.999999890073713
 20
-447.6000210119363
 30
0.0
  0
LINE
  5
7D1
  8
SIZE
  6
CONTINUOUS
 62
    30
 10
-152.9999943878803
 20
216.9999941421831
 30
0.0
 11
-152.9999943878804
 21
-160.3548276590025
 31
0.0
  0
LINE
  5
7D2
  8
SIZE
  6
CONTINUOUS
 62
    30
 10
-316.9999943878803
 20
-10.0000000016606
 30
0.0
 11
-316.9999943878803
 21
-160.3548276590025
 31
0.0
  0
LINE
  5
7D3
  8
SIZE
  6
CONTINUOUS
 62
    30
 10
-162.9999943878803
 20
-147.8548276590025
 30
0.0
 11
-306.9999943878803
 21
-147.8548276590025
 31
0.0
  0
CIRCLE
  5
7D4
  8
SIZE
  6
CONTINUOUS
 62
    30
 10
-152.9999943878804
 20
-147.8548276590025
 30
0.0
 40
5.0
  0
LINE
  5
7D5
  8
SIZE
  6
CONTINUOUS
 62
    30
 10
-152.9999943878804
 20
-147.8548276590025
 30
0.0
 11
-162.9999943878804
 21
-147.8548276590025
 31
0.0
  0
CIRCLE
  5
7D6
  8
SIZE
  6
CONTINUOUS
 62
    30
 10
-316.9999943878803
 20
-147.8548276590025
 30
0.0
 40
5.0
  0
LINE
  5
7D7
  8
SIZE
  6
CONTINUOUS
 62
    30
 10
-316.9999943878803
 20
-147.8548276590025
 30
0.0
 11
-306.9999943878803
 21
-147.8548276590025
 31
0.0
  0
TEXT
  5
7D8
  8
SIZE
  6
CONTINUOUS
 62
    30
 10
-280.714280163362
 20
-137.8548276590025
 30
0.0
 40
30.0
  1
164
 72
     1
 11
-234.9999944490763
 21
-137.8548276590025
 31
0.0
  0
POINT
  5
7D9
  8
DEFPOINTS
  6
CONTINUOUS
 62
    30
 10
-152.9999943878803
 20
226.999994142183
 30
0.0
  0
POINT
  5
7DA
  8
DEFPOINTS
  6
CONTINUOUS
 62
    30
 10
-316.9999943878803
 20
-0.000000001660601
 30
0.0
  0
POINT
  5
7DB
  8
DEFPOINTS
  6
CONTINUOUS
 62
    30
 10
-316.9999943878803
 20
-147.8548276590025
 30
0.0
  0
LINE
  5
7DC
  8
SIZE
  6
CONTINUOUS
 62
    30
 10
-316.9999943878803
 20
-10.0000000016606
 30
0.0
 11
-316.9999943878803
 21
-259.8961332009947
 31
0.0
  0
LINE
  5
7DD
  8
SIZE
  6
CONTINUOUS
 62
    30
 10
-140.9999943878803
 20
97.00000177157759
 30
0.0
 11
-140.9999943878804
 21
-259.8961332009947
 31
0.0
  0
LINE
  5
7DE
  8
SIZE
  6
CONTINUOUS
 62
    30
 10
-306.9999943878803
 20
-247.3961332009947
 30
0.0
 11
-150.9999943878804
 21
-247.3961332009947
 31
0.0
  0
CIRCLE
  5
7DF
  8
SIZE
  6
CONTINUOUS
 62
    30
 10
-316.9999943878803
 20
-247.3961332009947
 30
0.0
 40
5.0
  0
LINE
  5
7E0
  8
SIZE
  6
CONTINUOUS
 62
    30
 10
-316.9999943878803
 20
-247.3961332009947
 30
0.0
 11
-306.9999943878803
 21
-247.3961332009947
 31
0.0
  0
CIRCLE
  5
7E1
  8
SIZE
  6
CONTINUOUS
 62
    30
 10
-140.9999943878804
 20
-247.3961332009947
 30
0.0
 40
5.0
  0
LINE
  5
7E2
  8
SIZE
  6
CONTINUOUS
 62
    30
 10
-140.9999943878804
 20
-247.3961332009947
 30
0.0
 11
-150.9999943878804
 21
-247.3961332009947
 31
0.0
  0
TEXT
  5
7E3
  8
SIZE
  6
CONTINUOUS
 62
    30
 10
-273.9999944490763
 20
-237.3961332009947
 30
0.0
 40
30.0
  1
176
 72
     1
 11
-228.9999944490763
 21
-237.3961332009947
 31
0.0
  0
POINT
  5
7E4
  8
DEFPOINTS
  6
CONTINUOUS
 62
    30
 10
-316.9999943878803
 20
-0.000000001660601
 30
0.0
  0
POINT
  5
7E5
  8
DEFPOINTS
  6
CONTINUOUS
 62
    30
 10
-140.9999943878803
 20
107.0000017715776
 30
0.0
  0
POINT
  5
7E6
  8
DEFPOINTS
  6
CONTINUOUS
 62
    30
 10
-140.9999943878804
 20
-247.3961332009947
 30
0.0
  0
LINE
  5
7E7
  8
SIZE
  6
CONTINUOUS
 62
    30
 10
43.00000179742236
 20
-0.0000000016606038
 30
0.0
 11
348.6978755090083
 21
-0.0000000016606904
 31
0.0
  0
LINE
  5
7E8
  8
SIZE
  6
CONTINUOUS
 62
    30
 10
-122.9999943878804
 20
206.999994142183
 30
0.0
 11
348.6978755090083
 21
206.9999941421829
 31
0.0
  0
LINE
  5
7E9
  8
SIZE
  6
CONTINUOUS
 62
    30
 10
336.1978755090083
 20
9.999999998339314
 30
0.0
 11
336.1978755090084
 21
196.9999941421829
 31
0.0
  0
CIRCLE
  5
7EA
  8
SIZE
  6
CONTINUOUS
 62
    30
 10
336.1978755090083
 20
-0.0000000016606869
 30
0.0
 40
5.0
  0
LINE
  5
7EB
  8
SIZE
  6
CONTINUOUS
 62
    30
 10
336.1978755090083
 20
-0.0000000016606869
 30
0.0
 11
336.1978755090083
 21
9.999999998339314
 31
0.0
  0
CIRCLE
  5
7EC
  8
SIZE
  6
CONTINUOUS
 62
    30
 10
336.1978755090084
 20
206.9999941421829
 30
0.0
 40
5.0
  0
LINE
  5
7ED
  8
SIZE
  6
CONTINUOUS
 62
    30
 10
336.1978755090084
 20
206.9999941421829
 30
0.0
 11
336.1978755090084
 21
196.9999941421829
 31
0.0
  0
TEXT
  5
7EE
  8
SIZE
  6
CONTINUOUS
 62
    30
 10
326.1978755090083
 20
60.64285879204283
 30
0.0
 40
30.0
  1
207
 50
90.0
 72
     1
 11
326.1978755090083
 21
103.5000016491857
 31
0.0
  0
POINT
  5
7EF
  8
DEFPOINTS
  6
CONTINUOUS
 62
    30
 10
33.00000179742236
 20
-0.000000001660601
 30
0.0
  0
POINT
  5
7F0
  8
DEFPOINTS
  6
CONTINUOUS
 62
    30
 10
-132.9999943878803
 20
206.999994142183
 30
0.0
  0
POINT
  5
7F1
  8
DEFPOINTS
  6
CONTINUOUS
 62
    30
 10
336.1978755090084
 20
206.9999941421829
 30
0.0
  0
LINE
  5
7F2
  8
SIZE
  6
CONTINUOUS
 62
    30
 10
43.00000179742236
 20
-0.0000000016606038
 30
0.0
 11
241.0049433801021
 21
-0.0000000016606599
 31
0.0
  0
LINE
  5
7F3
  8
SIZE
  6
CONTINUOUS
 62
    30
 10
-111.0000020172749
 20
127.0000017715776
 30
0.0
 11
241.0049433801021
 21
127.0000017715775
 31
0.0
  0
LINE
  5
7F4
  8
SIZE
  6
CONTINUOUS
 62
    30
 10
228.5049433801021
 20
9.999999998339344
 30
0.0
 11
228.5049433801022
 21
117.0000017715775
 31
0.0
  0
CIRCLE
  5
7F5
  8
SIZE
  6
CONTINUOUS
 62
    30
 10
228.5049433801021
 20
-0.0000000016606564
 30
0.0
 40
5.0
  0
LINE
  5
7F6
  8
SIZE
  6
CONTINUOUS
 62
    30
 10
228.5049433801021
 20
-0.0000000016606564
 30
0.0
 11
228.5049433801021
 21
9.999999998339344
 31
0.0
  0
CIRCLE
  5
7F7
  8
SIZE
  6
CONTINUOUS
 62
    30
 10
228.5049433801022
 20
127.0000017715775
 30
0.0
 40
5.0
  0
LINE
  5
7F8
  8
SIZE
  6
CONTINUOUS
 62
    30
 10
228.5049433801022
 20
127.0000017715775
 30
0.0
 11
228.5049433801022
 21
117.0000017715775
 31
0.0
  0
TEXT
  5
7F9
  8
SIZE
  6
CONTINUOUS
 62
    30
 10
218.5049433801021
 20
18.50000164918568
 30
0.0
 40
30.0
  1
127
 50
90.0
 72
     1
 11
218.5049433801021
 21
63.50000164918568
 31
0.0
  0
POINT
  5
7FA
  8
DEFPOINTS
  6
CONTINUOUS
 62
    30
 10
33.00000179742236
 20
-0.000000001660601
 30
0.0
  0
POINT
  5
7FB
  8
DEFPOINTS
  6
CONTINUOUS
 62
    30
 10
-121.0000020172749
 20
127.0000017715776
 30
0.0
  0
POINT
  5
7FC
  8
DEFPOINTS
  6
CONTINUOUS
 62
    30
 10
228.5049433801022
 20
127.0000017715775
 30
0.0
  0
TEXT
  5
7FD
  8
NOTE
  6
CONTINUOUS
 10
-684.6188298370992
 20
167.9535921646439
 30
0.0
 40
40.0
  1
メンテナンススペース
 50
90.00000500895634
 41
0.84375
  7
STANDARD1
  0
TEXT
  5
7FE
  8
NOTE
  6
CONTINUOUS
 10
-576.1296330597554
 20
1029.996560914644
 30
0.0
 40
28.0
  1
メンテナンススペース
 50
0.0000024148365395
 41
0.843750011353266
  7
STANDARD1
  0
TEXT
  5
7FF
  8
NOTE
  6
CONTINUOUS
 10
5.94940746758839
 20
1031.437234742769
 30
0.0
 40
28.0
  1
メンテナンススペース
 50
0.0000024148365395
 41
0.843750011353266
  7
STANDARD1
  0
TEXT
  5
800
  8
NOTE
  6
CONTINUOUS
 10
650.3908747527446
 20
178.9168490005814
 30
0.0
 40
40.0
  1
メンテナンススペース
 50
90.00000500895634
 41
0.84375
  7
STANDARD1
  0
TEXT
  5
801
  8
NOTE
  6
CONTINUOUS
 10
-282.8604375031147
 20
1029.448465211519
 30
0.0
 40
28.0
  1
メンテナンススペース
 50
0.0000024148365395
 41
0.843750011353266
  7
STANDARD1
  0
TEXT
  5
802
  8
NOTE
  6
CONTINUOUS
 10
497.6410273406352
 20
493.3668917251908
 30
0.0
 40
40.0
  1
メンテナンススペース
 50
90.00000500895634
 41
0.84375
  7
STANDARD1
  0
LINE
  5
803
  8
NOTE
  6
CONTINUOUS
 10
-543.2499943878804
 20
-149.9999905990279
 30
0.0
 11
-384.9999943878804
 21
-149.9999905990279
 31
0.0
  0
LINE
  5
804
  8
NOTE
  6
CONTINUOUS
 10
-384.9999943878804
 20
-149.9999905990279
 30
0.0
 11
-304.9999943878803
 21
0.000000005789979
 31
0.0
  0
LINE
  5
805
  8
NOTE
  6
CONTINUOUS
 10
-304.9999943878803
 20
0.000000005789979
 30
0.0
 11
-305.4523615930338
 21
-1.948169368700266
 31
0.0
  0
LINE
  5
806
  8
NOTE
  6
CONTINUOUS
 10
-304.9999943878803
 20
0.000000005789979
 30
0.0
 11
-306.3658405879145
 21
-1.460980540915708
 31
0.0
  0
TEXT
  5
807
  8
NOTE
  6
CONTINUOUS
 10
-543.2499943878804
 20
-148.9999905990279
 30
0.0
 40
40.0
  1
4-AH
 50
359.9999957311318
 41
0.6125000238418579
  7
STANDARD1
  0
LINE
  5
808
  8
NOTE
  6
CONTINUOUS
 10
-304.9999999999999
 20
-19.99999999999999
 30
0.0
 11
-304.9999999999999
 21
20.0
 31
0.0
  0
LINE
  5
809
  8
NOTE
  6
CONTINUOUS
 10
-324.9999999999999
 20
0.000000000000002
 30
0.0
 11
-284.9999999999999
 21
-0.000000000000003
 31
0.0
  0
LINE
  5
80A
  8
NOTE
  6
CONTINUOUS
 10
769.2500056121196
 20
-449.9999905990279
 30
0.0
 11
219.9999903533306
 21
-449.9999905990279
 31
0.0
  0
LINE
  5
80B
  8
NOTE
  6
CONTINUOUS
 10
219.9999903533306
 20
-449.9999905990279
 30
0.0
 11
-141.0000096466694
 21
127.0000322891557
 31
0.0
  0
LINE
  5
80C
  8
NOTE
  6
CONTINUOUS
 10
-141.0000096466694
 20
127.0000322891557
 30
0.0
 11
-139.5365370519239
 21
125.6368565981939
 31
0.0
  0
LINE
  5
80D
  8
NOTE
  6
CONTINUOUS
 10
-141.0000096466694
 20
127.0000322891557
 30
0.0
 11
-140.4141930752212
 21
125.0877512050531
 31
0.0
  0
TEXT
  5
80E
  8
NOTE
  6
CONTINUOUS
 10
280.7500056121196
 20
-398.9999905990279
 30
0.0
 40
40.0
  1
ﾋｰﾄﾎﾟﾝﾌﾟﾕﾆｯﾄ配管口(A)
 50
359.9999957311318
 41
0.8858695911324542
  7
STANDARD1
  0
TEXT
  5
80F
  8
NOTE
  6
CONTINUOUS
 10
280.7500056121196
 20
-448.9999905990279
 30
0.0
 40
40.0
  1
R1/2(φ21.7)
 50
359.9999956465915
 41
0.6372768070016589
  7
STANDARD1
  0
LINE
  5
810
  8
NOTE
  6
CONTINUOUS
 10
-140.9999999999998
 20
107.0
 30
0.0
 11
-140.9999999999998
 21
147.0
 31
0.0
  0
LINE
  5
811
  8
NOTE
  6
CONTINUOUS
 10
-120.9999999999998
 20
127.0
 30
0.0
 11
-160.9999999999998
 21
127.0
 31
0.0
  0
LINE
  5
812
  8
NOTE
  6
CONTINUOUS
 10
763.2500056121196
 20
-199.9999905990279
 30
0.0
 11
213.9999903533306
 21
-199.9999905990279
 31
0.0
  0
LINE
  5
813
  8
NOTE
  6
CONTINUOUS
 10
213.9999903533306
 20
-199.9999905990279
 30
0.0
 11
-169.0000096466694
 21
207.0000399185502
 31
0.0
  0
LINE
  5
814
  8
NOTE
  6
CONTINUOUS
 10
-169.0000096466694
 20
207.0000399185502
 30
0.0
 11
-167.2991233353066
 21
205.9479060127098
 31
0.0
  0
LINE
  5
815
  8
NOTE
  6
CONTINUOUS
 10
-169.0000096466694
 20
207.0000399185502
 30
0.0
 11
-168.0530658706678
 21
205.2384220584308
 31
0.0
  0
TEXT
  5
816
  8
NOTE
  6
CONTINUOUS
 10
274.7500056121196
 20
-148.9999905990279
 30
0.0
 40
40.0
  1
ﾋｰﾄﾎﾟﾝﾌﾟﾕﾆｯﾄ配管口(B)
 50
359.9999957311318
 41
0.8858695911324542
  7
STANDARD1
  0
TEXT
  5
817
  8
NOTE
  6
CONTINUOUS
 10
274.7500056121196
 20
-198.9999905990279
 30
0.0
 40
40.0
  1
R1/2(φ21.7)
 50
359.9999956465915
 41
0.6372768070016589
  7
STANDARD1
  0
LINE
  5
818
  8
NOTE
  6
CONTINUOUS
 10
-152.9999999999998
 20
186.9999999999999
 30
0.0
 11
-152.9999999999998
 21
227.0
 31
0.0
  0
LINE
  5
819
  8
NOTE
  6
CONTINUOUS
 10
-132.9999999999998
 20
207.0
 30
0.0
 11
-172.9999999999998
 21
207.0
 31
0.0
  0
LINE
  5
81A
  8
NOTE
  6
CONTINUOUS
 10
10.00000000000011
 20
-19.99999999999999
 30
0.0
 11
10.00000000000011
 21
20.0
 31
0.0
  0
LINE
  5
81B
  8
NOTE
  6
CONTINUOUS
 10
30.00000000000012
 20
0.0
 30
0.0
 11
-9.99999999999988
 21
0.0
 31
0.0
  0
LINE
  5
81C
  8
NOTE
  6
CONTINUOUS
 10
-0.699999999999894
 20
-35.00000000000001
 30
0.0
 11
-0.699999999999894
 21
4.999999999999999
 31
0.0
  0
LINE
  5
81D
  8
NOTE
  6
CONTINUOUS
 10
-20.69999999999989
 20
-14.99999999999999
 30
0.0
 11
19.30000000000011
 21
-14.99999999999999
 31
0.0
  0
LINE
  5
81E
  8
NOTE
  6
CONTINUOUS
 10
473.0499934050884
 20
-298.9999905990279
 30
0.0
 11
225.2999934050884
 21
-298.9999905990279
 31
0.0
  0
LINE
  5
81F
  8
NOTE
  6
CONTINUOUS
 10
225.2999934050884
 20
-298.9999905990279
 30
0.0
 11
-0.7000000980053291
 21
-15.00000013577105
 31
0.0
  0
LINE
  5
820
  8
NOTE
  6
CONTINUOUS
 10
-0.7000000980053291
 20
-15.00000013577105
 30
0.0
 11
0.907960368699767
 21
-16.18931217956509
 31
0.0
  0
LINE
  5
821
  8
NOTE
  6
CONTINUOUS
 10
-0.7000000980053291
 20
-15.00000013577105
 30
0.0
 11
0.097878465823782
 21
-16.83395482370148
 31
0.0
  0
TEXT
  5
822
  8
NOTE
  6
CONTINUOUS
 10
286.0499934050884
 20
-297.9999905990279
 30
0.0
 40
39.99999999999999
  1
D φ15.5
 50
0.0000025613209388
 41
0.689338256331051
  7
STANDARD1
  0
CIRCLE
  5
823
  8
ARRANGE
  6
CONTINUOUS
 10
0.0
 20
0.0
 30
0.0
 40
15.0
  0
CIRCLE
  5
824
  8
FIX
  6
CONTINUOUS
 10
-304.9999999999999
 20
0.0
 30
0.0
 40
5.0
  0
CIRCLE
  5
825
  8
FIX
  6
CONTINUOUS
 10
10.00000000000011
 20
0.0
 30
0.0
 40
5.0
  0
LINE
  5
826
  8
SERVICESPACE
  6
DASHDOT
 10
-485.0
 20
815.0000000000001
 30
0.0
 11
-285.0
 21
0.000000000000001
 31
0.0
  0
LINE
  5
827
  8
SERVICESPACE
  6
DASHDOT
 10
-285.0
 20
815.0000000000001
 30
0.0
 11
-484.9999999999998
 21
0.000000000000022
 31
0.0
  0
LINE
  5
828
  8
SERVICESPACE
  6
DASHDOT
 10
0.0
 20
815.0000000000001
 30
0.0
 11
100.0
 21
0.000000000000001
 31
0.0
  0
LINE
  5
829
  8
SERVICESPACE
  6
DASHDOT
 10
100.0
 20
815.0000000000001
 30
0.0
 11
0.0
 21
0.000000000000022
 31
0.0
  0
LINE
  5
82A
  8
SERVICESPACE
  6
DASHDOT
 10
0.000000000000003
 20
815.0000000000001
 30
0.0
 11
-285.0
 21
715.0000000000001
 31
0.0
  0
LINE
  5
82B
  8
SERVICESPACE
  6
DASHDOT
 10
-285.0
 20
815.0000000000001
 30
0.0
 11
0.0
 21
715.0000000000001
 31
0.0
  0
LINE
  5
82C
  8
SERVICESPACE
  6
DASHDOT
 10
100.0
 20
815.0000000000001
 30
0.0
 11
-484.9999999999998
 21
815.0000000000001
 31
0.0
  0
LINE
  5
82D
  8
SERVICESPACE
  6
DASHDOT
 10
-285.0
 20
0.000000000000001
 30
0.0
 11
-484.9999999999998
 21
0.000000000000001
 31
0.0
  0
LINE
  5
82E
  8
SERVICESPACE
  6
DASHDOT
 10
-485.0
 20
815.0000000000001
 30
0.0
 11
-484.9999999999998
 21
0.000000000000001
 31
0.0
  0
LINE
  5
82F
  8
SERVICESPACE
  6
DASHDOT
 10
0.0
 20
815.0000000000001
 30
0.0
 11
0.0
 21
0.000000000000001
 31
0.0
  0
LINE
  5
830
  8
SERVICESPACE
  6
DASHDOT
 10
99.99999999999997
 20
0.000000000000001
 30
0.0
 11
0.0
 21
0.000000000000001
 31
0.0
  0
LINE
  5
831
  8
SERVICESPACE
  6
DASHDOT
 10
0.0
 20
715.0000000000001
 30
0.0
 11
-285.0
 21
715.0000000000001
 31
0.0
  0
LINE
  5
832
  8
SERVICESPACE
  6
DASHDOT
 10
100.0
 20
0.000000000000001
 30
0.0
 11
100.0
 21
815.0000000000001
 31
0.0
  0
LINE
  5
833
  8
SERVICESPACE
  6
DASHDOT
 10
-285.0
 20
0.000000000000001
 30
0.0
 11
-285.0
 21
815.0000000000001
 31
0.0
  0
TEXT
  5
834
  8
ETC
  6
CONTINUOUS
 10
455.0453547332133
 20
1074.200784547456
 30
0.0
 40
39.99999999999999
  1
TMU454
 50
0.0000024148365395
 41
0.612500023841858
  7
STANDARD1
  0
TEXT
  5
835
  8
ETC
  6
CONTINUOUS
 10
455.0453547332133
 20
1004.200784547456
 30
0.0
 40
39.99999999999999
  1
ヒートポンプユニット
 50
0.0000025613209388
 41
0.84375
  7
STANDARD1
  0
ENDSEC
  0
EOF
