  0
SECTION
  2
HEADER
  9
$ACADVER
  1
AC1009
  9
$INSBASE
 10
0.0
 20
0.0
 30
0.0
  9
$EXTMIN
 10
-1123.25
 20
-1160.1000000238421
 30
0.0
  9
$EXTMAX
 10
1009.921649623866
 20
2440.999998810908
 30
0.0
  9
$LIMMIN
 10
0.0
 20
0.0
  9
$LIMMAX
 10
12.0
 20
9.0
  9
$ORTHOMODE
 70
     0
  9
$REGENMODE
 70
     1
  9
$FILLMODE
 70
     1
  9
$QTEXTMODE
 70
     0
  9
$MIRRTEXT
 70
     0
  9
$DRAGMODE
 70
     2
  9
$LTSCALE
 40
1.0
  9
$OSMODE
 70
  3071
  9
$ATTMODE
 70
     1
  9
$TEXTSIZE
 40
2.7999999523162842
  9
$TRACEWID
 40
0.05
  9
$TEXTSTYLE
  7
STANDARD1
  9
$CLAYER
  8
0
  9
$CELTYPE
  6
CONTINUOUS
  9
$CECOLOR
 62
   256
  9
$DIMSCALE
 40
1.0
  9
$DIMASZ
 40
10.0
  9
$DIMEXO
 40
10.0
  9
$DIMDLI
 40
8.0
  9
$DIMRND
 40
0.0
  9
$DIMDLE
 40
0.0
  9
$DIMEXE
 40
12.5
  9
$DIMTP
 40
0.0
  9
$DIMTM
 40
0.0
  9
$DIMTXT
 40
30.0
  9
$DIMCEN
 40
2.5
  9
$DIMTSZ
 40
0.0
  9
$DIMTOL
 70
     0
  9
$DIMLIM
 70
     0
  9
$DIMTIH
 70
     0
  9
$DIMTOH
 70
     0
  9
$DIMSE1
 70
     0
  9
$DIMSE2
 70
     0
  9
$DIMTAD
 70
     3
  9
$DIMZIN
 70
    12
  9
$DIMBLK
  1

  9
$DIMASO
 70
     1
  9
$DIMSHO
 70
     1
  9
$DIMPOST
  1

  9
$DIMAPOST
  1

  9
$DIMALT
 70
     0
  9
$DIMALTD
 70
     4
  9
$DIMALTF
 40
25.399999999999999
  9
$DIMLFAC
 40
1.0
  9
$DIMTOFL
 70
     1
  9
$DIMTVP
 40
0.0
  9
$DIMTIX
 70
     0
  9
$DIMSOXD
 70
     0
  9
$DIMSAH
 70
     1
  9
$DIMBLK1
  1
ORIGIN
  9
$DIMBLK2
  1
ORIGIN
  9
$DIMSTYLE
  2
STANDARD
  9
$DIMCLRD
 70
     0
  9
$DIMCLRE
 70
     0
  9
$DIMCLRT
 70
     0
  9
$DIMTFAC
 40
0.7142857313156129
  9
$DIMGAP
 40
10.0
  9
$LUNITS
 70
     2
  9
$LUPREC
 70
     3
  9
$SKETCHINC
 40
0.1
  9
$FILLETRAD
 40
0.0
  9
$AUNITS
 70
     0
  9
$AUPREC
 70
     0
  9
$MENU
  1
.
  9
$ELEVATION
 40
0.0
  9
$PELEVATION
 40
0.0
  9
$THICKNESS
 40
0.0
  9
$LIMCHECK
 70
     0
  9
$BLIPMODE
 70
     0
  9
$CHAMFERA
 40
0.0
  9
$CHAMFERB
 40
0.0
  9
$SKPOLY
 70
     0
  9
$TDCREATE
 40
2456812.3763590399
  9
$TDUPDATE
 40
2456818.796518391
  9
$TDINDWG
 40
0.0006883449
  9
$TDUSRTIMER
 40
0.0006881713
  9
$USRTIMER
 70
     1
  9
$ANGBASE
 50
0.0
  9
$ANGDIR
 70
     0
  9
$PDMODE
 70
     0
  9
$PDSIZE
 40
0.0
  9
$PLINEWID
 40
0.0
  9
$COORDS
 70
     2
  9
$SPLFRAME
 70
     0
  9
$SPLINETYPE
 70
     6
  9
$SPLINESEGS
 70
     8
  9
$ATTDIA
 70
     0
  9
$ATTREQ
 70
     1
  9
$HANDLING
 70
     1
  9
$HANDSEED
  5
918
  9
$SURFTAB1
 70
     6
  9
$SURFTAB2
 70
     6
  9
$SURFTYPE
 70
     6
  9
$SURFU
 70
     6
  9
$SURFV
 70
     6
  9
$UCSNAME
  2

  9
$UCSORG
 10
0.0
 20
0.0
 30
0.0
  9
$UCSXDIR
 10
1.0
 20
0.0
 30
0.0
  9
$UCSYDIR
 10
0.0
 20
1.0
 30
0.0
  9
$PUCSNAME
  2

  9
$PUCSORG
 10
0.0
 20
0.0
 30
0.0
  9
$PUCSXDIR
 10
1.0
 20
0.0
 30
0.0
  9
$PUCSYDIR
 10
0.0
 20
1.0
 30
0.0
  9
$USERI1
 70
     0
  9
$USERI2
 70
     0
  9
$USERI3
 70
     0
  9
$USERI4
 70
     0
  9
$USERI5
 70
     0
  9
$USERR1
 40
0.0
  9
$USERR2
 40
0.0
  9
$USERR3
 40
0.0
  9
$USERR4
 40
0.0
  9
$USERR5
 40
0.0
  9
$WORLDVIEW
 70
     1
  9
$SHADEDGE
 70
     3
  9
$SHADEDIF
 70
    70
  9
$TILEMODE
 70
     1
  9
$MAXACTVP
 70
    64
  9
$PLIMCHECK
 70
     0
  9
$PEXTMIN
 10
1.0000000000000000E+020
 20
1.0000000000000000E+020
 30
1.0000000000000000E+020
  9
$PEXTMAX
 10
-1.0000000000000000E+020
 20
-1.0000000000000000E+020
 30
-1.0000000000000000E+020
  9
$PLIMMIN
 10
0.0
 20
0.0
  9
$PLIMMAX
 10
12.0
 20
9.0
  9
$UNITMODE
 70
     0
  9
$VISRETAIN
 70
     1
  9
$PLINEGEN
 70
     0
  9
$PSLTSCALE
 70
     1
  0
ENDSEC
  0
SECTION
  2
TABLES
  0
TABLE
  2
VPORT
 70
     1
  0
VPORT
  2
*ACTIVE
 70
     0
 10
0.0
 20
0.0
 11
1.0
 21
1.0
 12
-230.02155000326471
 22
944.17048318962884
 13
0.0
 23
0.0
 14
1.0
 24
1.0
 15
0.0
 25
0.0
 16
0.0
 26
0.0
 36
1.0
 17
0.0
 27
0.0
 37
0.0
 40
891.60857413929864
 41
2.2329411764705882
 42
50.0
 43
0.0
 44
0.0
 50
0.0
 51
0.0
 71
     0
 72
   100
 73
     1
 74
     1
 75
     0
 76
     0
 77
     0
 78
     0
  0
ENDTAB
  0
TABLE
  2
LTYPE
 70
     6
  0
LTYPE
  2
CONTINUOUS
 70
     0
  3
Solid line
 72
    65
 73
     0
 40
0.0
  0
LTYPE
  2
PHANTOM2
 70
     0
  3
___ _ _ ___ _ _ ___ _ _ ___ _ _
 72
    65
 73
     6
 40
1.25
 49
0.625
 49
-0.125
 49
0.125
 49
-0.125
 49
0.125
 49
-0.125
  0
LTYPE
  2
DASHED
 70
     0
  3
-- -- -- -- -- -- -- -- -- -- -- -- -- -- --
 72
    65
 73
     2
 40
0.75
 49
0.5
 49
-0.25
  0
LTYPE
  2
DASHDOT
 70
     0
  3
__ . __ . __ . __ . __ . __ . __ . __ . __ . __
 72
    65
 73
     4
 40
125.0
 49
80.0
 49
-20.0
 49
5.0
 49
-20.0
  0
LTYPE
  2
DIVIDE
 70
     0
  3
__ . . __ . . __ . . __ . . __ . . __ . . __
 72
    65
 73
     6
 40
1.25
 49
0.5
 49
-0.25
 49
0.0
 49
-0.25
 49
0.0
 49
-0.25
  0
ENDTAB
  0
TABLE
  2
LAYER
 70
    12
  0
LAYER
  2
0
 70
     0
 62
     3
  6
CONTINUOUS
  0
LAYER
  2
OUTLINE
 70
     0
 62
     3
  6
CONTINUOUS
  0
LAYER
  2
DETAIL
 70
     0
 62
     5
  6
CONTINUOUS
  0
LAYER
  2
BASIS
 70
     0
 62
     6
  6
CONTINUOUS
  0
LAYER
  2
SIZE
 70
     0
 62
    30
  6
CONTINUOUS
  0
LAYER
  2
NOTE
 70
     0
 62
     4
  6
CONTINUOUS
  0
LAYER
  2
ARRANGE
 70
     0
 62
     1
  6
CONTINUOUS
  0
LAYER
  2
FIX
 70
     0
 62
    11
  6
CONTINUOUS
  0
LAYER
  2
SERVICESPACE
 70
     0
 62
     2
  6
CONTINUOUS
  0
LAYER
  2
ETC
 70
     0
 62
    61
  6
CONTINUOUS
  0
LAYER
  2
SYMBOLLINE
 70
     0
 62
     7
  6
CONTINUOUS
  0
LAYER
  2
DEFPOINTS
 70
     0
 62
     7
  6
CONTINUOUS
  0
ENDTAB
  0
TABLE
  2
STYLE
 70
     6
  0
STYLE
  2
STANDARD
 70
     0
 40
0.0
 41
1.0
 50
0.0
 71
     0
 42
0.2
  3
txt
  4

  0
STYLE
  2
ANNOTATIVE
 70
     0
 40
0.0
 41
1.0
 50
0.0
 71
     0
 42
0.2
  3
txt
  4

  0
STYLE
  2
STANDARD1
 70
     0
 40
0.0
 41
1.0
 50
0.0
 71
     0
 42
2.7999999523162842
  3
MONOTXT
  4
BIGFONT
  0
STYLE
  2
STANDARD2
 70
     4
 40
0.0
 41
1.0
 50
0.0
 71
     0
 42
2.7999999523162842
  3
MONOTXT
  4
BIGFONT
  0
STYLE
  2
STANDARD3
 70
     0
 40
0.0
 41
1.0
 50
0.0
 71
     0
 42
2.7999999523162842
  3
MONOTXT
  4

  0
STYLE
  2
STANDARD4
 70
     4
 40
0.0
 41
1.0
 50
0.0
 71
     0
 42
2.7999999523162842
  3
MONOTXT
  4

  0
ENDTAB
  0
TABLE
  2
VIEW
 70
     0
  0
ENDTAB
  0
TABLE
  2
UCS
 70
     0
  0
ENDTAB
  0
TABLE
  2
APPID
 70
     5
  0
APPID
  2
ACAD
 70
     0
  0
APPID
  2
ACADANNOTATIVE
 70
     0
  0
APPID
  2
ACAD_EXEMPT_FROM_CAD_STANDARDS
 70
     0
  0
APPID
  2
ACAD_NAV_VCDISPLAY
 70
     0
  0
APPID
  2
ACAD_MLEADERVER
 70
     0
  0
ENDTAB
  0
TABLE
  2
DIMSTYLE
 70
     2
  0
DIMSTYLE
  2
STANDARD
 70
     0
  3

  4

  5

  6

  7

 40
1.0
 41
0.18
 42
0.0625
 43
0.38
 44
0.18
 45
0.0
 46
0.0
 47
0.0
 48
0.0
140
0.18
141
0.09
142
0.0
143
25.399999999999999
144
1.0
145
0.0
146
1.0
147
0.09
 71
     0
 72
     0
 73
     1
 74
     1
 75
     0
 76
     0
 77
     0
 78
     0
170
     0
171
     2
172
     0
173
     0
174
     0
175
     0
176
     0
177
     0
178
     0
  0
DIMSTYLE
  2
ANNOTATIVE
 70
     0
  3

  4

  5

  6

  7

 40
1.0
 41
0.18
 42
0.0625
 43
0.38
 44
0.18
 45
0.0
 46
0.0
 47
0.0
 48
0.0
140
0.18
141
0.09
142
0.0
143
25.399999999999999
144
1.0
145
0.0
146
1.0
147
0.09
 71
     0
 72
     0
 73
     1
 74
     1
 75
     0
 76
     0
 77
     0
 78
     0
170
     0
171
     2
172
     0
173
     0
174
     0
175
     0
176
     0
177
     0
178
     0
  0
ENDTAB
  0
ENDSEC
  0
SECTION
  2
BLOCKS
  0
BLOCK
  8
0
  2
$MODEL_SPACE
 70
     0
 10
0.0
 20
0.0
 30
0.0
  3
$MODEL_SPACE
  1

  0
ENDBLK
  5
72
  8
0
  0
BLOCK
 67
     1
  8
0
  2
$PAPER_SPACE
 70
     0
 10
0.0
 20
0.0
 30
0.0
  3
$PAPER_SPACE
  1

  0
ENDBLK
  5
6E
 67
     1
  8
0
  0
BLOCK
  8
SIZE
  2
*D0
 70
     1
 10
0.0
 20
0.0
 30
0.0
  3
*D0
  1

  0
TEXT
  5
8C
  8
SIZE
  6
CONTINUOUS
 10
-181.96000665267121
 20
-249.0000060796738
 30
0.0
 40
2.7999999523162842
  1
70
 50
0.000002504478167
 41
0.6999999829701011
  7
STANDARD1
  0
LINE
  5
8D
  8
SIZE
  6
CONTINUOUS
 10
-215.0
 20
149.0
 30
0.0
 11
-215.0
 21
-252.0
 31
0.0
  0
LINE
  5
8E
  8
SIZE
  6
CONTINUOUS
 10
-145.0
 20
290.0
 30
0.0
 11
-145.0
 21
-252.0
 31
0.0
  0
LINE
  5
8F
  8
SIZE
  6
CONTINUOUS
 10
-215.0
 20
-250.0
 30
0.0
 11
-145.0
 21
-250.0
 31
0.0
  0
CIRCLE
  5
90
  8
SIZE
  6
CONTINUOUS
 10
-215.0
 20
-250.0
 30
0.0
 40
0.5
  0
CIRCLE
  5
91
  8
SIZE
  6
CONTINUOUS
 10
-215.0
 20
-250.0
 30
0.0
 40
0.4
  0
CIRCLE
  5
92
  8
SIZE
  6
CONTINUOUS
 10
-215.0
 20
-250.0
 30
0.0
 40
0.3
  0
CIRCLE
  5
93
  8
SIZE
  6
CONTINUOUS
 10
-215.0
 20
-250.0
 30
0.0
 40
0.2
  0
CIRCLE
  5
94
  8
SIZE
  6
CONTINUOUS
 10
-215.0
 20
-250.0
 30
0.0
 40
0.1
  0
CIRCLE
  5
95
  8
SIZE
  6
CONTINUOUS
 10
-145.0
 20
-250.0
 30
0.0
 40
0.5
  0
CIRCLE
  5
96
  8
SIZE
  6
CONTINUOUS
 10
-145.0
 20
-250.0
 30
0.0
 40
0.4
  0
CIRCLE
  5
97
  8
SIZE
  6
CONTINUOUS
 10
-145.0
 20
-250.0
 30
0.0
 40
0.3
  0
CIRCLE
  5
98
  8
SIZE
  6
CONTINUOUS
 10
-145.0
 20
-250.0
 30
0.0
 40
0.2
  0
CIRCLE
  5
99
  8
SIZE
  6
CONTINUOUS
 10
-145.0
 20
-250.0
 30
0.0
 40
0.1
  0
POINT
  5
9A
  8
DEFPOINTS
  6
BYBLOCK
 10
-145.0
 20
291.0
 30
0.0
  0
POINT
  5
9B
  8
DEFPOINTS
  6
BYBLOCK
 10
-215.0
 20
150.0
 30
0.0
  0
POINT
  5
9C
  8
DEFPOINTS
  6
BYBLOCK
 10
-215.0
 20
-250.0
 30
0.0
  0
ENDBLK
  5
9D
  8
SIZE
  0
BLOCK
  8
SIZE
  2
*D1
 70
     1
 10
0.0
 20
0.0
 30
0.0
  3
*D1
  1

  0
TEXT
  5
A0
  8
SIZE
  6
CONTINUOUS
 10
-516.00002443790424
 20
152.5599976809855
 30
0.0
 40
2.7999999523162842
  1
311
 50
90.000005008956336
 41
0.6999999829701011
  7
STANDARD1
  0
LINE
  5
A1
  8
SIZE
  6
CONTINUOUS
 10
-182.5
 20
-0.000000000000057
 30
0.0
 11
-517.0
 21
-0.000000000000016
 31
0.0
  0
LINE
  5
A2
  8
SIZE
  6
CONTINUOUS
 10
-166.0
 20
311.0
 30
0.0
 11
-517.0
 21
311.0
 31
0.0
  0
LINE
  5
A3
  8
SIZE
  6
CONTINUOUS
 10
-515.0
 20
-0.000000000000016
 30
0.0
 11
-515.0
 21
311.0
 31
0.0
  0
CIRCLE
  5
A4
  8
SIZE
  6
CONTINUOUS
 10
-515.0
 20
-0.000000000000016
 30
0.0
 40
0.5
  0
CIRCLE
  5
A5
  8
SIZE
  6
CONTINUOUS
 10
-515.0
 20
-0.000000000000016
 30
0.0
 40
0.4
  0
CIRCLE
  5
A6
  8
SIZE
  6
CONTINUOUS
 10
-515.0
 20
-0.000000000000016
 30
0.0
 40
0.3
  0
CIRCLE
  5
A7
  8
SIZE
  6
CONTINUOUS
 10
-515.0
 20
-0.000000000000016
 30
0.0
 40
0.2
  0
CIRCLE
  5
A8
  8
SIZE
  6
CONTINUOUS
 10
-515.0
 20
-0.000000000000016
 30
0.0
 40
0.1
  0
CIRCLE
  5
A9
  8
SIZE
  6
CONTINUOUS
 10
-515.0
 20
311.0
 30
0.0
 40
0.5
  0
CIRCLE
  5
AA
  8
SIZE
  6
CONTINUOUS
 10
-515.0
 20
311.0
 30
0.0
 40
0.4
  0
CIRCLE
  5
AB
  8
SIZE
  6
CONTINUOUS
 10
-515.0
 20
311.0
 30
0.0
 40
0.3
  0
CIRCLE
  5
AC
  8
SIZE
  6
CONTINUOUS
 10
-515.0
 20
311.0
 30
0.0
 40
0.2
  0
CIRCLE
  5
AD
  8
SIZE
  6
CONTINUOUS
 10
-515.0
 20
311.0
 30
0.0
 40
0.1
  0
POINT
  5
AE
  8
DEFPOINTS
  6
BYBLOCK
 10
-165.0
 20
311.0
 30
0.0
  0
POINT
  5
AF
  8
DEFPOINTS
  6
BYBLOCK
 10
-181.5
 20
-0.000000000000057
 30
0.0
  0
POINT
  5
B0
  8
DEFPOINTS
  6
BYBLOCK
 10
-515.0
 20
-0.000000000000016
 30
0.0
  0
ENDBLK
  5
B1
  8
SIZE
  0
BLOCK
  8
SIZE
  2
*D2
 70
     1
 10
0.0
 20
0.0
 30
0.0
  3
*D2
  1

  0
TEXT
  5
B4
  8
SIZE
  6
CONTINUOUS
 10
663.99997556209564
 20
135.05999768098559
 30
0.0
 40
2.7999999523162842
  1
276
 50
90.000005008956336
 41
0.6999999829701011
  7
STANDARD1
  0
LINE
  5
B5
  8
SIZE
  6
CONTINUOUS
 10
516.0
 20
0.0
 30
0.0
 11
667.0
 21
0.0
 31
0.0
  0
LINE
  5
B6
  8
SIZE
  6
CONTINUOUS
 10
69.0
 20
276.0
 30
0.0
 11
667.0
 21
276.0
 31
0.0
  0
LINE
  5
B7
  8
SIZE
  6
CONTINUOUS
 10
665.0
 20
0.0
 30
0.0
 11
665.0
 21
276.0
 31
0.0
  0
CIRCLE
  5
B8
  8
SIZE
  6
CONTINUOUS
 10
665.0
 20
0.0
 30
0.0
 40
0.5
  0
CIRCLE
  5
B9
  8
SIZE
  6
CONTINUOUS
 10
665.0
 20
0.0
 30
0.0
 40
0.4
  0
CIRCLE
  5
BA
  8
SIZE
  6
CONTINUOUS
 10
665.0
 20
0.0
 30
0.0
 40
0.3
  0
CIRCLE
  5
BB
  8
SIZE
  6
CONTINUOUS
 10
665.0
 20
0.0
 30
0.0
 40
0.2
  0
CIRCLE
  5
BC
  8
SIZE
  6
CONTINUOUS
 10
665.0
 20
0.0
 30
0.0
 40
0.1
  0
CIRCLE
  5
BD
  8
SIZE
  6
CONTINUOUS
 10
665.0
 20
276.0
 30
0.0
 40
0.5
  0
CIRCLE
  5
BE
  8
SIZE
  6
CONTINUOUS
 10
665.0
 20
276.0
 30
0.0
 40
0.4
  0
CIRCLE
  5
BF
  8
SIZE
  6
CONTINUOUS
 10
665.0
 20
276.0
 30
0.0
 40
0.3
  0
CIRCLE
  5
C0
  8
SIZE
  6
CONTINUOUS
 10
665.0
 20
276.0
 30
0.0
 40
0.2
  0
CIRCLE
  5
C1
  8
SIZE
  6
CONTINUOUS
 10
665.0
 20
276.0
 30
0.0
 40
0.1
  0
POINT
  5
C2
  8
DEFPOINTS
  6
BYBLOCK
 10
68.0
 20
276.0
 30
0.0
  0
POINT
  5
C3
  8
DEFPOINTS
  6
BYBLOCK
 10
515.0
 20
0.0
 30
0.0
  0
POINT
  5
C4
  8
DEFPOINTS
  6
BYBLOCK
 10
665.0
 20
0.0
 30
0.0
  0
ENDBLK
  5
C5
  8
SIZE
  0
BLOCK
  8
SIZE
  2
*D3
 70
     1
 10
0.0
 20
0.0
 30
0.0
  3
*D3
  1

  0
TEXT
  5
C8
  8
SIZE
  6
CONTINUOUS
 10
-86.440002380210302
 20
-652.02127683162689
 30
0.0
 40
2.7999999523162842
  1
263
 50
0.000002504478167
 41
0.6999999829701011
  7
STANDARD1
  0
LINE
  5
C9
  8
SIZE
  6
CONTINUOUS
 10
-215.0
 20
149.0
 30
0.0
 11
-215.0
 21
-655.02130126953125
 31
0.0
  0
LINE
  5
CA
  8
SIZE
  6
CONTINUOUS
 10
48.0
 20
253.0
 30
0.0
 11
48.0
 21
-655.02130126953125
 31
0.0
  0
LINE
  5
CB
  8
SIZE
  6
CONTINUOUS
 10
-215.0
 20
-653.02130126953125
 30
0.0
 11
48.0
 21
-653.02130126953125
 31
0.0
  0
CIRCLE
  5
CC
  8
SIZE
  6
CONTINUOUS
 10
-215.0
 20
-653.02130126953125
 30
0.0
 40
0.5
  0
CIRCLE
  5
CD
  8
SIZE
  6
CONTINUOUS
 10
-215.0
 20
-653.02130126953125
 30
0.0
 40
0.4
  0
CIRCLE
  5
CE
  8
SIZE
  6
CONTINUOUS
 10
-215.0
 20
-653.02130126953125
 30
0.0
 40
0.3
  0
CIRCLE
  5
CF
  8
SIZE
  6
CONTINUOUS
 10
-215.0
 20
-653.02130126953125
 30
0.0
 40
0.2
  0
CIRCLE
  5
D0
  8
SIZE
  6
CONTINUOUS
 10
-215.0
 20
-653.02130126953125
 30
0.0
 40
0.1
  0
CIRCLE
  5
D1
  8
SIZE
  6
CONTINUOUS
 10
48.0
 20
-653.02130126953125
 30
0.0
 40
0.5
  0
CIRCLE
  5
D2
  8
SIZE
  6
CONTINUOUS
 10
48.0
 20
-653.02130126953125
 30
0.0
 40
0.4
  0
CIRCLE
  5
D3
  8
SIZE
  6
CONTINUOUS
 10
48.0
 20
-653.02130126953125
 30
0.0
 40
0.3
  0
CIRCLE
  5
D4
  8
SIZE
  6
CONTINUOUS
 10
48.0
 20
-653.02130126953125
 30
0.0
 40
0.2
  0
CIRCLE
  5
D5
  8
SIZE
  6
CONTINUOUS
 10
48.0
 20
-653.02130126953125
 30
0.0
 40
0.1
  0
POINT
  5
D6
  8
DEFPOINTS
  6
BYBLOCK
 10
48.0
 20
254.0
 30
0.0
  0
POINT
  5
D7
  8
DEFPOINTS
  6
BYBLOCK
 10
-215.0
 20
150.0
 30
0.0
  0
POINT
  5
D8
  8
DEFPOINTS
  6
BYBLOCK
 10
-215.0
 20
-653.02130126953125
 30
0.0
  0
ENDBLK
  5
D9
  8
SIZE
  0
BLOCK
  8
SIZE
  2
*D4
 70
     1
 10
0.0
 20
0.0
 30
0.0
  3
*D4
  1

  0
TEXT
  5
DC
  8
SIZE
  6
CONTINUOUS
 10
-56.939998565513037
 20
-848.99997556209564
 30
0.0
 40
2.7999999523162842
  1
322
 50
0.000002504478167
 41
0.6999999829701011
  7
STANDARD1
  0
LINE
  5
DD
  8
SIZE
  6
CONTINUOUS
 10
107.0
 20
280.0
 30
0.0
 11
107.0
 21
-852.0
 31
0.0
  0
LINE
  5
DE
  8
SIZE
  6
CONTINUOUS
 10
-215.0
 20
149.0
 30
0.0
 11
-215.0
 21
-852.0
 31
0.0
  0
LINE
  5
DF
  8
SIZE
  6
CONTINUOUS
 10
107.0
 20
-850.0
 30
0.0
 11
-215.0
 21
-850.0
 31
0.0
  0
CIRCLE
  5
E0
  8
SIZE
  6
CONTINUOUS
 10
107.0
 20
-850.0
 30
0.0
 40
0.5
  0
CIRCLE
  5
E1
  8
SIZE
  6
CONTINUOUS
 10
107.0
 20
-850.0
 30
0.0
 40
0.4
  0
CIRCLE
  5
E2
  8
SIZE
  6
CONTINUOUS
 10
107.0
 20
-850.0
 30
0.0
 40
0.3
  0
CIRCLE
  5
E3
  8
SIZE
  6
CONTINUOUS
 10
107.0
 20
-850.0
 30
0.0
 40
0.2
  0
CIRCLE
  5
E4
  8
SIZE
  6
CONTINUOUS
 10
107.0
 20
-850.0
 30
0.0
 40
0.1
  0
CIRCLE
  5
E5
  8
SIZE
  6
CONTINUOUS
 10
-215.0
 20
-850.0
 30
0.0
 40
0.5
  0
CIRCLE
  5
E6
  8
SIZE
  6
CONTINUOUS
 10
-215.0
 20
-850.0
 30
0.0
 40
0.4
  0
CIRCLE
  5
E7
  8
SIZE
  6
CONTINUOUS
 10
-215.0
 20
-850.0
 30
0.0
 40
0.3
  0
CIRCLE
  5
E8
  8
SIZE
  6
CONTINUOUS
 10
-215.0
 20
-850.0
 30
0.0
 40
0.2
  0
CIRCLE
  5
E9
  8
SIZE
  6
CONTINUOUS
 10
-215.0
 20
-850.0
 30
0.0
 40
0.1
  0
POINT
  5
EA
  8
DEFPOINTS
  6
BYBLOCK
 10
-215.0
 20
150.0
 30
0.0
  0
POINT
  5
EB
  8
DEFPOINTS
  6
BYBLOCK
 10
107.0
 20
281.0
 30
0.0
  0
POINT
  5
EC
  8
DEFPOINTS
  6
BYBLOCK
 10
107.0
 20
-850.0
 30
0.0
  0
ENDBLK
  5
ED
  8
SIZE
  0
BLOCK
  8
SIZE
  2
*D5
 70
     1
 10
0.0
 20
0.0
 30
0.0
  3
*D5
  1

  0
TEXT
  5
F0
  8
SIZE
  6
CONTINUOUS
 10
-76.940002380210245
 20
-748.99997556209564
 30
0.0
 40
2.7999999523162842
  1
282
 50
0.000002504478167
 41
0.6999999829701011
  7
STANDARD1
  0
LINE
  5
F1
  8
SIZE
  6
CONTINUOUS
 10
67.0
 20
89.0
 30
0.0
 11
67.0
 21
-752.0
 31
0.0
  0
LINE
  5
F2
  8
SIZE
  6
CONTINUOUS
 10
-215.0
 20
149.0
 30
0.0
 11
-215.0
 21
-752.0
 31
0.0
  0
LINE
  5
F3
  8
SIZE
  6
CONTINUOUS
 10
67.0
 20
-750.0
 30
0.0
 11
-215.0
 21
-750.0
 31
0.0
  0
CIRCLE
  5
F4
  8
SIZE
  6
CONTINUOUS
 10
67.0
 20
-750.0
 30
0.0
 40
0.5
  0
CIRCLE
  5
F5
  8
SIZE
  6
CONTINUOUS
 10
67.0
 20
-750.0
 30
0.0
 40
0.4
  0
CIRCLE
  5
F6
  8
SIZE
  6
CONTINUOUS
 10
67.0
 20
-750.0
 30
0.0
 40
0.3
  0
CIRCLE
  5
F7
  8
SIZE
  6
CONTINUOUS
 10
67.0
 20
-750.0
 30
0.0
 40
0.2
  0
CIRCLE
  5
F8
  8
SIZE
  6
CONTINUOUS
 10
67.0
 20
-750.0
 30
0.0
 40
0.1
  0
CIRCLE
  5
F9
  8
SIZE
  6
CONTINUOUS
 10
-215.0
 20
-750.0
 30
0.0
 40
0.5
  0
CIRCLE
  5
FA
  8
SIZE
  6
CONTINUOUS
 10
-215.0
 20
-750.0
 30
0.0
 40
0.4
  0
CIRCLE
  5
FB
  8
SIZE
  6
CONTINUOUS
 10
-215.0
 20
-750.0
 30
0.0
 40
0.3
  0
CIRCLE
  5
FC
  8
SIZE
  6
CONTINUOUS
 10
-215.0
 20
-750.0
 30
0.0
 40
0.2
  0
CIRCLE
  5
FD
  8
SIZE
  6
CONTINUOUS
 10
-215.0
 20
-750.0
 30
0.0
 40
0.1
  0
POINT
  5
FE
  8
DEFPOINTS
  6
BYBLOCK
 10
-215.0
 20
150.0
 30
0.0
  0
POINT
  5
FF
  8
DEFPOINTS
  6
BYBLOCK
 10
67.0
 20
90.0
 30
0.0
  0
POINT
  5
100
  8
DEFPOINTS
  6
BYBLOCK
 10
67.0
 20
-750.0
 30
0.0
  0
ENDBLK
  5
101
  8
SIZE
  0
BLOCK
  8
SIZE
  2
*D6
 70
     1
 10
0.0
 20
0.0
 30
0.0
  3
*D6
  1

  0
TEXT
  5
104
  8
SIZE
  6
CONTINUOUS
 10
-181.96000665267121
 20
-1048.9999755620961
 30
0.0
 40
2.7999999523162842
  1
70
 50
0.000002504478167
 41
0.6999999829701011
  7
STANDARD1
  0
LINE
  5
105
  8
SIZE
  6
CONTINUOUS
 10
-215.0
 20
149.0
 30
0.0
 11
-215.0
 21
-1052.0
 31
0.0
  0
LINE
  5
106
  8
SIZE
  6
CONTINUOUS
 10
-145.0
 20
-21.0
 30
0.0
 11
-145.0
 21
-1052.0
 31
0.0
  0
LINE
  5
107
  8
SIZE
  6
CONTINUOUS
 10
-215.0
 20
-1050.0
 30
0.0
 11
-145.0
 21
-1050.0
 31
0.0
  0
CIRCLE
  5
108
  8
SIZE
  6
CONTINUOUS
 10
-215.0
 20
-1050.0
 30
0.0
 40
0.5
  0
CIRCLE
  5
109
  8
SIZE
  6
CONTINUOUS
 10
-215.0
 20
-1050.0
 30
0.0
 40
0.4
  0
CIRCLE
  5
10A
  8
SIZE
  6
CONTINUOUS
 10
-215.0
 20
-1050.0
 30
0.0
 40
0.3
  0
CIRCLE
  5
10B
  8
SIZE
  6
CONTINUOUS
 10
-215.0
 20
-1050.0
 30
0.0
 40
0.2
  0
CIRCLE
  5
10C
  8
SIZE
  6
CONTINUOUS
 10
-215.0
 20
-1050.0
 30
0.0
 40
0.1
  0
CIRCLE
  5
10D
  8
SIZE
  6
CONTINUOUS
 10
-145.0
 20
-1050.0
 30
0.0
 40
0.5
  0
CIRCLE
  5
10E
  8
SIZE
  6
CONTINUOUS
 10
-145.0
 20
-1050.0
 30
0.0
 40
0.4
  0
CIRCLE
  5
10F
  8
SIZE
  6
CONTINUOUS
 10
-145.0
 20
-1050.0
 30
0.0
 40
0.3
  0
CIRCLE
  5
110
  8
SIZE
  6
CONTINUOUS
 10
-145.0
 20
-1050.0
 30
0.0
 40
0.2
  0
CIRCLE
  5
111
  8
SIZE
  6
CONTINUOUS
 10
-145.0
 20
-1050.0
 30
0.0
 40
0.1
  0
POINT
  5
112
  8
DEFPOINTS
  6
BYBLOCK
 10
-145.0
 20
-20.0
 30
0.0
  0
POINT
  5
113
  8
DEFPOINTS
  6
BYBLOCK
 10
-215.0
 20
150.0
 30
0.0
  0
POINT
  5
114
  8
DEFPOINTS
  6
BYBLOCK
 10
-215.0
 20
-1050.0
 30
0.0
  0
ENDBLK
  5
115
  8
SIZE
  0
BLOCK
  8
SIZE
  2
*D7
 70
     1
 10
0.0
 20
0.0
 30
0.0
  3
*D7
  1

  0
TEXT
  5
118
  8
SIZE
  6
CONTINUOUS
 10
-136.9400023802103
 20
-449.00000607967371
 30
0.0
 40
2.7999999523162842
  1
162
 50
0.000002504478167
 41
0.6999999829701011
  7
STANDARD1
  0
LINE
  5
119
  8
SIZE
  6
CONTINUOUS
 10
-53.0
 20
280.0
 30
0.0
 11
-53.0
 21
-452.0
 31
0.0
  0
LINE
  5
11A
  8
SIZE
  6
CONTINUOUS
 10
-215.0
 20
149.0
 30
0.0
 11
-215.0
 21
-452.0
 31
0.0
  0
LINE
  5
11B
  8
SIZE
  6
CONTINUOUS
 10
-53.0
 20
-450.0
 30
0.0
 11
-215.0
 21
-450.0
 31
0.0
  0
CIRCLE
  5
11C
  8
SIZE
  6
CONTINUOUS
 10
-53.0
 20
-450.0
 30
0.0
 40
0.5
  0
CIRCLE
  5
11D
  8
SIZE
  6
CONTINUOUS
 10
-53.0
 20
-450.0
 30
0.0
 40
0.4
  0
CIRCLE
  5
11E
  8
SIZE
  6
CONTINUOUS
 10
-53.0
 20
-450.0
 30
0.0
 40
0.3
  0
CIRCLE
  5
11F
  8
SIZE
  6
CONTINUOUS
 10
-53.0
 20
-450.0
 30
0.0
 40
0.2
  0
CIRCLE
  5
120
  8
SIZE
  6
CONTINUOUS
 10
-53.0
 20
-450.0
 30
0.0
 40
0.1
  0
CIRCLE
  5
121
  8
SIZE
  6
CONTINUOUS
 10
-215.0
 20
-450.0
 30
0.0
 40
0.5
  0
CIRCLE
  5
122
  8
SIZE
  6
CONTINUOUS
 10
-215.0
 20
-450.0
 30
0.0
 40
0.4
  0
CIRCLE
  5
123
  8
SIZE
  6
CONTINUOUS
 10
-215.0
 20
-450.0
 30
0.0
 40
0.3
  0
CIRCLE
  5
124
  8
SIZE
  6
CONTINUOUS
 10
-215.0
 20
-450.0
 30
0.0
 40
0.2
  0
CIRCLE
  5
125
  8
SIZE
  6
CONTINUOUS
 10
-215.0
 20
-450.0
 30
0.0
 40
0.1
  0
POINT
  5
126
  8
DEFPOINTS
  6
BYBLOCK
 10
-215.0
 20
150.0
 30
0.0
  0
POINT
  5
127
  8
DEFPOINTS
  6
BYBLOCK
 10
-53.0
 20
281.0
 30
0.0
  0
POINT
  5
128
  8
DEFPOINTS
  6
BYBLOCK
 10
-53.0
 20
-450.0
 30
0.0
  0
ENDBLK
  5
129
  8
SIZE
  0
BLOCK
  8
SIZE
  2
*D8
 70
     1
 10
0.0
 20
0.0
 30
0.0
  3
*D8
  1

  0
TEXT
  5
12C
  8
SIZE
  6
CONTINUOUS
 10
-165.9400023802103
 20
-349.00000607967382
 30
0.0
 40
2.7999999523162842
  1
104
 50
0.000002504478167
 41
0.6999999829701011
  7
STANDARD1
  0
LINE
  5
12D
  8
SIZE
  6
CONTINUOUS
 10
-111.0
 20
329.0
 30
0.0
 11
-111.0
 21
-352.0
 31
0.0
  0
LINE
  5
12E
  8
SIZE
  6
CONTINUOUS
 10
-215.0
 20
149.0
 30
0.0
 11
-215.0
 21
-352.0
 31
0.0
  0
LINE
  5
12F
  8
SIZE
  6
CONTINUOUS
 10
-111.0
 20
-350.0
 30
0.0
 11
-215.0
 21
-350.0
 31
0.0
  0
CIRCLE
  5
130
  8
SIZE
  6
CONTINUOUS
 10
-111.0
 20
-350.0
 30
0.0
 40
0.5
  0
CIRCLE
  5
131
  8
SIZE
  6
CONTINUOUS
 10
-111.0
 20
-350.0
 30
0.0
 40
0.4
  0
CIRCLE
  5
132
  8
SIZE
  6
CONTINUOUS
 10
-111.0
 20
-350.0
 30
0.0
 40
0.3
  0
CIRCLE
  5
133
  8
SIZE
  6
CONTINUOUS
 10
-111.0
 20
-350.0
 30
0.0
 40
0.2
  0
CIRCLE
  5
134
  8
SIZE
  6
CONTINUOUS
 10
-111.0
 20
-350.0
 30
0.0
 40
0.1
  0
CIRCLE
  5
135
  8
SIZE
  6
CONTINUOUS
 10
-215.0
 20
-350.0
 30
0.0
 40
0.5
  0
CIRCLE
  5
136
  8
SIZE
  6
CONTINUOUS
 10
-215.0
 20
-350.0
 30
0.0
 40
0.4
  0
CIRCLE
  5
137
  8
SIZE
  6
CONTINUOUS
 10
-215.0
 20
-350.0
 30
0.0
 40
0.3
  0
CIRCLE
  5
138
  8
SIZE
  6
CONTINUOUS
 10
-215.0
 20
-350.0
 30
0.0
 40
0.2
  0
CIRCLE
  5
139
  8
SIZE
  6
CONTINUOUS
 10
-215.0
 20
-350.0
 30
0.0
 40
0.1
  0
POINT
  5
13A
  8
DEFPOINTS
  6
BYBLOCK
 10
-215.0
 20
150.0
 30
0.0
  0
POINT
  5
13B
  8
DEFPOINTS
  6
BYBLOCK
 10
-111.0
 20
330.0
 30
0.0
  0
POINT
  5
13C
  8
DEFPOINTS
  6
BYBLOCK
 10
-111.0
 20
-350.0
 30
0.0
  0
ENDBLK
  5
13D
  8
SIZE
  0
BLOCK
  8
SIZE
  2
*D9
 70
     1
 10
0.0
 20
0.0
 30
0.0
  3
*D9
  1

  0
TEXT
  5
140
  8
SIZE
  6
CONTINUOUS
 10
-415.99999392032612
 20
147.55999768098559
 30
0.0
 40
2.7999999523162842
  1
301
 50
90.000005008956336
 41
0.6999999829701011
  7
STANDARD1
  0
LINE
  5
141
  8
SIZE
  6
CONTINUOUS
 10
-48.0
 20
301.0
 30
0.0
 11
-417.0
 21
301.0
 31
0.0
  0
LINE
  5
142
  8
SIZE
  6
CONTINUOUS
 10
-182.5
 20
-0.000000000000057
 30
0.0
 11
-417.0
 21
-0.000000000000028
 31
0.0
  0
LINE
  5
143
  8
SIZE
  6
CONTINUOUS
 10
-415.0
 20
301.0
 30
0.0
 11
-415.0
 21
-0.000000000000028
 31
0.0
  0
CIRCLE
  5
144
  8
SIZE
  6
CONTINUOUS
 10
-415.0
 20
301.0
 30
0.0
 40
0.5
  0
CIRCLE
  5
145
  8
SIZE
  6
CONTINUOUS
 10
-415.0
 20
301.0
 30
0.0
 40
0.4
  0
CIRCLE
  5
146
  8
SIZE
  6
CONTINUOUS
 10
-415.0
 20
301.0
 30
0.0
 40
0.3
  0
CIRCLE
  5
147
  8
SIZE
  6
CONTINUOUS
 10
-415.0
 20
301.0
 30
0.0
 40
0.2
  0
CIRCLE
  5
148
  8
SIZE
  6
CONTINUOUS
 10
-415.0
 20
301.0
 30
0.0
 40
0.1
  0
CIRCLE
  5
149
  8
SIZE
  6
CONTINUOUS
 10
-415.0
 20
-0.000000000000028
 30
0.0
 40
0.5
  0
CIRCLE
  5
14A
  8
SIZE
  6
CONTINUOUS
 10
-415.0
 20
-0.000000000000028
 30
0.0
 40
0.4
  0
CIRCLE
  5
14B
  8
SIZE
  6
CONTINUOUS
 10
-415.0
 20
-0.000000000000028
 30
0.0
 40
0.3
  0
CIRCLE
  5
14C
  8
SIZE
  6
CONTINUOUS
 10
-415.0
 20
-0.000000000000028
 30
0.0
 40
0.2
  0
CIRCLE
  5
14D
  8
SIZE
  6
CONTINUOUS
 10
-415.0
 20
-0.000000000000028
 30
0.0
 40
0.1
  0
POINT
  5
14E
  8
DEFPOINTS
  6
BYBLOCK
 10
-181.5
 20
-0.000000000000057
 30
0.0
  0
POINT
  5
14F
  8
DEFPOINTS
  6
BYBLOCK
 10
-47.0
 20
301.0
 30
0.0
  0
POINT
  5
150
  8
DEFPOINTS
  6
BYBLOCK
 10
-415.0
 20
301.0
 30
0.0
  0
ENDBLK
  5
151
  8
SIZE
  0
BLOCK
  8
SIZE
  2
*D10
 70
     1
 10
0.0
 20
0.0
 30
0.0
  3
*D10
  1

  0
TEXT
  5
154
  8
SIZE
  6
CONTINUOUS
 10
763.99997556209564
 20
147.55999768098559
 30
0.0
 40
2.7999999523162842
  1
301
 50
90.000005008956336
 41
0.6999999829701011
  7
STANDARD1
  0
LINE
  5
155
  8
SIZE
  6
CONTINUOUS
 10
516.0
 20
0.0
 30
0.0
 11
767.0
 21
0.0
 31
0.0
  0
LINE
  5
156
  8
SIZE
  6
CONTINUOUS
 10
128.0
 20
301.0
 30
0.0
 11
767.0
 21
301.0
 31
0.0
  0
LINE
  5
157
  8
SIZE
  6
CONTINUOUS
 10
765.0
 20
0.0
 30
0.0
 11
765.0
 21
301.0
 31
0.0
  0
CIRCLE
  5
158
  8
SIZE
  6
CONTINUOUS
 10
765.0
 20
0.0
 30
0.0
 40
0.5
  0
CIRCLE
  5
159
  8
SIZE
  6
CONTINUOUS
 10
765.0
 20
0.0
 30
0.0
 40
0.4
  0
CIRCLE
  5
15A
  8
SIZE
  6
CONTINUOUS
 10
765.0
 20
0.0
 30
0.0
 40
0.3
  0
CIRCLE
  5
15B
  8
SIZE
  6
CONTINUOUS
 10
765.0
 20
0.0
 30
0.0
 40
0.2
  0
CIRCLE
  5
15C
  8
SIZE
  6
CONTINUOUS
 10
765.0
 20
0.0
 30
0.0
 40
0.1
  0
CIRCLE
  5
15D
  8
SIZE
  6
CONTINUOUS
 10
765.0
 20
301.0
 30
0.0
 40
0.5
  0
CIRCLE
  5
15E
  8
SIZE
  6
CONTINUOUS
 10
765.0
 20
301.0
 30
0.0
 40
0.4
  0
CIRCLE
  5
15F
  8
SIZE
  6
CONTINUOUS
 10
765.0
 20
301.0
 30
0.0
 40
0.3
  0
CIRCLE
  5
160
  8
SIZE
  6
CONTINUOUS
 10
765.0
 20
301.0
 30
0.0
 40
0.2
  0
CIRCLE
  5
161
  8
SIZE
  6
CONTINUOUS
 10
765.0
 20
301.0
 30
0.0
 40
0.1
  0
POINT
  5
162
  8
DEFPOINTS
  6
BYBLOCK
 10
127.0
 20
301.0
 30
0.0
  0
POINT
  5
163
  8
DEFPOINTS
  6
BYBLOCK
 10
515.0
 20
0.0
 30
0.0
  0
POINT
  5
164
  8
DEFPOINTS
  6
BYBLOCK
 10
765.0
 20
0.0
 30
0.0
  0
ENDBLK
  5
165
  8
SIZE
  0
BLOCK
  8
SIZE
  2
*D11
 70
     1
 10
0.0
 20
0.0
 30
0.0
  3
*D11
  1

  0
TEXT
  5
168
  8
SIZE
  6
CONTINUOUS
 10
-26.94000047286168
 20
-948.99997556209564
 30
0.0
 40
2.7999999523162842
  1
382
 50
0.000002504478167
 41
0.6999999829701011
  7
STANDARD1
  0
LINE
  5
169
  8
SIZE
  6
CONTINUOUS
 10
167.0
 20
280.0
 30
0.0
 11
167.0
 21
-952.0
 31
0.0
  0
LINE
  5
16A
  8
SIZE
  6
CONTINUOUS
 10
-215.0
 20
149.0
 30
0.0
 11
-215.0
 21
-952.0
 31
0.0
  0
LINE
  5
16B
  8
SIZE
  6
CONTINUOUS
 10
167.0
 20
-950.0
 30
0.0
 11
-215.0
 21
-950.0
 31
0.0
  0
CIRCLE
  5
16C
  8
SIZE
  6
CONTINUOUS
 10
167.0
 20
-950.0
 30
0.0
 40
0.5
  0
CIRCLE
  5
16D
  8
SIZE
  6
CONTINUOUS
 10
167.0
 20
-950.0
 30
0.0
 40
0.4
  0
CIRCLE
  5
16E
  8
SIZE
  6
CONTINUOUS
 10
167.0
 20
-950.0
 30
0.0
 40
0.3
  0
CIRCLE
  5
16F
  8
SIZE
  6
CONTINUOUS
 10
167.0
 20
-950.0
 30
0.0
 40
0.2
  0
CIRCLE
  5
170
  8
SIZE
  6
CONTINUOUS
 10
167.0
 20
-950.0
 30
0.0
 40
0.1
  0
CIRCLE
  5
171
  8
SIZE
  6
CONTINUOUS
 10
-215.0
 20
-950.0
 30
0.0
 40
0.5
  0
CIRCLE
  5
172
  8
SIZE
  6
CONTINUOUS
 10
-215.0
 20
-950.0
 30
0.0
 40
0.4
  0
CIRCLE
  5
173
  8
SIZE
  6
CONTINUOUS
 10
-215.0
 20
-950.0
 30
0.0
 40
0.3
  0
CIRCLE
  5
174
  8
SIZE
  6
CONTINUOUS
 10
-215.0
 20
-950.0
 30
0.0
 40
0.2
  0
CIRCLE
  5
175
  8
SIZE
  6
CONTINUOUS
 10
-215.0
 20
-950.0
 30
0.0
 40
0.1
  0
POINT
  5
176
  8
DEFPOINTS
  6
BYBLOCK
 10
-215.0
 20
150.0
 30
0.0
  0
POINT
  5
177
  8
DEFPOINTS
  6
BYBLOCK
 10
167.0
 20
281.0
 30
0.0
  0
POINT
  5
178
  8
DEFPOINTS
  6
BYBLOCK
 10
167.0
 20
-950.0
 30
0.0
  0
ENDBLK
  5
179
  8
SIZE
  0
BLOCK
  8
SIZE
  2
*D12
 70
     1
 10
0.0
 20
0.0
 30
0.0
  3
*D12
  1

  0
TEXT
  5
17C
  8
SIZE
  6
CONTINUOUS
 10
-123.9400023802103
 20
-548.99997556209576
 30
0.0
 40
2.7999999523162842
  1
188
 50
0.000002504478167
 41
0.6999999829701011
  7
STANDARD1
  0
LINE
  5
17D
  8
SIZE
  6
CONTINUOUS
 10
-27.0
 20
280.0
 30
0.0
 11
-27.0
 21
-552.0
 31
0.0
  0
LINE
  5
17E
  8
SIZE
  6
CONTINUOUS
 10
-215.0
 20
149.0
 30
0.0
 11
-215.0
 21
-552.0
 31
0.0
  0
LINE
  5
17F
  8
SIZE
  6
CONTINUOUS
 10
-27.0
 20
-550.0
 30
0.0
 11
-215.0
 21
-550.0
 31
0.0
  0
CIRCLE
  5
180
  8
SIZE
  6
CONTINUOUS
 10
-27.0
 20
-550.0
 30
0.0
 40
0.5
  0
CIRCLE
  5
181
  8
SIZE
  6
CONTINUOUS
 10
-27.0
 20
-550.0
 30
0.0
 40
0.4
  0
CIRCLE
  5
182
  8
SIZE
  6
CONTINUOUS
 10
-27.0
 20
-550.0
 30
0.0
 40
0.3
  0
CIRCLE
  5
183
  8
SIZE
  6
CONTINUOUS
 10
-27.0
 20
-550.0
 30
0.0
 40
0.2
  0
CIRCLE
  5
184
  8
SIZE
  6
CONTINUOUS
 10
-27.0
 20
-550.0
 30
0.0
 40
0.1
  0
CIRCLE
  5
185
  8
SIZE
  6
CONTINUOUS
 10
-215.0
 20
-550.0
 30
0.0
 40
0.5
  0
CIRCLE
  5
186
  8
SIZE
  6
CONTINUOUS
 10
-215.0
 20
-550.0
 30
0.0
 40
0.4
  0
CIRCLE
  5
187
  8
SIZE
  6
CONTINUOUS
 10
-215.0
 20
-550.0
 30
0.0
 40
0.3
  0
CIRCLE
  5
188
  8
SIZE
  6
CONTINUOUS
 10
-215.0
 20
-550.0
 30
0.0
 40
0.2
  0
CIRCLE
  5
189
  8
SIZE
  6
CONTINUOUS
 10
-215.0
 20
-550.0
 30
0.0
 40
0.1
  0
POINT
  5
18A
  8
DEFPOINTS
  6
BYBLOCK
 10
-215.0
 20
150.0
 30
0.0
  0
POINT
  5
18B
  8
DEFPOINTS
  6
BYBLOCK
 10
-27.0
 20
281.0
 30
0.0
  0
POINT
  5
18C
  8
DEFPOINTS
  6
BYBLOCK
 10
-27.0
 20
-550.0
 30
0.0
  0
ENDBLK
  5
18D
  8
SIZE
  0
BLOCK
  8
SIZE
  2
*D13
 70
     1
 10
0.0
 20
0.0
 30
0.0
  3
*D13
  1

  0
TEXT
  5
190
  8
SIZE
  6
CONTINUOUS
 10
-286.34374993880408
 20
-149.00000607967371
 30
0.0
 40
2.7999999523162842
  1
37
 50
0.000002504478167
 41
0.6999999829701011
  7
STANDARD1
  0
LINE
  5
191
  8
SIZE
  6
CONTINUOUS
 10
-215.0
 20
149.0
 30
0.0
 11
-215.0
 21
-152.0
 31
0.0
  0
LINE
  5
192
  8
SIZE
  6
CONTINUOUS
 10
-178.0
 20
329.0
 30
0.0
 11
-178.0
 21
-152.0
 31
0.0
  0
LINE
  5
193
  8
SIZE
  6
CONTINUOUS
 10
-287.74374389648432
 20
-150.0
 30
0.0
 11
-173.0
 21
-150.0
 31
0.0
  0
CIRCLE
  5
194
  8
SIZE
  6
CONTINUOUS
 10
-215.0
 20
-150.0
 30
0.0
 40
0.5
  0
CIRCLE
  5
195
  8
SIZE
  6
CONTINUOUS
 10
-215.0
 20
-150.0
 30
0.0
 40
0.4
  0
CIRCLE
  5
196
  8
SIZE
  6
CONTINUOUS
 10
-215.0
 20
-150.0
 30
0.0
 40
0.3
  0
CIRCLE
  5
197
  8
SIZE
  6
CONTINUOUS
 10
-215.0
 20
-150.0
 30
0.0
 40
0.2
  0
CIRCLE
  5
198
  8
SIZE
  6
CONTINUOUS
 10
-215.0
 20
-150.0
 30
0.0
 40
0.1
  0
CIRCLE
  5
199
  8
SIZE
  6
CONTINUOUS
 10
-178.0
 20
-150.0
 30
0.0
 40
0.5
  0
CIRCLE
  5
19A
  8
SIZE
  6
CONTINUOUS
 10
-178.0
 20
-150.0
 30
0.0
 40
0.4
  0
CIRCLE
  5
19B
  8
SIZE
  6
CONTINUOUS
 10
-178.0
 20
-150.0
 30
0.0
 40
0.3
  0
CIRCLE
  5
19C
  8
SIZE
  6
CONTINUOUS
 10
-178.0
 20
-150.0
 30
0.0
 40
0.2
  0
CIRCLE
  5
19D
  8
SIZE
  6
CONTINUOUS
 10
-178.0
 20
-150.0
 30
0.0
 40
0.1
  0
POINT
  5
19E
  8
DEFPOINTS
  6
BYBLOCK
 10
-178.0
 20
330.0
 30
0.0
  0
POINT
  5
19F
  8
DEFPOINTS
  6
BYBLOCK
 10
-215.0
 20
150.0
 30
0.0
  0
POINT
  5
1A0
  8
DEFPOINTS
  6
BYBLOCK
 10
-215.0
 20
-150.0
 30
0.0
  0
ENDBLK
  5
1A1
  8
SIZE
  0
BLOCK
  8
SIZE
  2
*D14
 70
     1
 10
0.0
 20
0.0
 30
0.0
  3
*D14
  1

  0
TEXT
  5
1A4
  8
SIZE
  6
CONTINUOUS
 10
-294.8999938352884
 20
2250.9203125238419
 30
0.0
 40
2.7999999523162842
  1
最大
 50
0.000002504478167
 41
0.583333319141751
  7
STANDARD1
  0
TEXT
  5
1A5
  8
SIZE
  6
CONTINUOUS
 10
-290.98001092513232
 20
2250.9203125238419
 30
0.0
 40
2.7999999523162842
  1
150
 50
0.000002504478167
 41
0.6999999829701011
  7
STANDARD1
  0
LINE
  5
1A6
  8
SIZE
  6
CONTINUOUS
 10
-365.0
 20
1946.0
 30
0.0
 11
-365.0
 21
2251.92041015625
 31
0.0
  0
LINE
  5
1A7
  8
SIZE
  6
CONTINUOUS
 10
-215.0
 20
2101.0
 30
0.0
 11
-215.0
 21
2251.92041015625
 31
0.0
  0
LINE
  5
1A8
  8
SIZE
  6
CONTINUOUS
 10
-365.0
 20
2249.92041015625
 30
0.0
 11
-215.0
 21
2249.92041015625
 31
0.0
  0
CIRCLE
  5
1A9
  8
SIZE
  6
CONTINUOUS
 10
-365.0
 20
2249.92041015625
 30
0.0
 40
0.5
  0
CIRCLE
  5
1AA
  8
SIZE
  6
CONTINUOUS
 10
-365.0
 20
2249.92041015625
 30
0.0
 40
0.4
  0
CIRCLE
  5
1AB
  8
SIZE
  6
CONTINUOUS
 10
-365.0
 20
2249.92041015625
 30
0.0
 40
0.3
  0
CIRCLE
  5
1AC
  8
SIZE
  6
CONTINUOUS
 10
-365.0
 20
2249.92041015625
 30
0.0
 40
0.2
  0
CIRCLE
  5
1AD
  8
SIZE
  6
CONTINUOUS
 10
-365.0
 20
2249.92041015625
 30
0.0
 40
0.1
  0
CIRCLE
  5
1AE
  8
SIZE
  6
CONTINUOUS
 10
-215.0
 20
2249.92041015625
 30
0.0
 40
0.5
  0
CIRCLE
  5
1AF
  8
SIZE
  6
CONTINUOUS
 10
-215.0
 20
2249.92041015625
 30
0.0
 40
0.4
  0
CIRCLE
  5
1B0
  8
SIZE
  6
CONTINUOUS
 10
-215.0
 20
2249.92041015625
 30
0.0
 40
0.3
  0
CIRCLE
  5
1B1
  8
SIZE
  6
CONTINUOUS
 10
-215.0
 20
2249.92041015625
 30
0.0
 40
0.2
  0
CIRCLE
  5
1B2
  8
SIZE
  6
CONTINUOUS
 10
-215.0
 20
2249.92041015625
 30
0.0
 40
0.1
  0
POINT
  5
1B3
  8
DEFPOINTS
  6
BYBLOCK
 10
-215.0
 20
2100.0
 30
0.0
  0
POINT
  5
1B4
  8
DEFPOINTS
  6
BYBLOCK
 10
-365.0
 20
1945.0
 30
0.0
  0
POINT
  5
1B5
  8
DEFPOINTS
  6
BYBLOCK
 10
-365.0
 20
2249.92041015625
 30
0.0
  0
ENDBLK
  5
1B6
  8
SIZE
  0
BLOCK
  8
SIZE
  2
*D15
 70
     1
 10
0.0
 20
0.0
 30
0.0
  3
*D15
  1

  0
TEXT
  5
1B9
  8
SIZE
  6
CONTINUOUS
 10
-2.939999996024512
 20
-1048.9999755620961
 30
0.0
 40
2.7999999523162842
  1
290
 50
0.000002504478167
 41
0.6999999829701011
  7
STANDARD1
  0
LINE
  5
1BA
  8
SIZE
  6
CONTINUOUS
 10
-145.0
 20
-21.0
 30
0.0
 11
-145.0
 21
-1052.0
 31
0.0
  0
LINE
  5
1BB
  8
SIZE
  6
CONTINUOUS
 10
145.0
 20
-21.0
 30
0.0
 11
145.0
 21
-1052.0
 31
0.0
  0
LINE
  5
1BC
  8
SIZE
  6
CONTINUOUS
 10
-145.0
 20
-1050.0
 30
0.0
 11
145.0
 21
-1050.0
 31
0.0
  0
CIRCLE
  5
1BD
  8
SIZE
  6
CONTINUOUS
 10
-145.0
 20
-1050.0
 30
0.0
 40
0.5
  0
CIRCLE
  5
1BE
  8
SIZE
  6
CONTINUOUS
 10
-145.0
 20
-1050.0
 30
0.0
 40
0.4
  0
CIRCLE
  5
1BF
  8
SIZE
  6
CONTINUOUS
 10
-145.0
 20
-1050.0
 30
0.0
 40
0.3
  0
CIRCLE
  5
1C0
  8
SIZE
  6
CONTINUOUS
 10
-145.0
 20
-1050.0
 30
0.0
 40
0.2
  0
CIRCLE
  5
1C1
  8
SIZE
  6
CONTINUOUS
 10
-145.0
 20
-1050.0
 30
0.0
 40
0.1
  0
CIRCLE
  5
1C2
  8
SIZE
  6
CONTINUOUS
 10
145.0
 20
-1050.0
 30
0.0
 40
0.5
  0
CIRCLE
  5
1C3
  8
SIZE
  6
CONTINUOUS
 10
145.0
 20
-1050.0
 30
0.0
 40
0.4
  0
CIRCLE
  5
1C4
  8
SIZE
  6
CONTINUOUS
 10
145.0
 20
-1050.0
 30
0.0
 40
0.3
  0
CIRCLE
  5
1C5
  8
SIZE
  6
CONTINUOUS
 10
145.0
 20
-1050.0
 30
0.0
 40
0.2
  0
CIRCLE
  5
1C6
  8
SIZE
  6
CONTINUOUS
 10
145.0
 20
-1050.0
 30
0.0
 40
0.1
  0
POINT
  5
1C7
  8
DEFPOINTS
  6
BYBLOCK
 10
145.0
 20
-20.0
 30
0.0
  0
POINT
  5
1C8
  8
DEFPOINTS
  6
BYBLOCK
 10
-145.0
 20
-20.0
 30
0.0
  0
POINT
  5
1C9
  8
DEFPOINTS
  6
BYBLOCK
 10
-145.0
 20
-1050.0
 30
0.0
  0
ENDBLK
  5
1CA
  8
SIZE
  0
BLOCK
  8
SIZE
  2
*D16
 70
     1
 10
0.0
 20
0.0
 30
0.0
  3
*D16
  1

  0
TEXT
  5
1CD
  8
SIZE
  6
CONTINUOUS
 10
-2.939999996024512
 20
-1148.9999755620961
 30
0.0
 40
2.7999999523162842
  1
430
 50
0.000002504478167
 41
0.6999999829701011
  7
STANDARD1
  0
LINE
  5
1CE
  8
SIZE
  6
CONTINUOUS
 10
215.0
 20
-1.0
 30
0.0
 11
215.0
 21
-1152.0
 31
0.0
  0
LINE
  5
1CF
  8
SIZE
  6
CONTINUOUS
 10
-215.0
 20
149.0
 30
0.0
 11
-215.0
 21
-1152.0
 31
0.0
  0
LINE
  5
1D0
  8
SIZE
  6
CONTINUOUS
 10
215.0
 20
-1150.0
 30
0.0
 11
-215.0
 21
-1150.0
 31
0.0
  0
CIRCLE
  5
1D1
  8
SIZE
  6
CONTINUOUS
 10
215.0
 20
-1150.0
 30
0.0
 40
0.5
  0
CIRCLE
  5
1D2
  8
SIZE
  6
CONTINUOUS
 10
215.0
 20
-1150.0
 30
0.0
 40
0.4
  0
CIRCLE
  5
1D3
  8
SIZE
  6
CONTINUOUS
 10
215.0
 20
-1150.0
 30
0.0
 40
0.3
  0
CIRCLE
  5
1D4
  8
SIZE
  6
CONTINUOUS
 10
215.0
 20
-1150.0
 30
0.0
 40
0.2
  0
CIRCLE
  5
1D5
  8
SIZE
  6
CONTINUOUS
 10
215.0
 20
-1150.0
 30
0.0
 40
0.1
  0
CIRCLE
  5
1D6
  8
SIZE
  6
CONTINUOUS
 10
-215.0
 20
-1150.0
 30
0.0
 40
0.5
  0
CIRCLE
  5
1D7
  8
SIZE
  6
CONTINUOUS
 10
-215.0
 20
-1150.0
 30
0.0
 40
0.4
  0
CIRCLE
  5
1D8
  8
SIZE
  6
CONTINUOUS
 10
-215.0
 20
-1150.0
 30
0.0
 40
0.3
  0
CIRCLE
  5
1D9
  8
SIZE
  6
CONTINUOUS
 10
-215.0
 20
-1150.0
 30
0.0
 40
0.2
  0
CIRCLE
  5
1DA
  8
SIZE
  6
CONTINUOUS
 10
-215.0
 20
-1150.0
 30
0.0
 40
0.1
  0
POINT
  5
1DB
  8
DEFPOINTS
  6
BYBLOCK
 10
-215.0
 20
150.0
 30
0.0
  0
POINT
  5
1DC
  8
DEFPOINTS
  6
BYBLOCK
 10
215.0
 20
0.0
 30
0.0
  0
POINT
  5
1DD
  8
DEFPOINTS
  6
BYBLOCK
 10
215.0
 20
-1150.0
 30
0.0
  0
ENDBLK
  5
1DE
  8
SIZE
  0
BLOCK
  8
SIZE
  2
*D17
 70
     1
 10
0.0
 20
0.0
 30
0.0
  3
*D17
  1

  0
TEXT
  5
1E1
  8
SIZE
  6
CONTINUOUS
 10
178.03999334732859
 20
-1048.9999755620961
 30
0.0
 40
2.7999999523162842
  1
70
 50
0.000002504478167
 41
0.6999999829701011
  7
STANDARD1
  0
LINE
  5
1E2
  8
SIZE
  6
CONTINUOUS
 10
145.0
 20
-21.0
 30
0.0
 11
145.0
 21
-1052.0
 31
0.0
  0
LINE
  5
1E3
  8
SIZE
  6
CONTINUOUS
 10
215.0
 20
-1.0
 30
0.0
 11
215.0
 21
-1052.0
 31
0.0
  0
LINE
  5
1E4
  8
SIZE
  6
CONTINUOUS
 10
145.0
 20
-1050.0
 30
0.0
 11
215.0
 21
-1050.0
 31
0.0
  0
CIRCLE
  5
1E5
  8
SIZE
  6
CONTINUOUS
 10
145.0
 20
-1050.0
 30
0.0
 40
0.5
  0
CIRCLE
  5
1E6
  8
SIZE
  6
CONTINUOUS
 10
145.0
 20
-1050.0
 30
0.0
 40
0.4
  0
CIRCLE
  5
1E7
  8
SIZE
  6
CONTINUOUS
 10
145.0
 20
-1050.0
 30
0.0
 40
0.3
  0
CIRCLE
  5
1E8
  8
SIZE
  6
CONTINUOUS
 10
145.0
 20
-1050.0
 30
0.0
 40
0.2
  0
CIRCLE
  5
1E9
  8
SIZE
  6
CONTINUOUS
 10
145.0
 20
-1050.0
 30
0.0
 40
0.1
  0
CIRCLE
  5
1EA
  8
SIZE
  6
CONTINUOUS
 10
215.0
 20
-1050.0
 30
0.0
 40
0.5
  0
CIRCLE
  5
1EB
  8
SIZE
  6
CONTINUOUS
 10
215.0
 20
-1050.0
 30
0.0
 40
0.4
  0
CIRCLE
  5
1EC
  8
SIZE
  6
CONTINUOUS
 10
215.0
 20
-1050.0
 30
0.0
 40
0.3
  0
CIRCLE
  5
1ED
  8
SIZE
  6
CONTINUOUS
 10
215.0
 20
-1050.0
 30
0.0
 40
0.2
  0
CIRCLE
  5
1EE
  8
SIZE
  6
CONTINUOUS
 10
215.0
 20
-1050.0
 30
0.0
 40
0.1
  0
POINT
  5
1EF
  8
DEFPOINTS
  6
BYBLOCK
 10
215.0
 20
0.0
 30
0.0
  0
POINT
  5
1F0
  8
DEFPOINTS
  6
BYBLOCK
 10
145.0
 20
-20.0
 30
0.0
  0
POINT
  5
1F1
  8
DEFPOINTS
  6
BYBLOCK
 10
145.0
 20
-1050.0
 30
0.0
  0
ENDBLK
  5
1F2
  8
SIZE
  0
BLOCK
  8
SIZE
  2
*D18
 70
     1
 10
0.0
 20
0.0
 30
0.0
  3
*D18
  1

  0
TEXT
  5
1F5
  8
SIZE
  6
CONTINUOUS
 10
-315.99999392032618
 20
58.060001495682897
 30
0.0
 40
2.7999999523162842
  1
122
 50
90.000005008956336
 41
0.6999999829701011
  7
STANDARD1
  0
LINE
  5
1F6
  8
SIZE
  6
CONTINUOUS
 10
-131.0
 20
122.0
 30
0.0
 11
-317.0
 21
122.0
 31
0.0
  0
LINE
  5
1F7
  8
SIZE
  6
CONTINUOUS
 10
-182.5
 20
-0.000000000000057
 30
0.0
 11
-317.0
 21
-0.00000000000004
 31
0.0
  0
LINE
  5
1F8
  8
SIZE
  6
CONTINUOUS
 10
-315.0
 20
122.0
 30
0.0
 11
-315.0
 21
-0.00000000000004
 31
0.0
  0
CIRCLE
  5
1F9
  8
SIZE
  6
CONTINUOUS
 10
-315.0
 20
122.0
 30
0.0
 40
0.5
  0
CIRCLE
  5
1FA
  8
SIZE
  6
CONTINUOUS
 10
-315.0
 20
122.0
 30
0.0
 40
0.4
  0
CIRCLE
  5
1FB
  8
SIZE
  6
CONTINUOUS
 10
-315.0
 20
122.0
 30
0.0
 40
0.3
  0
CIRCLE
  5
1FC
  8
SIZE
  6
CONTINUOUS
 10
-315.0
 20
122.0
 30
0.0
 40
0.2
  0
CIRCLE
  5
1FD
  8
SIZE
  6
CONTINUOUS
 10
-315.0
 20
122.0
 30
0.0
 40
0.1
  0
CIRCLE
  5
1FE
  8
SIZE
  6
CONTINUOUS
 10
-315.0
 20
-0.00000000000004
 30
0.0
 40
0.5
  0
CIRCLE
  5
1FF
  8
SIZE
  6
CONTINUOUS
 10
-315.0
 20
-0.00000000000004
 30
0.0
 40
0.4
  0
CIRCLE
  5
200
  8
SIZE
  6
CONTINUOUS
 10
-315.0
 20
-0.00000000000004
 30
0.0
 40
0.3
  0
CIRCLE
  5
201
  8
SIZE
  6
CONTINUOUS
 10
-315.0
 20
-0.00000000000004
 30
0.0
 40
0.2
  0
CIRCLE
  5
202
  8
SIZE
  6
CONTINUOUS
 10
-315.0
 20
-0.00000000000004
 30
0.0
 40
0.1
  0
POINT
  5
203
  8
DEFPOINTS
  6
BYBLOCK
 10
-181.5
 20
-0.000000000000057
 30
0.0
  0
POINT
  5
204
  8
DEFPOINTS
  6
BYBLOCK
 10
-130.0
 20
122.0
 30
0.0
  0
POINT
  5
205
  8
DEFPOINTS
  6
BYBLOCK
 10
-315.0
 20
122.0
 30
0.0
  0
ENDBLK
  5
206
  8
SIZE
  0
BLOCK
  8
SIZE
  2
*D19
 70
     1
 10
0.0
 20
0.0
 30
0.0
  3
*D19
  1

  0
TEXT
  5
209
  8
SIZE
  6
CONTINUOUS
 10
364.00000607967371
 20
52.06000149568289
 30
0.0
 40
2.7999999523162842
  1
110
 50
90.000005008956336
 41
0.6999999829701011
  7
STANDARD1
  0
LINE
  5
20A
  8
SIZE
  6
CONTINUOUS
 10
88.0
 20
110.0
 30
0.0
 11
367.0
 21
110.0
 31
0.0
  0
LINE
  5
20B
  8
SIZE
  6
CONTINUOUS
 10
365.0
 20
0.0
 30
0.0
 11
365.0
 21
110.0
 31
0.0
  0
CIRCLE
  5
20C
  8
SIZE
  6
CONTINUOUS
 10
365.0
 20
0.0
 30
0.0
 40
0.5
  0
CIRCLE
  5
20D
  8
SIZE
  6
CONTINUOUS
 10
365.0
 20
0.0
 30
0.0
 40
0.4
  0
CIRCLE
  5
20E
  8
SIZE
  6
CONTINUOUS
 10
365.0
 20
0.0
 30
0.0
 40
0.3
  0
CIRCLE
  5
20F
  8
SIZE
  6
CONTINUOUS
 10
365.0
 20
0.0
 30
0.0
 40
0.2
  0
CIRCLE
  5
210
  8
SIZE
  6
CONTINUOUS
 10
365.0
 20
0.0
 30
0.0
 40
0.1
  0
CIRCLE
  5
211
  8
SIZE
  6
CONTINUOUS
 10
365.0
 20
110.0
 30
0.0
 40
0.5
  0
CIRCLE
  5
212
  8
SIZE
  6
CONTINUOUS
 10
365.0
 20
110.0
 30
0.0
 40
0.4
  0
CIRCLE
  5
213
  8
SIZE
  6
CONTINUOUS
 10
365.0
 20
110.0
 30
0.0
 40
0.3
  0
CIRCLE
  5
214
  8
SIZE
  6
CONTINUOUS
 10
365.0
 20
110.0
 30
0.0
 40
0.2
  0
CIRCLE
  5
215
  8
SIZE
  6
CONTINUOUS
 10
365.0
 20
110.0
 30
0.0
 40
0.1
  0
POINT
  5
216
  8
DEFPOINTS
  6
BYBLOCK
 10
87.0
 20
110.0
 30
0.0
  0
POINT
  5
217
  8
DEFPOINTS
  6
BYBLOCK
 10
215.0
 20
0.0
 30
0.0
  0
POINT
  5
218
  8
DEFPOINTS
  6
BYBLOCK
 10
365.0
 20
0.0
 30
0.0
  0
ENDBLK
  5
219
  8
SIZE
  0
BLOCK
  8
SIZE
  2
*D20
 70
     1
 10
0.0
 20
0.0
 30
0.0
  3
*D20
  1

  0
TEXT
  5
21C
  8
SIZE
  6
CONTINUOUS
 10
-102.4400023802103
 20
500.99999392032612
 30
0.0
 40
2.7999999523162842
  1
171
 50
0.000002504478167
 41
0.6999999829701011
  7
STANDARD1
  0
LINE
  5
21D
  8
SIZE
  6
CONTINUOUS
 10
-14.0
 20
500.0
 30
0.0
 11
-185.0
 21
500.0
 31
0.0
  0
CIRCLE
  5
21E
  8
SIZE
  6
CONTINUOUS
 10
-14.0
 20
500.0
 30
0.0
 40
0.5
  0
CIRCLE
  5
21F
  8
SIZE
  6
CONTINUOUS
 10
-14.0
 20
500.0
 30
0.0
 40
0.4
  0
CIRCLE
  5
220
  8
SIZE
  6
CONTINUOUS
 10
-14.0
 20
500.0
 30
0.0
 40
0.3
  0
CIRCLE
  5
221
  8
SIZE
  6
CONTINUOUS
 10
-14.0
 20
500.0
 30
0.0
 40
0.2
  0
CIRCLE
  5
222
  8
SIZE
  6
CONTINUOUS
 10
-14.0
 20
500.0
 30
0.0
 40
0.1
  0
CIRCLE
  5
223
  8
SIZE
  6
CONTINUOUS
 10
-185.0
 20
500.0
 30
0.0
 40
0.5
  0
CIRCLE
  5
224
  8
SIZE
  6
CONTINUOUS
 10
-185.0
 20
500.0
 30
0.0
 40
0.4
  0
CIRCLE
  5
225
  8
SIZE
  6
CONTINUOUS
 10
-185.0
 20
500.0
 30
0.0
 40
0.3
  0
CIRCLE
  5
226
  8
SIZE
  6
CONTINUOUS
 10
-185.0
 20
500.0
 30
0.0
 40
0.2
  0
CIRCLE
  5
227
  8
SIZE
  6
CONTINUOUS
 10
-185.0
 20
500.0
 30
0.0
 40
0.1
  0
POINT
  5
228
  8
DEFPOINTS
  6
BYBLOCK
 10
-185.0
 20
416.0
 30
0.0
  0
POINT
  5
229
  8
DEFPOINTS
  6
BYBLOCK
 10
-14.0
 20
416.0
 30
0.0
  0
POINT
  5
22A
  8
DEFPOINTS
  6
BYBLOCK
 10
-14.0
 20
500.0
 30
0.0
  0
ENDBLK
  5
22B
  8
SIZE
  0
BLOCK
  8
SIZE
  2
*D21
 70
     1
 10
0.0
 20
0.0
 30
0.0
  3
*D21
  1

  0
TEXT
  5
22E
  8
SIZE
  6
CONTINUOUS
 10
-616.00002443790413
 20
515.05999768098536
 30
0.0
 40
2.7999999523162842
  1
220
 50
90.000005008956336
 41
0.6999999829701011
  7
STANDARD1
  0
LINE
  5
22F
  8
SIZE
  6
CONTINUOUS
 10
-178.0
 20
628.0
 30
0.0
 11
-617.0
 21
628.0
 31
0.0
  0
LINE
  5
230
  8
SIZE
  6
CONTINUOUS
 10
-178.0
 20
408.0
 30
0.0
 11
-617.0
 21
408.0
 31
0.0
  0
LINE
  5
231
  8
SIZE
  6
CONTINUOUS
 10
-615.0
 20
628.0
 30
0.0
 11
-615.0
 21
408.0
 31
0.0
  0
CIRCLE
  5
232
  8
SIZE
  6
CONTINUOUS
 10
-615.0
 20
628.0
 30
0.0
 40
0.5
  0
CIRCLE
  5
233
  8
SIZE
  6
CONTINUOUS
 10
-615.0
 20
628.0
 30
0.0
 40
0.4
  0
CIRCLE
  5
234
  8
SIZE
  6
CONTINUOUS
 10
-615.0
 20
628.0
 30
0.0
 40
0.3
  0
CIRCLE
  5
235
  8
SIZE
  6
CONTINUOUS
 10
-615.0
 20
628.0
 30
0.0
 40
0.2
  0
CIRCLE
  5
236
  8
SIZE
  6
CONTINUOUS
 10
-615.0
 20
628.0
 30
0.0
 40
0.1
  0
CIRCLE
  5
237
  8
SIZE
  6
CONTINUOUS
 10
-615.0
 20
408.0
 30
0.0
 40
0.5
  0
CIRCLE
  5
238
  8
SIZE
  6
CONTINUOUS
 10
-615.0
 20
408.0
 30
0.0
 40
0.4
  0
CIRCLE
  5
239
  8
SIZE
  6
CONTINUOUS
 10
-615.0
 20
408.0
 30
0.0
 40
0.3
  0
CIRCLE
  5
23A
  8
SIZE
  6
CONTINUOUS
 10
-615.0
 20
408.0
 30
0.0
 40
0.2
  0
CIRCLE
  5
23B
  8
SIZE
  6
CONTINUOUS
 10
-615.0
 20
408.0
 30
0.0
 40
0.1
  0
POINT
  5
23C
  8
DEFPOINTS
  6
BYBLOCK
 10
-177.0
 20
408.0
 30
0.0
  0
POINT
  5
23D
  8
DEFPOINTS
  6
BYBLOCK
 10
-177.0
 20
628.0
 30
0.0
  0
POINT
  5
23E
  8
DEFPOINTS
  6
BYBLOCK
 10
-615.0
 20
628.0
 30
0.0
  0
ENDBLK
  5
23F
  8
SIZE
  0
BLOCK
  8
SIZE
  2
*D22
 70
     1
 10
0.0
 20
0.0
 30
0.0
  3
*D22
  1

  0
TEXT
  5
242
  8
SIZE
  6
CONTINUOUS
 10
-2.939999996024512
 20
2250.9999023675919
 30
0.0
 40
2.7999999523162842
  1
430
 50
0.000002504478167
 41
0.6999999829701011
  7
STANDARD1
  0
LINE
  5
243
  8
SIZE
  6
CONTINUOUS
 10
-215.0
 20
2101.0
 30
0.0
 11
-215.0
 21
2252.0
 31
0.0
  0
LINE
  5
244
  8
SIZE
  6
CONTINUOUS
 10
215.0
 20
2101.0
 30
0.0
 11
215.0
 21
2252.0
 31
0.0
  0
LINE
  5
245
  8
SIZE
  6
CONTINUOUS
 10
-215.0
 20
2250.0
 30
0.0
 11
215.0
 21
2250.0
 31
0.0
  0
CIRCLE
  5
246
  8
SIZE
  6
CONTINUOUS
 10
-215.0
 20
2250.0
 30
0.0
 40
0.5
  0
CIRCLE
  5
247
  8
SIZE
  6
CONTINUOUS
 10
-215.0
 20
2250.0
 30
0.0
 40
0.4
  0
CIRCLE
  5
248
  8
SIZE
  6
CONTINUOUS
 10
-215.0
 20
2250.0
 30
0.0
 40
0.3
  0
CIRCLE
  5
249
  8
SIZE
  6
CONTINUOUS
 10
-215.0
 20
2250.0
 30
0.0
 40
0.2
  0
CIRCLE
  5
24A
  8
SIZE
  6
CONTINUOUS
 10
-215.0
 20
2250.0
 30
0.0
 40
0.1
  0
CIRCLE
  5
24B
  8
SIZE
  6
CONTINUOUS
 10
215.0
 20
2250.0
 30
0.0
 40
0.5
  0
CIRCLE
  5
24C
  8
SIZE
  6
CONTINUOUS
 10
215.0
 20
2250.0
 30
0.0
 40
0.4
  0
CIRCLE
  5
24D
  8
SIZE
  6
CONTINUOUS
 10
215.0
 20
2250.0
 30
0.0
 40
0.3
  0
CIRCLE
  5
24E
  8
SIZE
  6
CONTINUOUS
 10
215.0
 20
2250.0
 30
0.0
 40
0.2
  0
CIRCLE
  5
24F
  8
SIZE
  6
CONTINUOUS
 10
215.0
 20
2250.0
 30
0.0
 40
0.1
  0
POINT
  5
250
  8
DEFPOINTS
  6
BYBLOCK
 10
215.0
 20
2100.0
 30
0.0
  0
POINT
  5
251
  8
DEFPOINTS
  6
BYBLOCK
 10
-215.0
 20
2100.0
 30
0.0
  0
POINT
  5
252
  8
DEFPOINTS
  6
BYBLOCK
 10
-215.0
 20
2250.0
 30
0.0
  0
ENDBLK
  5
253
  8
SIZE
  0
BLOCK
  8
SIZE
  2
*D23
 70
     1
 10
0.0
 20
0.0
 30
0.0
  3
*D23
  1

  0
TEXT
  5
256
  8
SIZE
  6
CONTINUOUS
 10
-816.0000244379039
 20
1997.06005871614
 30
0.0
 40
2.7999999523162842
  1
200
 50
90.000005008956336
 41
0.6999999829701011
  7
STANDARD1
  0
LINE
  5
257
  8
SIZE
  6
CONTINUOUS
 10
-216.0
 20
2100.0
 30
0.0
 11
-817.0
 21
2100.0
 31
0.0
  0
LINE
  5
258
  8
SIZE
  6
CONTINUOUS
 10
-216.0
 20
1900.0
 30
0.0
 11
-817.0
 21
1900.0
 31
0.0
  0
LINE
  5
259
  8
SIZE
  6
CONTINUOUS
 10
-815.0
 20
2100.0
 30
0.0
 11
-815.0
 21
1900.0
 31
0.0
  0
CIRCLE
  5
25A
  8
SIZE
  6
CONTINUOUS
 10
-815.0
 20
2100.0
 30
0.0
 40
0.5
  0
CIRCLE
  5
25B
  8
SIZE
  6
CONTINUOUS
 10
-815.0
 20
2100.0
 30
0.0
 40
0.4
  0
CIRCLE
  5
25C
  8
SIZE
  6
CONTINUOUS
 10
-815.0
 20
2100.0
 30
0.0
 40
0.3
  0
CIRCLE
  5
25D
  8
SIZE
  6
CONTINUOUS
 10
-815.0
 20
2100.0
 30
0.0
 40
0.2
  0
CIRCLE
  5
25E
  8
SIZE
  6
CONTINUOUS
 10
-815.0
 20
2100.0
 30
0.0
 40
0.1
  0
CIRCLE
  5
25F
  8
SIZE
  6
CONTINUOUS
 10
-815.0
 20
1900.0
 30
0.0
 40
0.5
  0
CIRCLE
  5
260
  8
SIZE
  6
CONTINUOUS
 10
-815.0
 20
1900.0
 30
0.0
 40
0.4
  0
CIRCLE
  5
261
  8
SIZE
  6
CONTINUOUS
 10
-815.0
 20
1900.0
 30
0.0
 40
0.3
  0
CIRCLE
  5
262
  8
SIZE
  6
CONTINUOUS
 10
-815.0
 20
1900.0
 30
0.0
 40
0.2
  0
CIRCLE
  5
263
  8
SIZE
  6
CONTINUOUS
 10
-815.0
 20
1900.0
 30
0.0
 40
0.1
  0
POINT
  5
264
  8
DEFPOINTS
  6
BYBLOCK
 10
-215.0
 20
1900.0
 30
0.0
  0
POINT
  5
265
  8
DEFPOINTS
  6
BYBLOCK
 10
-215.0
 20
2100.0
 30
0.0
  0
POINT
  5
266
  8
DEFPOINTS
  6
BYBLOCK
 10
-815.0
 20
2100.0
 30
0.0
  0
ENDBLK
  5
267
  8
SIZE
  0
BLOCK
  8
SIZE
  2
*D24
 70
     1
 10
0.0
 20
0.0
 30
0.0
  3
*D24
  1

  0
TEXT
  5
26A
  8
SIZE
  6
CONTINUOUS
 10
-816.0000244379039
 20
946.08001721223559
 30
0.0
 40
2.7999999523162842
  1
1900
 50
90.000005008956336
 41
0.6999999829701011
  7
STANDARD1
  0
LINE
  5
26B
  8
SIZE
  6
CONTINUOUS
 10
-216.0
 20
1900.0
 30
0.0
 11
-817.0
 21
1900.0
 31
0.0
  0
LINE
  5
26C
  8
SIZE
  6
CONTINUOUS
 10
-182.5
 20
-0.000000000000057
 30
0.0
 11
-817.0
 21
0.000000000000021
 31
0.0
  0
LINE
  5
26D
  8
SIZE
  6
CONTINUOUS
 10
-815.0
 20
1900.0
 30
0.0
 11
-815.0
 21
0.000000000000021
 31
0.0
  0
CIRCLE
  5
26E
  8
SIZE
  6
CONTINUOUS
 10
-815.0
 20
1900.0
 30
0.0
 40
0.5
  0
CIRCLE
  5
26F
  8
SIZE
  6
CONTINUOUS
 10
-815.0
 20
1900.0
 30
0.0
 40
0.4
  0
CIRCLE
  5
270
  8
SIZE
  6
CONTINUOUS
 10
-815.0
 20
1900.0
 30
0.0
 40
0.3
  0
CIRCLE
  5
271
  8
SIZE
  6
CONTINUOUS
 10
-815.0
 20
1900.0
 30
0.0
 40
0.2
  0
CIRCLE
  5
272
  8
SIZE
  6
CONTINUOUS
 10
-815.0
 20
1900.0
 30
0.0
 40
0.1
  0
CIRCLE
  5
273
  8
SIZE
  6
CONTINUOUS
 10
-815.0
 20
0.000000000000021
 30
0.0
 40
0.5
  0
CIRCLE
  5
274
  8
SIZE
  6
CONTINUOUS
 10
-815.0
 20
0.000000000000021
 30
0.0
 40
0.4
  0
CIRCLE
  5
275
  8
SIZE
  6
CONTINUOUS
 10
-815.0
 20
0.000000000000021
 30
0.0
 40
0.3
  0
CIRCLE
  5
276
  8
SIZE
  6
CONTINUOUS
 10
-815.0
 20
0.000000000000021
 30
0.0
 40
0.2
  0
CIRCLE
  5
277
  8
SIZE
  6
CONTINUOUS
 10
-815.0
 20
0.000000000000021
 30
0.0
 40
0.1
  0
POINT
  5
278
  8
DEFPOINTS
  6
BYBLOCK
 10
-181.5
 20
-0.000000000000057
 30
0.0
  0
POINT
  5
279
  8
DEFPOINTS
  6
BYBLOCK
 10
-215.0
 20
1900.0
 30
0.0
  0
POINT
  5
27A
  8
DEFPOINTS
  6
BYBLOCK
 10
-815.0
 20
1900.0
 30
0.0
  0
ENDBLK
  5
27B
  8
SIZE
  0
BLOCK
  8
SIZE
  2
*D25
 70
     1
 10
0.0
 20
0.0
 30
0.0
  3
*D25
  1

  0
TEXT
  5
27E
  8
SIZE
  6
CONTINUOUS
 10
464.00000607967371
 20
72.059997680985589
 30
0.0
 40
2.7999999523162842
  1
150
 50
90.000005008956336
 41
0.6999999829701011
  7
STANDARD1
  0
LINE
  5
27F
  8
SIZE
  6
CONTINUOUS
 10
216.0
 20
150.0
 30
0.0
 11
467.0
 21
150.0
 31
0.0
  0
LINE
  5
280
  8
SIZE
  6
CONTINUOUS
 10
465.0
 20
0.0
 30
0.0
 11
465.0
 21
150.0
 31
0.0
  0
CIRCLE
  5
281
  8
SIZE
  6
CONTINUOUS
 10
465.0
 20
0.0
 30
0.0
 40
0.5
  0
CIRCLE
  5
282
  8
SIZE
  6
CONTINUOUS
 10
465.0
 20
0.0
 30
0.0
 40
0.4
  0
CIRCLE
  5
283
  8
SIZE
  6
CONTINUOUS
 10
465.0
 20
0.0
 30
0.0
 40
0.3
  0
CIRCLE
  5
284
  8
SIZE
  6
CONTINUOUS
 10
465.0
 20
0.0
 30
0.0
 40
0.2
  0
CIRCLE
  5
285
  8
SIZE
  6
CONTINUOUS
 10
465.0
 20
0.0
 30
0.0
 40
0.1
  0
CIRCLE
  5
286
  8
SIZE
  6
CONTINUOUS
 10
465.0
 20
150.0
 30
0.0
 40
0.5
  0
CIRCLE
  5
287
  8
SIZE
  6
CONTINUOUS
 10
465.0
 20
150.0
 30
0.0
 40
0.4
  0
CIRCLE
  5
288
  8
SIZE
  6
CONTINUOUS
 10
465.0
 20
150.0
 30
0.0
 40
0.3
  0
CIRCLE
  5
289
  8
SIZE
  6
CONTINUOUS
 10
465.0
 20
150.0
 30
0.0
 40
0.2
  0
CIRCLE
  5
28A
  8
SIZE
  6
CONTINUOUS
 10
465.0
 20
150.0
 30
0.0
 40
0.1
  0
POINT
  5
28B
  8
DEFPOINTS
  6
BYBLOCK
 10
215.0
 20
150.0
 30
0.0
  0
POINT
  5
28C
  8
DEFPOINTS
  6
BYBLOCK
 10
181.5
 20
0.0
 30
0.0
  0
POINT
  5
28D
  8
DEFPOINTS
  6
BYBLOCK
 10
465.0
 20
0.0
 30
0.0
  0
ENDBLK
  5
28E
  8
SIZE
  0
BLOCK
  8
SIZE
  2
*D26
 70
     1
 10
0.0
 20
0.0
 30
0.0
  3
*D26
  1

  0
TEXT
  5
291
  8
SIZE
  6
CONTINUOUS
 10
963.99997556209576
 20
1046.0799561770791
 30
0.0
 40
2.7999999523162842
  1
2100
 50
90.000005008956336
 41
0.6999999829701011
  7
STANDARD1
  0
LINE
  5
292
  8
SIZE
  6
CONTINUOUS
 10
516.0
 20
2100.0
 30
0.0
 11
967.0
 21
2100.0
 31
0.0
  0
LINE
  5
293
  8
SIZE
  6
CONTINUOUS
 10
516.0
 20
0.0
 30
0.0
 11
967.0
 21
0.0
 31
0.0
  0
LINE
  5
294
  8
SIZE
  6
CONTINUOUS
 10
965.0
 20
2100.0
 30
0.0
 11
965.0
 21
0.0
 31
0.0
  0
CIRCLE
  5
295
  8
SIZE
  6
CONTINUOUS
 10
965.0
 20
2100.0
 30
0.0
 40
0.5
  0
CIRCLE
  5
296
  8
SIZE
  6
CONTINUOUS
 10
965.0
 20
2100.0
 30
0.0
 40
0.4
  0
CIRCLE
  5
297
  8
SIZE
  6
CONTINUOUS
 10
965.0
 20
2100.0
 30
0.0
 40
0.3
  0
CIRCLE
  5
298
  8
SIZE
  6
CONTINUOUS
 10
965.0
 20
2100.0
 30
0.0
 40
0.2
  0
CIRCLE
  5
299
  8
SIZE
  6
CONTINUOUS
 10
965.0
 20
2100.0
 30
0.0
 40
0.1
  0
CIRCLE
  5
29A
  8
SIZE
  6
CONTINUOUS
 10
965.0
 20
0.0
 30
0.0
 40
0.5
  0
CIRCLE
  5
29B
  8
SIZE
  6
CONTINUOUS
 10
965.0
 20
0.0
 30
0.0
 40
0.4
  0
CIRCLE
  5
29C
  8
SIZE
  6
CONTINUOUS
 10
965.0
 20
0.0
 30
0.0
 40
0.3
  0
CIRCLE
  5
29D
  8
SIZE
  6
CONTINUOUS
 10
965.0
 20
0.0
 30
0.0
 40
0.2
  0
CIRCLE
  5
29E
  8
SIZE
  6
CONTINUOUS
 10
965.0
 20
0.0
 30
0.0
 40
0.1
  0
POINT
  5
29F
  8
DEFPOINTS
  6
BYBLOCK
 10
515.0
 20
0.0
 30
0.0
  0
POINT
  5
2A0
  8
DEFPOINTS
  6
BYBLOCK
 10
515.0
 20
2100.0
 30
0.0
  0
POINT
  5
2A1
  8
DEFPOINTS
  6
BYBLOCK
 10
965.0
 20
2100.0
 30
0.0
  0
ENDBLK
  5
2A2
  8
SIZE
  0
BLOCK
  8
SIZE
  2
*D27
 70
     1
 10
0.0
 20
0.0
 30
0.0
  3
*D27
  1

  0
TEXT
  5
2A5
  8
SIZE
  6
CONTINUOUS
 10
-616.00002443790413
 20
172.05999768098559
 30
0.0
 40
2.7999999523162842
  1
350
 50
90.000005008956336
 41
0.6999999829701011
  7
STANDARD1
  0
LINE
  5
2A6
  8
SIZE
  6
CONTINUOUS
 10
-182.5
 20
-0.000000000000057
 30
0.0
 11
-617.0
 21
-0.000000000000004
 31
0.0
  0
LINE
  5
2A7
  8
SIZE
  6
CONTINUOUS
 10
-216.0
 20
350.0
 30
0.0
 11
-617.0
 21
350.0
 31
0.0
  0
LINE
  5
2A8
  8
SIZE
  6
CONTINUOUS
 10
-615.0
 20
-0.000000000000004
 30
0.0
 11
-615.0
 21
350.0
 31
0.0
  0
CIRCLE
  5
2A9
  8
SIZE
  6
CONTINUOUS
 10
-615.0
 20
-0.000000000000004
 30
0.0
 40
0.5
  0
CIRCLE
  5
2AA
  8
SIZE
  6
CONTINUOUS
 10
-615.0
 20
-0.000000000000004
 30
0.0
 40
0.4
  0
CIRCLE
  5
2AB
  8
SIZE
  6
CONTINUOUS
 10
-615.0
 20
-0.000000000000004
 30
0.0
 40
0.3
  0
CIRCLE
  5
2AC
  8
SIZE
  6
CONTINUOUS
 10
-615.0
 20
-0.000000000000004
 30
0.0
 40
0.2
  0
CIRCLE
  5
2AD
  8
SIZE
  6
CONTINUOUS
 10
-615.0
 20
-0.000000000000004
 30
0.0
 40
0.1
  0
CIRCLE
  5
2AE
  8
SIZE
  6
CONTINUOUS
 10
-615.0
 20
350.0
 30
0.0
 40
0.5
  0
CIRCLE
  5
2AF
  8
SIZE
  6
CONTINUOUS
 10
-615.0
 20
350.0
 30
0.0
 40
0.4
  0
CIRCLE
  5
2B0
  8
SIZE
  6
CONTINUOUS
 10
-615.0
 20
350.0
 30
0.0
 40
0.3
  0
CIRCLE
  5
2B1
  8
SIZE
  6
CONTINUOUS
 10
-615.0
 20
350.0
 30
0.0
 40
0.2
  0
CIRCLE
  5
2B2
  8
SIZE
  6
CONTINUOUS
 10
-615.0
 20
350.0
 30
0.0
 40
0.1
  0
POINT
  5
2B3
  8
DEFPOINTS
  6
BYBLOCK
 10
-215.0
 20
350.0
 30
0.0
  0
POINT
  5
2B4
  8
DEFPOINTS
  6
BYBLOCK
 10
-181.5
 20
-0.000000000000057
 30
0.0
  0
POINT
  5
2B5
  8
DEFPOINTS
  6
BYBLOCK
 10
-615.0
 20
-0.000000000000004
 30
0.0
  0
ENDBLK
  5
2B6
  8
SIZE
  0
BLOCK
  8
SIZE
  2
*D28
 70
     1
 10
0.0
 20
0.0
 30
0.0
  3
*D28
  1

  0
TEXT
  5
2B9
  8
SIZE
  6
CONTINUOUS
 10
-1.959999976951027
 20
1590.0000244379039
 30
0.0
 40
2.7999999523162842
  1
84
 50
0.000002504478167
 41
0.6999999829701011
  7
STANDARD1
  0
LINE
  5
2BA
  8
SIZE
  6
CONTINUOUS
 10
-42.0
 20
1744.0
 30
0.0
 11
-42.0
 21
1587.0
 31
0.0
  0
LINE
  5
2BB
  8
SIZE
  6
CONTINUOUS
 10
42.0
 20
1744.0
 30
0.0
 11
42.0
 21
1587.0
 31
0.0
  0
LINE
  5
2BC
  8
SIZE
  6
CONTINUOUS
 10
-42.0
 20
1589.0
 30
0.0
 11
42.0
 21
1589.0
 31
0.0
  0
CIRCLE
  5
2BD
  8
SIZE
  6
CONTINUOUS
 10
-42.0
 20
1589.0
 30
0.0
 40
0.5
  0
CIRCLE
  5
2BE
  8
SIZE
  6
CONTINUOUS
 10
-42.0
 20
1589.0
 30
0.0
 40
0.4
  0
CIRCLE
  5
2BF
  8
SIZE
  6
CONTINUOUS
 10
-42.0
 20
1589.0
 30
0.0
 40
0.3
  0
CIRCLE
  5
2C0
  8
SIZE
  6
CONTINUOUS
 10
-42.0
 20
1589.0
 30
0.0
 40
0.2
  0
CIRCLE
  5
2C1
  8
SIZE
  6
CONTINUOUS
 10
-42.0
 20
1589.0
 30
0.0
 40
0.1
  0
CIRCLE
  5
2C2
  8
SIZE
  6
CONTINUOUS
 10
42.0
 20
1589.0
 30
0.0
 40
0.5
  0
CIRCLE
  5
2C3
  8
SIZE
  6
CONTINUOUS
 10
42.0
 20
1589.0
 30
0.0
 40
0.4
  0
CIRCLE
  5
2C4
  8
SIZE
  6
CONTINUOUS
 10
42.0
 20
1589.0
 30
0.0
 40
0.3
  0
CIRCLE
  5
2C5
  8
SIZE
  6
CONTINUOUS
 10
42.0
 20
1589.0
 30
0.0
 40
0.2
  0
CIRCLE
  5
2C6
  8
SIZE
  6
CONTINUOUS
 10
42.0
 20
1589.0
 30
0.0
 40
0.1
  0
POINT
  5
2C7
  8
DEFPOINTS
  6
BYBLOCK
 10
42.0
 20
1745.0
 30
0.0
  0
POINT
  5
2C8
  8
DEFPOINTS
  6
BYBLOCK
 10
-42.0
 20
1745.0
 30
0.0
  0
POINT
  5
2C9
  8
DEFPOINTS
  6
BYBLOCK
 10
-42.0
 20
1589.0
 30
0.0
  0
ENDBLK
  5
2CA
  8
SIZE
  0
BLOCK
  8
SIZE
  2
*D29
 70
     1
 10
0.0
 20
0.0
 30
0.0
  3
*D29
  1

  0
TEXT
  5
2CD
  8
SIZE
  6
CONTINUOUS
 10
-131.4400023802103
 20
1590.0000244379039
 30
0.0
 40
2.7999999523162842
  1
173
 50
0.000002504478167
 41
0.6999999829701011
  7
STANDARD1
  0
LINE
  5
2CE
  8
SIZE
  6
CONTINUOUS
 10
-42.0
 20
1744.0
 30
0.0
 11
-42.0
 21
1587.0
 31
0.0
  0
LINE
  5
2CF
  8
SIZE
  6
CONTINUOUS
 10
-42.0
 20
1589.0
 30
0.0
 11
-215.0
 21
1589.0
 31
0.0
  0
CIRCLE
  5
2D0
  8
SIZE
  6
CONTINUOUS
 10
-42.0
 20
1589.0
 30
0.0
 40
0.5
  0
CIRCLE
  5
2D1
  8
SIZE
  6
CONTINUOUS
 10
-42.0
 20
1589.0
 30
0.0
 40
0.4
  0
CIRCLE
  5
2D2
  8
SIZE
  6
CONTINUOUS
 10
-42.0
 20
1589.0
 30
0.0
 40
0.3
  0
CIRCLE
  5
2D3
  8
SIZE
  6
CONTINUOUS
 10
-42.0
 20
1589.0
 30
0.0
 40
0.2
  0
CIRCLE
  5
2D4
  8
SIZE
  6
CONTINUOUS
 10
-42.0
 20
1589.0
 30
0.0
 40
0.1
  0
CIRCLE
  5
2D5
  8
SIZE
  6
CONTINUOUS
 10
-215.0
 20
1589.0
 30
0.0
 40
0.5
  0
CIRCLE
  5
2D6
  8
SIZE
  6
CONTINUOUS
 10
-215.0
 20
1589.0
 30
0.0
 40
0.4
  0
CIRCLE
  5
2D7
  8
SIZE
  6
CONTINUOUS
 10
-215.0
 20
1589.0
 30
0.0
 40
0.3
  0
CIRCLE
  5
2D8
  8
SIZE
  6
CONTINUOUS
 10
-215.0
 20
1589.0
 30
0.0
 40
0.2
  0
CIRCLE
  5
2D9
  8
SIZE
  6
CONTINUOUS
 10
-215.0
 20
1589.0
 30
0.0
 40
0.1
  0
POINT
  5
2DA
  8
DEFPOINTS
  6
BYBLOCK
 10
-215.0
 20
1900.0
 30
0.0
  0
POINT
  5
2DB
  8
DEFPOINTS
  6
BYBLOCK
 10
-42.0
 20
1745.0
 30
0.0
  0
POINT
  5
2DC
  8
DEFPOINTS
  6
BYBLOCK
 10
-42.0
 20
1589.0
 30
0.0
  0
ENDBLK
  5
2DD
  8
SIZE
  0
BLOCK
  8
SIZE
  2
*D30
 70
     1
 10
0.0
 20
0.0
 30
0.0
  3
*D30
  1

  0
TEXT
  5
2E0
  8
SIZE
  6
CONTINUOUS
 10
863.99997556209576
 20
865.58001721223559
 30
0.0
 40
2.7999999523162842
  1
1739
 50
90.000005008956336
 41
0.6999999829701011
  7
STANDARD1
  0
LINE
  5
2E1
  8
SIZE
  6
CONTINUOUS
 10
38.0
 20
1739.0
 30
0.0
 11
867.0
 21
1739.0
 31
0.0
  0
LINE
  5
2E2
  8
SIZE
  6
CONTINUOUS
 10
516.0
 20
0.0
 30
0.0
 11
867.0
 21
0.0
 31
0.0
  0
LINE
  5
2E3
  8
SIZE
  6
CONTINUOUS
 10
865.0
 20
1739.0
 30
0.0
 11
865.0
 21
0.0
 31
0.0
  0
CIRCLE
  5
2E4
  8
SIZE
  6
CONTINUOUS
 10
865.0
 20
1739.0
 30
0.0
 40
0.5
  0
CIRCLE
  5
2E5
  8
SIZE
  6
CONTINUOUS
 10
865.0
 20
1739.0
 30
0.0
 40
0.4
  0
CIRCLE
  5
2E6
  8
SIZE
  6
CONTINUOUS
 10
865.0
 20
1739.0
 30
0.0
 40
0.3
  0
CIRCLE
  5
2E7
  8
SIZE
  6
CONTINUOUS
 10
865.0
 20
1739.0
 30
0.0
 40
0.2
  0
CIRCLE
  5
2E8
  8
SIZE
  6
CONTINUOUS
 10
865.0
 20
1739.0
 30
0.0
 40
0.1
  0
CIRCLE
  5
2E9
  8
SIZE
  6
CONTINUOUS
 10
865.0
 20
0.0
 30
0.0
 40
0.5
  0
CIRCLE
  5
2EA
  8
SIZE
  6
CONTINUOUS
 10
865.0
 20
0.0
 30
0.0
 40
0.4
  0
CIRCLE
  5
2EB
  8
SIZE
  6
CONTINUOUS
 10
865.0
 20
0.0
 30
0.0
 40
0.3
  0
CIRCLE
  5
2EC
  8
SIZE
  6
CONTINUOUS
 10
865.0
 20
0.0
 30
0.0
 40
0.2
  0
CIRCLE
  5
2ED
  8
SIZE
  6
CONTINUOUS
 10
865.0
 20
0.0
 30
0.0
 40
0.1
  0
POINT
  5
2EE
  8
DEFPOINTS
  6
BYBLOCK
 10
515.0
 20
0.0
 30
0.0
  0
POINT
  5
2EF
  8
DEFPOINTS
  6
BYBLOCK
 10
37.0
 20
1739.0
 30
0.0
  0
POINT
  5
2F0
  8
DEFPOINTS
  6
BYBLOCK
 10
865.0
 20
1739.0
 30
0.0
  0
ENDBLK
  5
2F1
  8
SIZE
  0
BLOCK
  8
SIZE
  2
*D31
 70
     1
 10
0.0
 20
0.0
 30
0.0
  3
*D31
  1

  0
TEXT
  5
2F4
  8
SIZE
  6
CONTINUOUS
 10
863.99997556209576
 20
1795.0600587161421
 30
0.0
 40
2.7999999523162842
  1
118
 50
90.000005008956336
 41
0.6999999829701011
  7
STANDARD1
  0
LINE
  5
2F5
  8
SIZE
  6
CONTINUOUS
 10
1.0000000000000111
 20
1857.0
 30
0.0
 11
867.0
 21
1857.0
 31
0.0
  0
LINE
  5
2F6
  8
SIZE
  6
CONTINUOUS
 10
38.0
 20
1739.0
 30
0.0
 11
867.0
 21
1739.0
 31
0.0
  0
LINE
  5
2F7
  8
SIZE
  6
CONTINUOUS
 10
865.0
 20
1857.0
 30
0.0
 11
865.0
 21
1739.0
 31
0.0
  0
CIRCLE
  5
2F8
  8
SIZE
  6
CONTINUOUS
 10
865.0
 20
1857.0
 30
0.0
 40
0.5
  0
CIRCLE
  5
2F9
  8
SIZE
  6
CONTINUOUS
 10
865.0
 20
1857.0
 30
0.0
 40
0.4
  0
CIRCLE
  5
2FA
  8
SIZE
  6
CONTINUOUS
 10
865.0
 20
1857.0
 30
0.0
 40
0.3
  0
CIRCLE
  5
2FB
  8
SIZE
  6
CONTINUOUS
 10
865.0
 20
1857.0
 30
0.0
 40
0.2
  0
CIRCLE
  5
2FC
  8
SIZE
  6
CONTINUOUS
 10
865.0
 20
1857.0
 30
0.0
 40
0.1
  0
CIRCLE
  5
2FD
  8
SIZE
  6
CONTINUOUS
 10
865.0
 20
1739.0
 30
0.0
 40
0.5
  0
CIRCLE
  5
2FE
  8
SIZE
  6
CONTINUOUS
 10
865.0
 20
1739.0
 30
0.0
 40
0.4
  0
CIRCLE
  5
2FF
  8
SIZE
  6
CONTINUOUS
 10
865.0
 20
1739.0
 30
0.0
 40
0.3
  0
CIRCLE
  5
300
  8
SIZE
  6
CONTINUOUS
 10
865.0
 20
1739.0
 30
0.0
 40
0.2
  0
CIRCLE
  5
301
  8
SIZE
  6
CONTINUOUS
 10
865.0
 20
1739.0
 30
0.0
 40
0.1
  0
POINT
  5
302
  8
DEFPOINTS
  6
BYBLOCK
 10
37.0
 20
1739.0
 30
0.0
  0
POINT
  5
303
  8
DEFPOINTS
  6
BYBLOCK
 10
0.000000000000011
 20
1857.0
 30
0.0
  0
POINT
  5
304
  8
DEFPOINTS
  6
BYBLOCK
 10
865.0
 20
1857.0
 30
0.0
  0
ENDBLK
  5
305
  8
SIZE
  0
BLOCK
  8
SIZE
  2
*D32
 70
     1
 10
0.0
 20
0.0
 30
0.0
  3
*D32
  1

  0
TEXT
  5
308
  8
SIZE
  6
CONTINUOUS
 10
-142.46000665267121
 20
974.0000244379039
 30
0.0
 40
2.7999999523162842
  1
95
 50
0.000002504478167
 41
0.6999999829701011
  7
STANDARD1
  0
LINE
  5
309
  8
SIZE
  6
CONTINUOUS
 10
-93.0
 20
766.0
 30
0.0
 11
-93.0
 21
975.0
 31
0.0
  0
LINE
  5
30A
  8
SIZE
  6
CONTINUOUS
 10
-188.0
 20
973.0
 30
0.0
 11
-93.0
 21
973.0
 31
0.0
  0
CIRCLE
  5
30B
  8
SIZE
  6
CONTINUOUS
 10
-188.0
 20
973.0
 30
0.0
 40
0.5
  0
CIRCLE
  5
30C
  8
SIZE
  6
CONTINUOUS
 10
-188.0
 20
973.0
 30
0.0
 40
0.4
  0
CIRCLE
  5
30D
  8
SIZE
  6
CONTINUOUS
 10
-188.0
 20
973.0
 30
0.0
 40
0.3
  0
CIRCLE
  5
30E
  8
SIZE
  6
CONTINUOUS
 10
-188.0
 20
973.0
 30
0.0
 40
0.2
  0
CIRCLE
  5
30F
  8
SIZE
  6
CONTINUOUS
 10
-188.0
 20
973.0
 30
0.0
 40
0.1
  0
CIRCLE
  5
310
  8
SIZE
  6
CONTINUOUS
 10
-93.0
 20
973.0
 30
0.0
 40
0.5
  0
CIRCLE
  5
311
  8
SIZE
  6
CONTINUOUS
 10
-93.0
 20
973.0
 30
0.0
 40
0.4
  0
CIRCLE
  5
312
  8
SIZE
  6
CONTINUOUS
 10
-93.0
 20
973.0
 30
0.0
 40
0.3
  0
CIRCLE
  5
313
  8
SIZE
  6
CONTINUOUS
 10
-93.0
 20
973.0
 30
0.0
 40
0.2
  0
CIRCLE
  5
314
  8
SIZE
  6
CONTINUOUS
 10
-93.0
 20
973.0
 30
0.0
 40
0.1
  0
POINT
  5
315
  8
DEFPOINTS
  6
BYBLOCK
 10
-93.0
 20
765.0
 30
0.0
  0
POINT
  5
316
  8
DEFPOINTS
  6
BYBLOCK
 10
-188.0
 20
765.0
 30
0.0
  0
POINT
  5
317
  8
DEFPOINTS
  6
BYBLOCK
 10
-188.0
 20
973.0
 30
0.0
  0
ENDBLK
  5
318
  8
SIZE
  0
BLOCK
  8
SIZE
  2
*D33
 70
     1
 10
0.0
 20
0.0
 30
0.0
  3
*D33
  1

  0
TEXT
  5
31B
  8
SIZE
  6
CONTINUOUS
 10
-716.00002443790402
 20
704.05999768098559
 30
0.0
 40
2.7999999523162842
  1
132
 50
90.000005008956336
 41
0.6999999829701011
  7
STANDARD1
  0
LINE
  5
31C
  8
SIZE
  6
CONTINUOUS
 10
-181.0
 20
773.0
 30
0.0
 11
-717.0
 21
773.0
 31
0.0
  0
LINE
  5
31D
  8
SIZE
  6
CONTINUOUS
 10
-181.0
 20
641.0
 30
0.0
 11
-717.0
 21
641.0
 31
0.0
  0
LINE
  5
31E
  8
SIZE
  6
CONTINUOUS
 10
-715.0
 20
773.0
 30
0.0
 11
-715.0
 21
641.0
 31
0.0
  0
CIRCLE
  5
31F
  8
SIZE
  6
CONTINUOUS
 10
-715.0
 20
773.0
 30
0.0
 40
0.5
  0
CIRCLE
  5
320
  8
SIZE
  6
CONTINUOUS
 10
-715.0
 20
773.0
 30
0.0
 40
0.4
  0
CIRCLE
  5
321
  8
SIZE
  6
CONTINUOUS
 10
-715.0
 20
773.0
 30
0.0
 40
0.3
  0
CIRCLE
  5
322
  8
SIZE
  6
CONTINUOUS
 10
-715.0
 20
773.0
 30
0.0
 40
0.2
  0
CIRCLE
  5
323
  8
SIZE
  6
CONTINUOUS
 10
-715.0
 20
773.0
 30
0.0
 40
0.1
  0
CIRCLE
  5
324
  8
SIZE
  6
CONTINUOUS
 10
-715.0
 20
641.0
 30
0.0
 40
0.5
  0
CIRCLE
  5
325
  8
SIZE
  6
CONTINUOUS
 10
-715.0
 20
641.0
 30
0.0
 40
0.4
  0
CIRCLE
  5
326
  8
SIZE
  6
CONTINUOUS
 10
-715.0
 20
641.0
 30
0.0
 40
0.3
  0
CIRCLE
  5
327
  8
SIZE
  6
CONTINUOUS
 10
-715.0
 20
641.0
 30
0.0
 40
0.2
  0
CIRCLE
  5
328
  8
SIZE
  6
CONTINUOUS
 10
-715.0
 20
641.0
 30
0.0
 40
0.1
  0
POINT
  5
329
  8
DEFPOINTS
  6
BYBLOCK
 10
-180.0
 20
641.0
 30
0.0
  0
POINT
  5
32A
  8
DEFPOINTS
  6
BYBLOCK
 10
-180.0
 20
773.0
 30
0.0
  0
POINT
  5
32B
  8
DEFPOINTS
  6
BYBLOCK
 10
-715.0
 20
773.0
 30
0.0
  0
ENDBLK
  5
32C
  8
SIZE
  0
BLOCK
  8
SIZE
  2
*D34
 70
     1
 10
0.0
 20
0.0
 30
0.0
  3
*D34
  1

  0
TEXT
  5
32F
  8
SIZE
  6
CONTINUOUS
 10
-916.0000244379039
 20
957.58001721223559
 30
0.0
 40
2.7999999523162842
  1
1923
 50
90.000005008956336
 41
0.6999999829701011
  7
STANDARD1
  0
LINE
  5
330
  8
SIZE
  6
CONTINUOUS
 10
-386.0
 20
1923.0
 30
0.0
 11
-917.0
 21
1923.0
 31
0.0
  0
LINE
  5
331
  8
SIZE
  6
CONTINUOUS
 10
-182.5
 20
-0.000000000000057
 30
0.0
 11
-917.0
 21
0.000000000000033
 31
0.0
  0
LINE
  5
332
  8
SIZE
  6
CONTINUOUS
 10
-915.0
 20
1923.0
 30
0.0
 11
-915.0
 21
0.000000000000033
 31
0.0
  0
CIRCLE
  5
333
  8
SIZE
  6
CONTINUOUS
 10
-915.0
 20
1923.0
 30
0.0
 40
0.5
  0
CIRCLE
  5
334
  8
SIZE
  6
CONTINUOUS
 10
-915.0
 20
1923.0
 30
0.0
 40
0.4
  0
CIRCLE
  5
335
  8
SIZE
  6
CONTINUOUS
 10
-915.0
 20
1923.0
 30
0.0
 40
0.3
  0
CIRCLE
  5
336
  8
SIZE
  6
CONTINUOUS
 10
-915.0
 20
1923.0
 30
0.0
 40
0.2
  0
CIRCLE
  5
337
  8
SIZE
  6
CONTINUOUS
 10
-915.0
 20
1923.0
 30
0.0
 40
0.1
  0
CIRCLE
  5
338
  8
SIZE
  6
CONTINUOUS
 10
-915.0
 20
0.000000000000033
 30
0.0
 40
0.5
  0
CIRCLE
  5
339
  8
SIZE
  6
CONTINUOUS
 10
-915.0
 20
0.000000000000033
 30
0.0
 40
0.4
  0
CIRCLE
  5
33A
  8
SIZE
  6
CONTINUOUS
 10
-915.0
 20
0.000000000000033
 30
0.0
 40
0.3
  0
CIRCLE
  5
33B
  8
SIZE
  6
CONTINUOUS
 10
-915.0
 20
0.000000000000033
 30
0.0
 40
0.2
  0
CIRCLE
  5
33C
  8
SIZE
  6
CONTINUOUS
 10
-915.0
 20
0.000000000000033
 30
0.0
 40
0.1
  0
POINT
  5
33D
  8
DEFPOINTS
  6
BYBLOCK
 10
-181.5
 20
-0.000000000000057
 30
0.0
  0
POINT
  5
33E
  8
DEFPOINTS
  6
BYBLOCK
 10
-385.0
 20
1923.0
 30
0.0
  0
POINT
  5
33F
  8
DEFPOINTS
  6
BYBLOCK
 10
-915.0
 20
1923.0
 30
0.0
  0
ENDBLK
  5
340
  8
SIZE
  0
BLOCK
  8
SIZE
  2
*D35
 70
     1
 10
0.0
 20
0.0
 30
0.0
  3
*D35
  1

  0
TEXT
  5
343
  8
SIZE
  6
CONTINUOUS
 10
-1016.000024437904
 20
968.58001721223548
 30
0.0
 40
2.7999999523162842
  1
1945
 50
90.000005008956336
 41
0.6999999829701011
  7
STANDARD1
  0
LINE
  5
344
  8
SIZE
  6
CONTINUOUS
 10
-366.0
 20
1945.0
 30
0.0
 11
-1017.0
 21
1945.0
 31
0.0
  0
LINE
  5
345
  8
SIZE
  6
CONTINUOUS
 10
-182.5
 20
-0.000000000000057
 30
0.0
 11
-1017.0
 21
0.000000000000045
 31
0.0
  0
LINE
  5
346
  8
SIZE
  6
CONTINUOUS
 10
-1015.0
 20
1945.0
 30
0.0
 11
-1015.0
 21
0.000000000000045
 31
0.0
  0
CIRCLE
  5
347
  8
SIZE
  6
CONTINUOUS
 10
-1015.0
 20
1945.0
 30
0.0
 40
0.5
  0
CIRCLE
  5
348
  8
SIZE
  6
CONTINUOUS
 10
-1015.0
 20
1945.0
 30
0.0
 40
0.4
  0
CIRCLE
  5
349
  8
SIZE
  6
CONTINUOUS
 10
-1015.0
 20
1945.0
 30
0.0
 40
0.3
  0
CIRCLE
  5
34A
  8
SIZE
  6
CONTINUOUS
 10
-1015.0
 20
1945.0
 30
0.0
 40
0.2
  0
CIRCLE
  5
34B
  8
SIZE
  6
CONTINUOUS
 10
-1015.0
 20
1945.0
 30
0.0
 40
0.1
  0
CIRCLE
  5
34C
  8
SIZE
  6
CONTINUOUS
 10
-1015.0
 20
0.000000000000045
 30
0.0
 40
0.5
  0
CIRCLE
  5
34D
  8
SIZE
  6
CONTINUOUS
 10
-1015.0
 20
0.000000000000045
 30
0.0
 40
0.4
  0
CIRCLE
  5
34E
  8
SIZE
  6
CONTINUOUS
 10
-1015.0
 20
0.000000000000045
 30
0.0
 40
0.3
  0
CIRCLE
  5
34F
  8
SIZE
  6
CONTINUOUS
 10
-1015.0
 20
0.000000000000045
 30
0.0
 40
0.2
  0
CIRCLE
  5
350
  8
SIZE
  6
CONTINUOUS
 10
-1015.0
 20
0.000000000000045
 30
0.0
 40
0.1
  0
POINT
  5
351
  8
DEFPOINTS
  6
BYBLOCK
 10
-181.5
 20
-0.000000000000057
 30
0.0
  0
POINT
  5
352
  8
DEFPOINTS
  6
BYBLOCK
 10
-365.0
 20
1945.0
 30
0.0
  0
POINT
  5
353
  8
DEFPOINTS
  6
BYBLOCK
 10
-1015.0
 20
1945.0
 30
0.0
  0
ENDBLK
  5
354
  8
SIZE
  0
BLOCK
  8
SIZE
  2
*D36
 70
     1
 10
0.0
 20
0.0
 30
0.0
  3
*D36
  1

  0
TEXT
  5
357
  8
SIZE
  6
CONTINUOUS
 10
-266.95999139388221
 20
974.0000244379039
 30
0.0
 40
2.7999999523162842
  1
27
 50
0.000002504478167
 41
0.6999999829701011
  7
STANDARD1
  0
LINE
  5
358
  8
SIZE
  6
CONTINUOUS
 10
-188.0
 20
766.0
 30
0.0
 11
-188.0
 21
975.0
 31
0.0
  0
LINE
  5
359
  8
SIZE
  6
CONTINUOUS
 10
-183.0
 20
973.0
 30
0.0
 11
-268.35998535156239
 21
973.0
 31
0.0
  0
CIRCLE
  5
35A
  8
SIZE
  6
CONTINUOUS
 10
-188.0
 20
973.0
 30
0.0
 40
0.5
  0
CIRCLE
  5
35B
  8
SIZE
  6
CONTINUOUS
 10
-188.0
 20
973.0
 30
0.0
 40
0.4
  0
CIRCLE
  5
35C
  8
SIZE
  6
CONTINUOUS
 10
-188.0
 20
973.0
 30
0.0
 40
0.3
  0
CIRCLE
  5
35D
  8
SIZE
  6
CONTINUOUS
 10
-188.0
 20
973.0
 30
0.0
 40
0.2
  0
CIRCLE
  5
35E
  8
SIZE
  6
CONTINUOUS
 10
-188.0
 20
973.0
 30
0.0
 40
0.1
  0
CIRCLE
  5
35F
  8
SIZE
  6
CONTINUOUS
 10
-215.0
 20
973.0
 30
0.0
 40
0.5
  0
CIRCLE
  5
360
  8
SIZE
  6
CONTINUOUS
 10
-215.0
 20
973.0
 30
0.0
 40
0.4
  0
CIRCLE
  5
361
  8
SIZE
  6
CONTINUOUS
 10
-215.0
 20
973.0
 30
0.0
 40
0.3
  0
CIRCLE
  5
362
  8
SIZE
  6
CONTINUOUS
 10
-215.0
 20
973.0
 30
0.0
 40
0.2
  0
CIRCLE
  5
363
  8
SIZE
  6
CONTINUOUS
 10
-215.0
 20
973.0
 30
0.0
 40
0.1
  0
POINT
  5
364
  8
DEFPOINTS
  6
BYBLOCK
 10
-215.0
 20
150.0
 30
0.0
  0
POINT
  5
365
  8
DEFPOINTS
  6
BYBLOCK
 10
-188.0
 20
765.0
 30
0.0
  0
POINT
  5
366
  8
DEFPOINTS
  6
BYBLOCK
 10
-188.0
 20
973.0
 30
0.0
  0
ENDBLK
  5
367
  8
SIZE
  0
BLOCK
  8
SIZE
  2
*D37
 70
     1
 10
0.0
 20
0.0
 30
0.0
  3
*D37
  1

  0
TEXT
  5
36A
  8
SIZE
  6
CONTINUOUS
 10
-288.60708612044482
 20
500.99999392032612
 30
0.0
 40
2.7999999523162842
  1
30
 50
0.000002504478167
 41
0.6999999829701011
  7
STANDARD1
  0
LINE
  5
36B
  8
SIZE
  6
CONTINUOUS
 10
-180.0
 20
500.0
 30
0.0
 11
-290.007080078125
 21
500.0
 31
0.0
  0
CIRCLE
  5
36C
  8
SIZE
  6
CONTINUOUS
 10
-185.0
 20
500.0
 30
0.0
 40
0.5
  0
CIRCLE
  5
36D
  8
SIZE
  6
CONTINUOUS
 10
-185.0
 20
500.0
 30
0.0
 40
0.4
  0
CIRCLE
  5
36E
  8
SIZE
  6
CONTINUOUS
 10
-185.0
 20
500.0
 30
0.0
 40
0.3
  0
CIRCLE
  5
36F
  8
SIZE
  6
CONTINUOUS
 10
-185.0
 20
500.0
 30
0.0
 40
0.2
  0
CIRCLE
  5
370
  8
SIZE
  6
CONTINUOUS
 10
-185.0
 20
500.0
 30
0.0
 40
0.1
  0
CIRCLE
  5
371
  8
SIZE
  6
CONTINUOUS
 10
-215.0
 20
500.0
 30
0.0
 40
0.5
  0
CIRCLE
  5
372
  8
SIZE
  6
CONTINUOUS
 10
-215.0
 20
500.0
 30
0.0
 40
0.4
  0
CIRCLE
  5
373
  8
SIZE
  6
CONTINUOUS
 10
-215.0
 20
500.0
 30
0.0
 40
0.3
  0
CIRCLE
  5
374
  8
SIZE
  6
CONTINUOUS
 10
-215.0
 20
500.0
 30
0.0
 40
0.2
  0
CIRCLE
  5
375
  8
SIZE
  6
CONTINUOUS
 10
-215.0
 20
500.0
 30
0.0
 40
0.1
  0
POINT
  5
376
  8
DEFPOINTS
  6
BYBLOCK
 10
-215.0
 20
150.0
 30
0.0
  0
POINT
  5
377
  8
DEFPOINTS
  6
BYBLOCK
 10
-185.0
 20
620.0
 30
0.0
  0
POINT
  5
378
  8
DEFPOINTS
  6
BYBLOCK
 10
-185.0
 20
500.0
 30
0.0
  0
ENDBLK
  5
379
  8
SIZE
  0
BLOCK
  8
SIZE
  2
*D38
 70
     1
 10
0.0
 20
0.0
 30
0.0
  3
*D38
  1

  0
TEXT
  5
37C
  8
SIZE
  6
CONTINUOUS
 10
-716.00002443790402
 20
521.55999768098559
 30
0.0
 40
2.7999999523162842
  1
233
 50
90.000005008956336
 41
0.6999999829701011
  7
STANDARD1
  0
LINE
  5
37D
  8
SIZE
  6
CONTINUOUS
 10
-181.0
 20
641.0
 30
0.0
 11
-717.0
 21
641.0
 31
0.0
  0
LINE
  5
37E
  8
SIZE
  6
CONTINUOUS
 10
-178.0
 20
408.0
 30
0.0
 11
-717.0
 21
408.0
 31
0.0
  0
LINE
  5
37F
  8
SIZE
  6
CONTINUOUS
 10
-715.0
 20
641.0
 30
0.0
 11
-715.0
 21
408.0
 31
0.0
  0
CIRCLE
  5
380
  8
SIZE
  6
CONTINUOUS
 10
-715.0
 20
641.0
 30
0.0
 40
0.5
  0
CIRCLE
  5
381
  8
SIZE
  6
CONTINUOUS
 10
-715.0
 20
641.0
 30
0.0
 40
0.4
  0
CIRCLE
  5
382
  8
SIZE
  6
CONTINUOUS
 10
-715.0
 20
641.0
 30
0.0
 40
0.3
  0
CIRCLE
  5
383
  8
SIZE
  6
CONTINUOUS
 10
-715.0
 20
641.0
 30
0.0
 40
0.2
  0
CIRCLE
  5
384
  8
SIZE
  6
CONTINUOUS
 10
-715.0
 20
641.0
 30
0.0
 40
0.1
  0
CIRCLE
  5
385
  8
SIZE
  6
CONTINUOUS
 10
-715.0
 20
408.0
 30
0.0
 40
0.5
  0
CIRCLE
  5
386
  8
SIZE
  6
CONTINUOUS
 10
-715.0
 20
408.0
 30
0.0
 40
0.4
  0
CIRCLE
  5
387
  8
SIZE
  6
CONTINUOUS
 10
-715.0
 20
408.0
 30
0.0
 40
0.3
  0
CIRCLE
  5
388
  8
SIZE
  6
CONTINUOUS
 10
-715.0
 20
408.0
 30
0.0
 40
0.2
  0
CIRCLE
  5
389
  8
SIZE
  6
CONTINUOUS
 10
-715.0
 20
408.0
 30
0.0
 40
0.1
  0
POINT
  5
38A
  8
DEFPOINTS
  6
BYBLOCK
 10
-177.0
 20
408.0
 30
0.0
  0
POINT
  5
38B
  8
DEFPOINTS
  6
BYBLOCK
 10
-180.0
 20
641.0
 30
0.0
  0
POINT
  5
38C
  8
DEFPOINTS
  6
BYBLOCK
 10
-715.0
 20
641.0
 30
0.0
  0
ENDBLK
  5
38D
  8
SIZE
  0
BLOCK
  8
SIZE
  2
*D39
 70
     1
 10
0.0
 20
0.0
 30
0.0
  3
*D39
  1

  0
TEXT
  5
390
  8
SIZE
  6
CONTINUOUS
 10
-716.00002443790402
 20
201.0599976809857
 30
0.0
 40
2.7999999523162842
  1
408
 50
90.000005008956336
 41
0.6999999829701011
  7
STANDARD1
  0
LINE
  5
391
  8
SIZE
  6
CONTINUOUS
 10
-178.0
 20
408.0
 30
0.0
 11
-717.0
 21
408.0
 31
0.0
  0
LINE
  5
392
  8
SIZE
  6
CONTINUOUS
 10
-182.5
 20
-0.000000000000057
 30
0.0
 11
-717.0
 21
0.000000000000009
 31
0.0
  0
LINE
  5
393
  8
SIZE
  6
CONTINUOUS
 10
-715.0
 20
408.0
 30
0.0
 11
-715.0
 21
0.000000000000008
 31
0.0
  0
CIRCLE
  5
394
  8
SIZE
  6
CONTINUOUS
 10
-715.0
 20
408.0
 30
0.0
 40
0.5
  0
CIRCLE
  5
395
  8
SIZE
  6
CONTINUOUS
 10
-715.0
 20
408.0
 30
0.0
 40
0.4
  0
CIRCLE
  5
396
  8
SIZE
  6
CONTINUOUS
 10
-715.0
 20
408.0
 30
0.0
 40
0.3
  0
CIRCLE
  5
397
  8
SIZE
  6
CONTINUOUS
 10
-715.0
 20
408.0
 30
0.0
 40
0.2
  0
CIRCLE
  5
398
  8
SIZE
  6
CONTINUOUS
 10
-715.0
 20
408.0
 30
0.0
 40
0.1
  0
CIRCLE
  5
399
  8
SIZE
  6
CONTINUOUS
 10
-715.0
 20
0.000000000000008
 30
0.0
 40
0.5
  0
CIRCLE
  5
39A
  8
SIZE
  6
CONTINUOUS
 10
-715.0
 20
0.000000000000008
 30
0.0
 40
0.4
  0
CIRCLE
  5
39B
  8
SIZE
  6
CONTINUOUS
 10
-715.0
 20
0.000000000000008
 30
0.0
 40
0.3
  0
CIRCLE
  5
39C
  8
SIZE
  6
CONTINUOUS
 10
-715.0
 20
0.000000000000008
 30
0.0
 40
0.2
  0
CIRCLE
  5
39D
  8
SIZE
  6
CONTINUOUS
 10
-715.0
 20
0.000000000000008
 30
0.0
 40
0.1
  0
POINT
  5
39E
  8
DEFPOINTS
  6
BYBLOCK
 10
-181.5
 20
-0.000000000000057
 30
0.0
  0
POINT
  5
39F
  8
DEFPOINTS
  6
BYBLOCK
 10
-177.0
 20
408.0
 30
0.0
  0
POINT
  5
3A0
  8
DEFPOINTS
  6
BYBLOCK
 10
-715.0
 20
408.0
 30
0.0
  0
ENDBLK
  5
3A1
  8
SIZE
  0
BLOCK
  8
0
  2
_ORIGIN
 70
     0
 10
0.0
 20
0.0
 30
0.0
  3
_ORIGIN
  1

  0
CIRCLE
  5
3A4
  8
0
  6
BYBLOCK
 62
     0
 10
0.0
 20
0.0
 30
0.0
 40
0.5
  0
LINE
  5
3A5
  8
0
  6
BYBLOCK
 62
     0
 10
0.0
 20
0.0
 30
0.0
 11
-1.0
 21
0.0
 31
0.0
  0
ENDBLK
  5
3A6
  8
0
  0
BLOCK
  8
0
  2
*D41
 70
     1
 10
0.0
 20
0.0
 30
0.0
  3
*D41
  1

  0
LINE
  5
3A9
  8
SIZE
 62
     0
 10
-191.5
 20
-0.0000000000000542
 30
0.0
 11
-729.89999997615814
 21
0.0000000000000983
 31
0.0
  0
LINE
  5
3AA
  8
SIZE
 62
     0
 10
-187.0
 20
408.0
 30
0.0
 11
-729.89999997615814
 21
408.0
 31
0.0
  0
LINE
  5
3AB
  8
SIZE
 62
     0
 10
-717.39999997615814
 20
10.000000000000091
 30
0.0
 11
-717.39999997615803
 21
398.00000000000023
 31
0.0
  0
INSERT
  5
3AC
  8
SIZE
 62
     0
  2
_ORIGIN
 10
-717.39999997615814
 20
0.0000000000000948
 30
0.0
 41
10.0
 42
10.0
 43
10.0
 50
270.0
  0
INSERT
  5
3AD
  8
SIZE
 62
     0
  2
_ORIGIN
 10
-717.39999997615803
 20
408.0
 30
0.0
 41
10.0
 42
10.0
 43
10.0
 50
90.0
  0
TEXT
  5
3AE
  8
SIZE
 62
     0
 10
-727.39999997615814
 20
166.4999998776081
 30
0.0
 40
30.0
  1
408
 50
90.0
 72
     1
 11
-727.39999997615814
 21
203.9999998776081
 31
0.0
  0
POINT
  5
3AF
  8
DEFPOINTS
 62
     0
 10
-181.5
 20
-0.000000000000057
 30
0.0
  0
POINT
  5
3B0
  8
DEFPOINTS
 62
     0
 10
-177.0
 20
408.0
 30
0.0
  0
POINT
  5
3B1
  8
DEFPOINTS
 62
     0
 10
-717.39999997615803
 20
408.0
 30
0.0
  0
ENDBLK
  5
3B2
  8
0
  0
BLOCK
  8
0
  2
*D42
 70
     1
 10
0.0
 20
0.0
 30
0.0
  3
*D42
  1

  0
LINE
  5
3B5
  8
SIZE
 62
     0
 10
-187.0
 20
408.0
 30
0.0
 11
-729.89999997615814
 21
408.0
 31
0.0
  0
LINE
  5
3B6
  8
SIZE
 62
     0
 10
-190.0
 20
641.0
 30
0.0
 11
-729.89999997615814
 21
641.00000000000011
 31
0.0
  0
LINE
  5
3B7
  8
SIZE
 62
     0
 10
-717.39999997615803
 20
418.0
 30
0.0
 11
-717.39999997615803
 21
631.00000000000011
 31
0.0
  0
INSERT
  5
3B8
  8
SIZE
 62
     0
  2
_ORIGIN
 10
-717.39999997615803
 20
408.0
 30
0.0
 41
10.0
 42
10.0
 43
10.0
 50
270.0
  0
INSERT
  5
3B9
  8
SIZE
 62
     0
  2
_ORIGIN
 10
-717.39999997615803
 20
641.00000000000011
 30
0.0
 41
10.0
 42
10.0
 43
10.0
 50
90.0
  0
TEXT
  5
3BA
  8
SIZE
 62
     0
 10
-727.39999997615814
 20
484.4999998776081
 30
0.0
 40
30.0
  1
233
 50
90.0
 72
     1
 11
-727.39999997615814
 21
524.49999987760805
 31
0.0
  0
POINT
  5
3BB
  8
DEFPOINTS
 62
     0
 10
-177.0
 20
408.0
 30
0.0
  0
POINT
  5
3BC
  8
DEFPOINTS
 62
     0
 10
-180.0
 20
641.0
 30
0.0
  0
POINT
  5
3BD
  8
DEFPOINTS
 62
     0
 10
-717.39999997615803
 20
641.00000000000011
 30
0.0
  0
ENDBLK
  5
3BE
  8
0
  0
BLOCK
  8
0
  2
*D43
 70
     1
 10
0.0
 20
0.0
 30
0.0
  3
*D43
  1

  0
LINE
  5
3C1
  8
SIZE
 62
     0
 10
-215.0
 20
160.0
 30
0.0
 11
-215.0
 21
514.89999997615803
 31
0.0
  0
LINE
  5
3C2
  8
SIZE
 62
     0
 10
-185.0
 20
610.0
 30
0.0
 11
-185.0
 21
489.89999997615803
 31
0.0
  0
LINE
  5
3C3
  8
SIZE
 62
     0
 10
-175.0
 20
502.39999997615803
 30
0.0
 11
-165.0
 21
502.39999997615803
 31
0.0
  0
LINE
  5
3C4
  8
SIZE
 62
     0
 10
-225.0
 20
502.39999997615803
 30
0.0
 11
-319.14709478775842
 21
502.39999997615803
 31
0.0
  0
LINE
  5
3C5
  8
SIZE
 62
     0
 10
-185.0
 20
502.39999997615803
 30
0.0
 11
-215.0
 21
502.39999997615803
 31
0.0
  0
INSERT
  5
3C6
  8
SIZE
 62
     0
  2
_ORIGIN
 10
-185.0
 20
502.39999997615803
 30
0.0
 41
10.0
 42
10.0
 43
10.0
 50
180.0
  0
INSERT
  5
3C7
  8
SIZE
 62
     0
  2
_ORIGIN
 10
-215.0
 20
502.39999997615803
 30
0.0
 41
10.0
 42
10.0
 43
10.0
  0
TEXT
  5
3C8
  8
SIZE
 62
     0
 10
-309.14709478775842
 20
512.39999997615803
 30
0.0
 40
30.0
  1
30
 72
     1
 11
-286.64709478775842
 21
512.39999997615803
 31
0.0
  0
POINT
  5
3C9
  8
DEFPOINTS
 62
     0
 10
-215.0
 20
150.0
 30
0.0
  0
POINT
  5
3CA
  8
DEFPOINTS
 62
     0
 10
-185.0
 20
620.0
 30
0.0
  0
POINT
  5
3CB
  8
DEFPOINTS
 62
     0
 10
-185.0
 20
502.39999997615803
 30
0.0
  0
ENDBLK
  5
3CC
  8
0
  0
BLOCK
  8
0
  2
*D44
 70
     1
 10
0.0
 20
0.0
 30
0.0
  3
*D44
  1

  0
LINE
  5
3CF
  8
SIZE
 62
     0
 10
-215.0
 20
160.0
 30
0.0
 11
-214.99999999999989
 21
987.89999997615826
 31
0.0
  0
LINE
  5
3D0
  8
SIZE
 62
     0
 10
-188.0
 20
775.0
 30
0.0
 11
-188.0
 21
987.89999997615826
 31
0.0
  0
LINE
  5
3D1
  8
SIZE
 62
     0
 10
-178.0
 20
975.39999997615826
 30
0.0
 11
-168.0
 21
975.39999997615826
 31
0.0
  0
LINE
  5
3D2
  8
SIZE
 62
     0
 10
-225.0
 20
975.39999997615826
 30
0.0
 11
-304.99999999999989
 21
975.39999997615826
 31
0.0
  0
LINE
  5
3D3
  8
SIZE
 62
     0
 10
-188.0
 20
975.39999997615826
 30
0.0
 11
-214.99999999999989
 21
975.39999997615826
 31
0.0
  0
INSERT
  5
3D4
  8
SIZE
 62
     0
  2
_ORIGIN
 10
-188.0
 20
975.39999997615826
 30
0.0
 41
10.0
 42
10.0
 43
10.0
 50
180.0
  0
INSERT
  5
3D5
  8
SIZE
 62
     0
  2
_ORIGIN
 10
-214.99999999999989
 20
975.39999997615826
 30
0.0
 41
10.0
 42
10.0
 43
10.0
  0
TEXT
  5
3D6
  8
SIZE
 62
     0
 10
-294.99999999999989
 20
985.39999997615814
 30
0.0
 40
30.0
  1
27
 72
     1
 11
-269.99999999999989
 21
985.39999997615814
 31
0.0
  0
POINT
  5
3D7
  8
DEFPOINTS
 62
     0
 10
-215.0
 20
150.0
 30
0.0
  0
POINT
  5
3D8
  8
DEFPOINTS
 62
     0
 10
-188.0
 20
765.0
 30
0.0
  0
POINT
  5
3D9
  8
DEFPOINTS
 62
     0
 10
-188.0
 20
975.39999997615826
 30
0.0
  0
ENDBLK
  5
3DA
  8
0
  0
BLOCK
  8
0
  2
*D45
 70
     1
 10
0.0
 20
0.0
 30
0.0
  3
*D45
  1

  0
LINE
  5
3DD
  8
SIZE
 62
     0
 10
-191.5
 20
-0.0000000000000542
 30
0.0
 11
-1029.8999999761579
 21
0.0000000000001833
 31
0.0
  0
LINE
  5
3DE
  8
SIZE
 62
     0
 10
-375.0
 20
1945.0
 30
0.0
 11
-1029.899999976157
 21
1945.0
 31
0.0
  0
LINE
  5
3DF
  8
SIZE
 62
     0
 10
-1017.399999976158
 20
10.000000000000179
 30
0.0
 11
-1017.399999976158
 21
1935.0
 31
0.0
  0
INSERT
  5
3E0
  8
SIZE
 62
     0
  2
_ORIGIN
 10
-1017.399999976158
 20
0.0000000000001798
 30
0.0
 41
10.0
 42
10.0
 43
10.0
 50
270.0
  0
INSERT
  5
3E1
  8
SIZE
 62
     0
  2
_ORIGIN
 10
-1017.399999976158
 20
1945.0
 30
0.0
 41
10.0
 42
10.0
 43
10.0
 50
90.0
  0
TEXT
  5
3E2
  8
SIZE
 62
     0
 10
-1027.3999999761579
 20
922.49999987760805
 30
0.0
 40
30.0
  1
1945
 50
90.0
 72
     1
 11
-1027.3999999761579
 21
972.49999987760805
 31
0.0
  0
POINT
  5
3E3
  8
DEFPOINTS
 62
     0
 10
-181.5
 20
-0.000000000000057
 30
0.0
  0
POINT
  5
3E4
  8
DEFPOINTS
 62
     0
 10
-365.0
 20
1945.0
 30
0.0
  0
POINT
  5
3E5
  8
DEFPOINTS
 62
     0
 10
-1017.399999976158
 20
1945.0
 30
0.0
  0
ENDBLK
  5
3E6
  8
0
  0
BLOCK
  8
0
  2
*D46
 70
     1
 10
0.0
 20
0.0
 30
0.0
  3
*D46
  1

  0
LINE
  5
3E9
  8
SIZE
 62
     0
 10
-191.5
 20
-0.0000000000000542
 30
0.0
 11
-929.89999997615826
 21
0.000000000000155
 31
0.0
  0
LINE
  5
3EA
  8
SIZE
 62
     0
 10
-395.0
 20
1923.0
 30
0.0
 11
-929.89999997615757
 21
1923.0
 31
0.0
  0
LINE
  5
3EB
  8
SIZE
 62
     0
 10
-917.39999997615826
 20
10.000000000000149
 30
0.0
 11
-917.39999997615757
 21
1913.0
 31
0.0
  0
INSERT
  5
3EC
  8
SIZE
 62
     0
  2
_ORIGIN
 10
-917.39999997615826
 20
0.0000000000001515
 30
0.0
 41
10.0
 42
10.0
 43
10.0
 50
270.0
  0
INSERT
  5
3ED
  8
SIZE
 62
     0
  2
_ORIGIN
 10
-917.39999997615757
 20
1923.0
 30
0.0
 41
10.0
 42
10.0
 43
10.0
 50
90.0
  0
TEXT
  5
3EE
  8
SIZE
 62
     0
 10
-927.39999997615826
 20
911.49999987760805
 30
0.0
 40
30.0
  1
1923
 50
90.0
 72
     1
 11
-927.39999997615826
 21
961.49999987760805
 31
0.0
  0
POINT
  5
3EF
  8
DEFPOINTS
 62
     0
 10
-181.5
 20
-0.000000000000057
 30
0.0
  0
POINT
  5
3F0
  8
DEFPOINTS
 62
     0
 10
-385.0
 20
1923.0
 30
0.0
  0
POINT
  5
3F1
  8
DEFPOINTS
 62
     0
 10
-917.39999997615757
 20
1923.0
 30
0.0
  0
ENDBLK
  5
3F2
  8
0
  0
BLOCK
  8
0
  2
*D47
 70
     1
 10
0.0
 20
0.0
 30
0.0
  3
*D47
  1

  0
LINE
  5
3F5
  8
SIZE
 62
     0
 10
-190.0
 20
641.0
 30
0.0
 11
-729.89999997615814
 21
641.00000000000011
 31
0.0
  0
LINE
  5
3F6
  8
SIZE
 62
     0
 10
-190.0
 20
773.0
 30
0.0
 11
-729.89999997615769
 21
773.00000000000011
 31
0.0
  0
LINE
  5
3F7
  8
SIZE
 62
     0
 10
-717.39999997615803
 20
651.00000000000011
 30
0.0
 11
-717.39999997615803
 21
763.00000000000011
 31
0.0
  0
INSERT
  5
3F8
  8
SIZE
 62
     0
  2
_ORIGIN
 10
-717.39999997615803
 20
641.00000000000011
 30
0.0
 41
10.0
 42
10.0
 43
10.0
 50
270.0
  0
INSERT
  5
3F9
  8
SIZE
 62
     0
  2
_ORIGIN
 10
-717.39999997615769
 20
773.00000000000011
 30
0.0
 41
10.0
 42
10.0
 43
10.0
 50
90.0
  0
TEXT
  5
3FA
  8
SIZE
 62
     0
 10
-727.39999997615814
 20
671.99999987760805
 30
0.0
 40
30.0
  1
132
 50
90.0
 72
     1
 11
-727.39999997615814
 21
706.99999987760805
 31
0.0
  0
POINT
  5
3FB
  8
DEFPOINTS
 62
     0
 10
-180.0
 20
641.0
 30
0.0
  0
POINT
  5
3FC
  8
DEFPOINTS
 62
     0
 10
-180.0
 20
773.0
 30
0.0
  0
POINT
  5
3FD
  8
DEFPOINTS
 62
     0
 10
-717.39999997615769
 20
773.00000000000011
 30
0.0
  0
ENDBLK
  5
3FE
  8
0
  0
BLOCK
  8
0
  2
*D48
 70
     1
 10
0.0
 20
0.0
 30
0.0
  3
*D48
  1

  0
LINE
  5
401
  8
SIZE
 62
     0
 10
-93.0
 20
775.0
 30
0.0
 11
-92.999999999999986
 21
987.89999997615826
 31
0.0
  0
LINE
  5
402
  8
SIZE
 62
     0
 10
-188.0
 20
775.0
 30
0.0
 11
-188.0
 21
987.89999997615826
 31
0.0
  0
LINE
  5
403
  8
SIZE
 62
     0
 10
-103.0
 20
975.39999997615826
 30
0.0
 11
-178.0
 21
975.39999997615826
 31
0.0
  0
INSERT
  5
404
  8
SIZE
 62
     0
  2
_ORIGIN
 10
-92.999999999999986
 20
975.39999997615826
 30
0.0
 41
10.0
 42
10.0
 43
10.0
  0
INSERT
  5
405
  8
SIZE
 62
     0
  2
_ORIGIN
 10
-188.0
 20
975.39999997615826
 30
0.0
 41
10.0
 42
10.0
 43
10.0
 50
180.0
  0
TEXT
  5
406
  8
SIZE
 62
     0
 10
-165.50000006119581
 20
985.39999997615814
 30
0.0
 40
30.0
  1
95
 72
     1
 11
-140.50000006119581
 21
985.39999997615814
 31
0.0
  0
POINT
  5
407
  8
DEFPOINTS
 62
     0
 10
-93.0
 20
765.0
 30
0.0
  0
POINT
  5
408
  8
DEFPOINTS
 62
     0
 10
-188.0
 20
765.0
 30
0.0
  0
POINT
  5
409
  8
DEFPOINTS
 62
     0
 10
-188.0
 20
975.39999997615826
 30
0.0
  0
ENDBLK
  5
40A
  8
0
  0
BLOCK
  8
0
  2
*D49
 70
     1
 10
0.0
 20
0.0
 30
0.0
  3
*D49
  1

  0
LINE
  5
40D
  8
SIZE
 62
     0
 10
47.0
 20
1739.0
 30
0.0
 11
875.10000002384174
 21
1739.0
 31
0.0
  0
LINE
  5
40E
  8
SIZE
 62
     0
 10
10.000000000000011
 20
1857.0
 30
0.0
 11
875.10000002384174
 21
1857.0
 31
0.0
  0
LINE
  5
40F
  8
SIZE
 62
     0
 10
862.60000002384174
 20
1749.0
 30
0.0
 11
862.60000002384174
 21
1847.0
 31
0.0
  0
INSERT
  5
410
  8
SIZE
 62
     0
  2
_ORIGIN
 10
862.60000002384174
 20
1739.0
 30
0.0
 41
10.0
 42
10.0
 43
10.0
 50
270.0
  0
INSERT
  5
411
  8
SIZE
 62
     0
  2
_ORIGIN
 10
862.60000002384174
 20
1857.0
 30
0.0
 41
10.0
 42
10.0
 43
10.0
 50
90.0
  0
TEXT
  5
412
  8
SIZE
 62
     0
 10
852.60000002384152
 20
1767.9999998776079
 30
0.0
 40
30.0
  1
118
 50
90.0
 72
     1
 11
852.60000002384152
 21
1797.9999998776079
 31
0.0
  0
POINT
  5
413
  8
DEFPOINTS
 62
     0
 10
37.0
 20
1739.0
 30
0.0
  0
POINT
  5
414
  8
DEFPOINTS
 62
     0
 10
0.000000000000011
 20
1857.0
 30
0.0
  0
POINT
  5
415
  8
DEFPOINTS
 62
     0
 10
862.60000002384174
 20
1857.0
 30
0.0
  0
ENDBLK
  5
416
  8
0
  0
BLOCK
  8
0
  2
*D50
 70
     1
 10
0.0
 20
0.0
 30
0.0
  3
*D50
  1

  0
LINE
  5
419
  8
SIZE
 62
     0
 10
525.0
 20
-0.0000000000000028
 30
0.0
 11
875.10000002384174
 21
-0.000000000000102
 31
0.0
  0
LINE
  5
41A
  8
SIZE
 62
     0
 10
47.0
 20
1739.0
 30
0.0
 11
875.10000002384174
 21
1739.0
 31
0.0
  0
LINE
  5
41B
  8
SIZE
 62
     0
 10
862.60000002384174
 20
9.9999999999999005
 30
0.0
 11
862.60000002384174
 21
1729.0
 31
0.0
  0
INSERT
  5
41C
  8
SIZE
 62
     0
  2
_ORIGIN
 10
862.60000002384174
 20
-0.0000000000000985
 30
0.0
 41
10.0
 42
10.0
 43
10.0
 50
270.0
  0
INSERT
  5
41D
  8
SIZE
 62
     0
  2
_ORIGIN
 10
862.60000002384174
 20
1739.0
 30
0.0
 41
10.0
 42
10.0
 43
10.0
 50
90.0
  0
TEXT
  5
41E
  8
SIZE
 62
     0
 10
852.60000002384152
 20
819.49999987760793
 30
0.0
 40
30.0
  1
1739
 50
90.0
 72
     1
 11
852.60000002384152
 21
869.49999987760805
 31
0.0
  0
POINT
  5
41F
  8
DEFPOINTS
 62
     0
 10
515.0
 20
0.0
 30
0.0
  0
POINT
  5
420
  8
DEFPOINTS
 62
     0
 10
37.0
 20
1739.0
 30
0.0
  0
POINT
  5
421
  8
DEFPOINTS
 62
     0
 10
862.60000002384174
 20
1739.0
 30
0.0
  0
ENDBLK
  5
422
  8
0
  0
BLOCK
  8
0
  2
*D51
 70
     1
 10
0.0
 20
0.0
 30
0.0
  3
*D51
  1

  0
LINE
  5
425
  8
SIZE
 62
     0
 10
-215.0
 20
1890.0
 30
0.0
 11
-215.0
 21
1578.8999999761579
 31
0.0
  0
LINE
  5
426
  8
SIZE
 62
     0
 10
-42.0
 20
1735.0
 30
0.0
 11
-42.000000000000007
 21
1578.8999999761579
 31
0.0
  0
LINE
  5
427
  8
SIZE
 62
     0
 10
-205.0
 20
1591.3999999761579
 30
0.0
 11
-52.000000000000007
 21
1591.3999999761579
 31
0.0
  0
INSERT
  5
428
  8
SIZE
 62
     0
  2
_ORIGIN
 10
-215.0
 20
1591.3999999761579
 30
0.0
 41
10.0
 42
10.0
 43
10.0
 50
180.0
  0
INSERT
  5
429
  8
SIZE
 62
     0
  2
_ORIGIN
 10
-42.000000000000007
 20
1591.3999999761579
 30
0.0
 41
10.0
 42
10.0
 43
10.0
  0
TEXT
  5
42A
  8
SIZE
 62
     0
 10
-163.50000006119581
 20
1601.3999999761579
 30
0.0
 40
30.0
  1
173
 72
     1
 11
-128.50000006119581
 21
1601.3999999761579
 31
0.0
  0
POINT
  5
42B
  8
DEFPOINTS
 62
     0
 10
-215.0
 20
1900.0
 30
0.0
  0
POINT
  5
42C
  8
DEFPOINTS
 62
     0
 10
-42.0
 20
1745.0
 30
0.0
  0
POINT
  5
42D
  8
DEFPOINTS
 62
     0
 10
-42.000000000000007
 20
1591.3999999761579
 30
0.0
  0
ENDBLK
  5
42E
  8
0
  0
BLOCK
  8
0
  2
*D52
 70
     1
 10
0.0
 20
0.0
 30
0.0
  3
*D52
  1

  0
LINE
  5
431
  8
SIZE
 62
     0
 10
42.0
 20
1735.0
 30
0.0
 11
41.999999999999993
 21
1578.8999999761579
 31
0.0
  0
LINE
  5
432
  8
SIZE
 62
     0
 10
-42.0
 20
1735.0
 30
0.0
 11
-42.000000000000007
 21
1578.8999999761579
 31
0.0
  0
LINE
  5
433
  8
SIZE
 62
     0
 10
31.999999999999989
 20
1591.3999999761579
 30
0.0
 11
-32.000000000000007
 21
1591.3999999761579
 31
0.0
  0
INSERT
  5
434
  8
SIZE
 62
     0
  2
_ORIGIN
 10
41.999999999999993
 20
1591.3999999761579
 30
0.0
 41
10.0
 42
10.0
 43
10.0
  0
INSERT
  5
435
  8
SIZE
 62
     0
  2
_ORIGIN
 10
-42.000000000000007
 20
1591.3999999761579
 30
0.0
 41
10.0
 42
10.0
 43
10.0
 50
180.0
  0
TEXT
  5
436
  8
SIZE
 62
     0
 10
-25.00000010490734
 20
1601.3999999761579
 30
0.0
 40
30.0
  1
84
 72
     1
 11
-0.0000001049073326
 21
1601.3999999761579
 31
0.0
  0
POINT
  5
437
  8
DEFPOINTS
 62
     0
 10
42.0
 20
1745.0
 30
0.0
  0
POINT
  5
438
  8
DEFPOINTS
 62
     0
 10
-42.0
 20
1745.0
 30
0.0
  0
POINT
  5
439
  8
DEFPOINTS
 62
     0
 10
-42.000000000000007
 20
1591.3999999761579
 30
0.0
  0
ENDBLK
  5
43A
  8
0
  0
BLOCK
  8
0
  2
*D53
 70
     1
 10
0.0
 20
0.0
 30
0.0
  3
*D53
  1

  0
LINE
  5
43D
  8
SIZE
 62
     0
 10
-225.0
 20
350.0
 30
0.0
 11
-629.89999997615803
 21
350.0
 31
0.0
  0
LINE
  5
43E
  8
SIZE
 62
     0
 10
-191.5
 20
-0.0000000000000542
 30
0.0
 11
-629.89999997615814
 21
0.00000000000007
 31
0.0
  0
LINE
  5
43F
  8
SIZE
 62
     0
 10
-617.39999997615803
 20
340.00000000000011
 30
0.0
 11
-617.39999997615814
 21
10.00000000000006
 31
0.0
  0
INSERT
  5
440
  8
SIZE
 62
     0
  2
_ORIGIN
 10
-617.39999997615803
 20
350.0
 30
0.0
 41
10.0
 42
10.0
 43
10.0
 50
90.0
  0
INSERT
  5
441
  8
SIZE
 62
     0
  2
_ORIGIN
 10
-617.39999997615814
 20
0.0000000000000665
 30
0.0
 41
10.0
 42
10.0
 43
10.0
 50
270.0
  0
TEXT
  5
442
  8
SIZE
 62
     0
 10
-627.39999997615814
 20
137.4999998776081
 30
0.0
 40
30.0
  1
350
 50
90.0
 72
     1
 11
-627.39999997615814
 21
174.9999998776081
 31
0.0
  0
POINT
  5
443
  8
DEFPOINTS
 62
     0
 10
-215.0
 20
350.0
 30
0.0
  0
POINT
  5
444
  8
DEFPOINTS
 62
     0
 10
-181.5
 20
-0.000000000000057
 30
0.0
  0
POINT
  5
445
  8
DEFPOINTS
 62
     0
 10
-617.39999997615814
 20
0.0000000000000665
 30
0.0
  0
ENDBLK
  5
446
  8
0
  0
BLOCK
  8
0
  2
*D54
 70
     1
 10
0.0
 20
0.0
 30
0.0
  3
*D54
  1

  0
LINE
  5
449
  8
SIZE
 62
     0
 10
525.0
 20
-0.0000000000000028
 30
0.0
 11
975.1000000238414
 21
-0.0000000000001303
 31
0.0
  0
LINE
  5
44A
  8
SIZE
 62
     0
 10
525.0
 20
2100.0
 30
0.0
 11
975.10000002384174
 21
2100.0
 31
0.0
  0
LINE
  5
44B
  8
SIZE
 62
     0
 10
962.6000000238414
 20
9.9999999999998739
 30
0.0
 11
962.60000002384174
 21
2090.0
 31
0.0
  0
INSERT
  5
44C
  8
SIZE
 62
     0
  2
_ORIGIN
 10
962.6000000238414
 20
-0.0000000000001268
 30
0.0
 41
10.0
 42
10.0
 43
10.0
 50
270.0
  0
INSERT
  5
44D
  8
SIZE
 62
     0
  2
_ORIGIN
 10
962.60000002384174
 20
2100.0
 30
0.0
 41
10.0
 42
10.0
 43
10.0
 50
90.0
  0
TEXT
  5
44E
  8
SIZE
 62
     0
 10
952.60000002384152
 20
1004.999999877608
 30
0.0
 40
30.0
  1
2100
 50
90.0
 72
     1
 11
952.60000002384152
 21
1049.9999998776079
 31
0.0
  0
POINT
  5
44F
  8
DEFPOINTS
 62
     0
 10
515.0
 20
0.0
 30
0.0
  0
POINT
  5
450
  8
DEFPOINTS
 62
     0
 10
515.0
 20
2100.0
 30
0.0
  0
POINT
  5
451
  8
DEFPOINTS
 62
     0
 10
962.60000002384174
 20
2100.0
 30
0.0
  0
ENDBLK
  5
452
  8
0
  0
BLOCK
  8
0
  2
*D55
 70
     1
 10
0.0
 20
0.0
 30
0.0
  3
*D55
  1

  0
LINE
  5
455
  8
SIZE
 62
     0
 10
225.0
 20
150.0
 30
0.0
 11
475.10000002384191
 21
149.9999999999998
 31
0.0
  0
LINE
  5
456
  8
SIZE
 62
     0
 10
191.5
 20
-0.0000000000000028
 30
0.0
 11
475.1000000238418
 21
-0.0000000000000832
 31
0.0
  0
LINE
  5
457
  8
SIZE
 62
     0
 10
462.6000000238418
 20
139.9999999999998
 30
0.0
 11
462.6000000238418
 21
9.9999999999999201
 31
0.0
  0
INSERT
  5
458
  8
SIZE
 62
     0
  2
_ORIGIN
 10
462.6000000238418
 20
149.9999999999998
 30
0.0
 41
10.0
 42
10.0
 43
10.0
 50
90.0
  0
INSERT
  5
459
  8
SIZE
 62
     0
  2
_ORIGIN
 10
462.6000000238418
 20
-0.0000000000000796
 30
0.0
 41
10.0
 42
10.0
 43
10.0
 50
270.0
  0
TEXT
  5
45A
  8
SIZE
 62
     0
 10
452.60000002384169
 20
42.49999987760809
 30
0.0
 40
30.0
  1
150
 50
90.0
 72
     1
 11
452.60000002384169
 21
74.99999987760809
 31
0.0
  0
POINT
  5
45B
  8
DEFPOINTS
 62
     0
 10
215.0
 20
150.0
 30
0.0
  0
POINT
  5
45C
  8
DEFPOINTS
 62
     0
 10
181.5
 20
0.0
 30
0.0
  0
POINT
  5
45D
  8
DEFPOINTS
 62
     0
 10
462.6000000238418
 20
-0.0000000000000796
 30
0.0
  0
ENDBLK
  5
45E
  8
0
  0
BLOCK
  8
0
  2
*D56
 70
     1
 10
0.0
 20
0.0
 30
0.0
  3
*D56
  1

  0
LINE
  5
461
  8
SIZE
 62
     0
 10
-191.5
 20
-0.0000000000000542
 30
0.0
 11
-829.89999997615826
 21
0.0000000000001267
 31
0.0
  0
LINE
  5
462
  8
SIZE
 62
     0
 10
-225.0
 20
1900.0
 30
0.0
 11
-829.89999997615757
 21
1900.0
 31
0.0
  0
LINE
  5
463
  8
SIZE
 62
     0
 10
-817.39999997615826
 20
10.000000000000121
 30
0.0
 11
-817.39999997615757
 21
1890.0
 31
0.0
  0
INSERT
  5
464
  8
SIZE
 62
     0
  2
_ORIGIN
 10
-817.39999997615826
 20
0.0000000000001231
 30
0.0
 41
10.0
 42
10.0
 43
10.0
 50
270.0
  0
INSERT
  5
465
  8
SIZE
 62
     0
  2
_ORIGIN
 10
-817.39999997615757
 20
1900.0
 30
0.0
 41
10.0
 42
10.0
 43
10.0
 50
90.0
  0
TEXT
  5
466
  8
SIZE
 62
     0
 10
-827.39999997615814
 20
904.99999987760805
 30
0.0
 40
30.0
  1
1900
 50
90.0
 72
     1
 11
-827.39999997615814
 21
949.99999987760805
 31
0.0
  0
POINT
  5
467
  8
DEFPOINTS
 62
     0
 10
-181.5
 20
-0.000000000000057
 30
0.0
  0
POINT
  5
468
  8
DEFPOINTS
 62
     0
 10
-215.0
 20
1900.0
 30
0.0
  0
POINT
  5
469
  8
DEFPOINTS
 62
     0
 10
-817.39999997615757
 20
1900.0
 30
0.0
  0
ENDBLK
  5
46A
  8
0
  0
BLOCK
  8
0
  2
*D57
 70
     1
 10
0.0
 20
0.0
 30
0.0
  3
*D57
  1

  0
LINE
  5
46D
  8
SIZE
 62
     0
 10
-225.0
 20
1900.0
 30
0.0
 11
-829.89999997615757
 21
1900.0
 31
0.0
  0
LINE
  5
46E
  8
SIZE
 62
     0
 10
-225.0
 20
2100.0
 30
0.0
 11
-829.89999997615757
 21
2100.0
 31
0.0
  0
LINE
  5
46F
  8
SIZE
 62
     0
 10
-817.39999997615757
 20
1910.0
 30
0.0
 11
-817.39999997615757
 21
2090.0
 31
0.0
  0
INSERT
  5
470
  8
SIZE
 62
     0
  2
_ORIGIN
 10
-817.39999997615757
 20
1900.0
 30
0.0
 41
10.0
 42
10.0
 43
10.0
 50
270.0
  0
INSERT
  5
471
  8
SIZE
 62
     0
  2
_ORIGIN
 10
-817.39999997615757
 20
2100.0
 30
0.0
 41
10.0
 42
10.0
 43
10.0
 50
90.0
  0
TEXT
  5
472
  8
SIZE
 62
     0
 10
-827.39999997615814
 20
1964.9999998776079
 30
0.0
 40
30.0
  1
200
 50
90.0
 72
     1
 11
-827.39999997615814
 21
1999.9999998776079
 31
0.0
  0
POINT
  5
473
  8
DEFPOINTS
 62
     0
 10
-215.0
 20
1900.0
 30
0.0
  0
POINT
  5
474
  8
DEFPOINTS
 62
     0
 10
-215.0
 20
2100.0
 30
0.0
  0
POINT
  5
475
  8
DEFPOINTS
 62
     0
 10
-817.39999997615757
 20
2100.0
 30
0.0
  0
ENDBLK
  5
476
  8
0
  0
BLOCK
  8
0
  2
*D58
 70
     1
 10
0.0
 20
0.0
 30
0.0
  3
*D58
  1

  0
LINE
  5
479
  8
SIZE
 62
     0
 10
215.0
 20
2110.0
 30
0.0
 11
215.0
 21
2264.8999999761581
 31
0.0
  0
LINE
  5
47A
  8
SIZE
 62
     0
 10
-215.0
 20
2110.0
 30
0.0
 11
-215.0
 21
2264.8999999761581
 31
0.0
  0
LINE
  5
47B
  8
SIZE
 62
     0
 10
205.0
 20
2252.3999999761581
 30
0.0
 11
-205.0
 21
2252.3999999761581
 31
0.0
  0
INSERT
  5
47C
  8
SIZE
 62
     0
  2
_ORIGIN
 10
215.0
 20
2252.3999999761581
 30
0.0
 41
10.0
 42
10.0
 43
10.0
  0
INSERT
  5
47D
  8
SIZE
 62
     0
  2
_ORIGIN
 10
-215.0
 20
2252.3999999761581
 30
0.0
 41
10.0
 42
10.0
 43
10.0
 50
180.0
  0
TEXT
  5
47E
  8
SIZE
 62
     0
 10
-37.500000104907301
 20
2262.3999999761591
 30
0.0
 40
30.0
  1
430
 72
     1
 11
-0.0000001049073006
 21
2262.3999999761591
 31
0.0
  0
POINT
  5
47F
  8
DEFPOINTS
 62
     0
 10
215.0
 20
2100.0
 30
0.0
  0
POINT
  5
480
  8
DEFPOINTS
 62
     0
 10
-215.0
 20
2100.0
 30
0.0
  0
POINT
  5
481
  8
DEFPOINTS
 62
     0
 10
-215.0
 20
2252.3999999761581
 30
0.0
  0
ENDBLK
  5
482
  8
0
  0
BLOCK
  8
0
  2
*D59
 70
     1
 10
0.0
 20
0.0
 30
0.0
  3
*D59
  1

  0
LINE
  5
485
  8
SIZE
 62
     0
 10
-187.0
 20
408.0
 30
0.0
 11
-629.89999997615803
 21
408.0
 31
0.0
  0
LINE
  5
486
  8
SIZE
 62
     0
 10
-187.0
 20
628.0
 30
0.0
 11
-629.89999997615803
 21
628.00000000000011
 31
0.0
  0
LINE
  5
487
  8
SIZE
 62
     0
 10
-617.39999997615803
 20
418.0
 30
0.0
 11
-617.39999997615803
 21
618.00000000000011
 31
0.0
  0
INSERT
  5
488
  8
SIZE
 62
     0
  2
_ORIGIN
 10
-617.39999997615803
 20
408.0
 30
0.0
 41
10.0
 42
10.0
 43
10.0
 50
270.0
  0
INSERT
  5
489
  8
SIZE
 62
     0
  2
_ORIGIN
 10
-617.39999997615803
 20
628.00000000000011
 30
0.0
 41
10.0
 42
10.0
 43
10.0
 50
90.0
  0
TEXT
  5
48A
  8
SIZE
 62
     0
 10
-627.39999997615814
 20
480.49999987760799
 30
0.0
 40
30.0
  1
220
 50
90.0
 72
     1
 11
-627.39999997615814
 21
517.99999987760805
 31
0.0
  0
POINT
  5
48B
  8
DEFPOINTS
 62
     0
 10
-177.0
 20
408.0
 30
0.0
  0
POINT
  5
48C
  8
DEFPOINTS
 62
     0
 10
-177.0
 20
628.0
 30
0.0
  0
POINT
  5
48D
  8
DEFPOINTS
 62
     0
 10
-617.39999997615803
 20
628.00000000000011
 30
0.0
  0
ENDBLK
  5
48E
  8
0
  0
BLOCK
  8
0
  2
*D60
 70
     1
 10
0.0
 20
0.0
 30
0.0
  3
*D60
  1

  0
LINE
  5
491
  8
SIZE
 62
     0
 10
-185.0
 20
426.0
 30
0.0
 11
-185.0
 21
514.89999997615803
 31
0.0
  0
LINE
  5
492
  8
SIZE
 62
     0
 10
-14.0
 20
426.0
 30
0.0
 11
-13.999999999999989
 21
514.89999997615803
 31
0.0
  0
LINE
  5
493
  8
SIZE
 62
     0
 10
-175.0
 20
502.39999997615803
 30
0.0
 11
-23.999999999999989
 21
502.39999997615803
 31
0.0
  0
INSERT
  5
494
  8
SIZE
 62
     0
  2
_ORIGIN
 10
-185.0
 20
502.39999997615803
 30
0.0
 41
10.0
 42
10.0
 43
10.0
 50
180.0
  0
INSERT
  5
495
  8
SIZE
 62
     0
  2
_ORIGIN
 10
-13.999999999999989
 20
502.39999997615803
 30
0.0
 41
10.0
 42
10.0
 43
10.0
  0
TEXT
  5
496
  8
SIZE
 62
     0
 10
-129.50000006119589
 20
512.39999997615803
 30
0.0
 40
30.0
  1
171
 72
     1
 11
-99.500000061195934
 21
512.39999997615803
 31
0.0
  0
POINT
  5
497
  8
DEFPOINTS
 62
     0
 10
-185.0
 20
416.0
 30
0.0
  0
POINT
  5
498
  8
DEFPOINTS
 62
     0
 10
-14.0
 20
416.0
 30
0.0
  0
POINT
  5
499
  8
DEFPOINTS
 62
     0
 10
-13.999999999999989
 20
502.39999997615803
 30
0.0
  0
ENDBLK
  5
49A
  8
0
  0
BLOCK
  8
0
  2
*D61
 70
     1
 10
0.0
 20
0.0
 30
0.0
  3
*D61
  1

  0
LINE
  5
49D
  8
SIZE
 62
     0
 10
97.0
 20
110.0
 30
0.0
 11
375.1000000238418
 21
109.9999999999999
 31
0.0
  0
LINE
  5
49E
  8
SIZE
 62
     0
 10
225.0
 20
-0.0000000000000028
 30
0.0
 11
375.1000000238418
 21
-0.0000000000000454
 31
0.0
  0
LINE
  5
49F
  8
SIZE
 62
     0
 10
362.6000000238418
 20
99.999999999999915
 30
0.0
 11
362.6000000238418
 21
9.9999999999999591
 31
0.0
  0
INSERT
  5
4A0
  8
SIZE
 62
     0
  2
_ORIGIN
 10
362.6000000238418
 20
109.9999999999999
 30
0.0
 41
10.0
 42
10.0
 43
10.0
 50
90.0
  0
INSERT
  5
4A1
  8
SIZE
 62
     0
  2
_ORIGIN
 10
362.6000000238418
 20
-0.0000000000000418
 30
0.0
 41
10.0
 42
10.0
 43
10.0
 50
270.0
  0
TEXT
  5
4A2
  8
SIZE
 62
     0
 10
352.6000000238418
 20
27.499999877608111
 30
0.0
 40
30.0
  1
110
 50
90.0
 72
     1
 11
352.6000000238418
 21
54.999999877608111
 31
0.0
  0
POINT
  5
4A3
  8
DEFPOINTS
 62
     0
 10
87.0
 20
110.0
 30
0.0
  0
POINT
  5
4A4
  8
DEFPOINTS
 62
     0
 10
215.0
 20
0.0
 30
0.0
  0
POINT
  5
4A5
  8
DEFPOINTS
 62
     0
 10
362.6000000238418
 20
-0.0000000000000418
 30
0.0
  0
ENDBLK
  5
4A6
  8
0
  0
BLOCK
  8
0
  2
*D62
 70
     1
 10
0.0
 20
0.0
 30
0.0
  3
*D62
  1

  0
LINE
  5
4A9
  8
SIZE
 62
     0
 10
-191.5
 20
-0.0000000000000542
 30
0.0
 11
-329.8999999761582
 21
-0.000000000000015
 31
0.0
  0
LINE
  5
4AA
  8
SIZE
 62
     0
 10
-140.0
 20
122.0
 30
0.0
 11
-329.8999999761582
 21
122.0
 31
0.0
  0
LINE
  5
4AB
  8
SIZE
 62
     0
 10
-317.3999999761582
 20
9.9999999999999822
 30
0.0
 11
-317.3999999761582
 21
112.0
 31
0.0
  0
INSERT
  5
4AC
  8
SIZE
 62
     0
  2
_ORIGIN
 10
-317.3999999761582
 20
-0.0000000000000185
 30
0.0
 41
10.0
 42
10.0
 43
10.0
 50
270.0
  0
INSERT
  5
4AD
  8
SIZE
 62
     0
  2
_ORIGIN
 10
-317.3999999761582
 20
122.0
 30
0.0
 41
10.0
 42
10.0
 43
10.0
 50
90.0
  0
TEXT
  5
4AE
  8
SIZE
 62
     0
 10
-327.3999999761582
 20
25.999999877608111
 30
0.0
 40
30.0
  1
122
 50
90.0
 72
     1
 11
-327.3999999761582
 21
60.999999877608111
 31
0.0
  0
POINT
  5
4AF
  8
DEFPOINTS
 62
     0
 10
-181.5
 20
-0.000000000000057
 30
0.0
  0
POINT
  5
4B0
  8
DEFPOINTS
 62
     0
 10
-130.0
 20
122.0
 30
0.0
  0
POINT
  5
4B1
  8
DEFPOINTS
 62
     0
 10
-317.3999999761582
 20
122.0
 30
0.0
  0
ENDBLK
  5
4B2
  8
0
  0
BLOCK
  8
0
  2
*D63
 70
     1
 10
0.0
 20
0.0
 30
0.0
  3
*D63
  1

  0
LINE
  5
4B5
  8
SIZE
 62
     0
 10
215.0
 20
-10.0
 30
0.0
 11
214.99999999999989
 21
-1060.1000000238421
 31
0.0
  0
LINE
  5
4B6
  8
SIZE
 62
     0
 10
145.0
 20
-30.0
 30
0.0
 11
144.9999999999998
 21
-1060.1000000238421
 31
0.0
  0
LINE
  5
4B7
  8
SIZE
 62
     0
 10
204.99999999999989
 20
-1047.6000000238421
 30
0.0
 11
154.9999999999998
 21
-1047.6000000238421
 31
0.0
  0
INSERT
  5
4B8
  8
SIZE
 62
     0
  2
_ORIGIN
 10
214.99999999999989
 20
-1047.6000000238421
 30
0.0
 41
10.0
 42
10.0
 43
10.0
  0
INSERT
  5
4B9
  8
SIZE
 62
     0
  2
_ORIGIN
 10
144.9999999999998
 20
-1047.6000000238421
 30
0.0
 41
10.0
 42
10.0
 43
10.0
 50
180.0
  0
TEXT
  5
4BA
  8
SIZE
 62
     0
 10
157.49999993880391
 20
-1037.6000000238409
 30
0.0
 40
30.0
  1
70
 72
     1
 11
179.999999938804
 21
-1037.6000000238409
 31
0.0
  0
POINT
  5
4BB
  8
DEFPOINTS
 62
     0
 10
215.0
 20
0.0
 30
0.0
  0
POINT
  5
4BC
  8
DEFPOINTS
 62
     0
 10
145.0
 20
-20.0
 30
0.0
  0
POINT
  5
4BD
  8
DEFPOINTS
 62
     0
 10
144.9999999999998
 20
-1047.6000000238421
 30
0.0
  0
ENDBLK
  5
4BE
  8
0
  0
BLOCK
  8
0
  2
*D64
 70
     1
 10
0.0
 20
0.0
 30
0.0
  3
*D64
  1

  0
LINE
  5
4C1
  8
SIZE
 62
     0
 10
-215.0
 20
140.0
 30
0.0
 11
-215.00000000000011
 21
-1160.1000000238421
 31
0.0
  0
LINE
  5
4C2
  8
SIZE
 62
     0
 10
215.0
 20
-10.0
 30
0.0
 11
214.99999999999989
 21
-1160.1000000238421
 31
0.0
  0
LINE
  5
4C3
  8
SIZE
 62
     0
 10
-205.00000000000011
 20
-1147.6000000238421
 30
0.0
 11
204.99999999999989
 21
-1147.6000000238421
 31
0.0
  0
INSERT
  5
4C4
  8
SIZE
 62
     0
  2
_ORIGIN
 10
-215.00000000000011
 20
-1147.6000000238421
 30
0.0
 41
10.0
 42
10.0
 43
10.0
 50
180.0
  0
INSERT
  5
4C5
  8
SIZE
 62
     0
  2
_ORIGIN
 10
214.99999999999989
 20
-1147.6000000238421
 30
0.0
 41
10.0
 42
10.0
 43
10.0
  0
TEXT
  5
4C6
  8
SIZE
 62
     0
 10
-37.500000104907251
 20
-1137.6000000238421
 30
0.0
 40
30.0
  1
430
 72
     1
 11
-0.0000001049072438
 21
-1137.6000000238421
 31
0.0
  0
POINT
  5
4C7
  8
DEFPOINTS
 62
     0
 10
-215.0
 20
150.0
 30
0.0
  0
POINT
  5
4C8
  8
DEFPOINTS
 62
     0
 10
215.0
 20
0.0
 30
0.0
  0
POINT
  5
4C9
  8
DEFPOINTS
 62
     0
 10
214.99999999999989
 20
-1147.6000000238421
 30
0.0
  0
ENDBLK
  5
4CA
  8
0
  0
BLOCK
  8
0
  2
*D65
 70
     1
 10
0.0
 20
0.0
 30
0.0
  3
*D65
  1

  0
LINE
  5
4CD
  8
SIZE
 62
     0
 10
145.0
 20
-30.0
 30
0.0
 11
144.9999999999998
 21
-1060.1000000238421
 31
0.0
  0
LINE
  5
4CE
  8
SIZE
 62
     0
 10
-145.0
 20
-30.0
 30
0.0
 11
-145.0
 21
-1060.1000000238421
 31
0.0
  0
LINE
  5
4CF
  8
SIZE
 62
     0
 10
134.9999999999998
 20
-1047.6000000238421
 30
0.0
 11
-135.0
 21
-1047.6000000238421
 31
0.0
  0
INSERT
  5
4D0
  8
SIZE
 62
     0
  2
_ORIGIN
 10
144.9999999999998
 20
-1047.6000000238421
 30
0.0
 41
10.0
 42
10.0
 43
10.0
  0
INSERT
  5
4D1
  8
SIZE
 62
     0
  2
_ORIGIN
 10
-145.0
 20
-1047.6000000238421
 30
0.0
 41
10.0
 42
10.0
 43
10.0
 50
180.0
  0
TEXT
  5
4D2
  8
SIZE
 62
     0
 10
-37.500000104907222
 20
-1037.6000000238409
 30
0.0
 40
30.0
  1
290
 72
     1
 11
-0.0000001049072154
 21
-1037.6000000238409
 31
0.0
  0
POINT
  5
4D3
  8
DEFPOINTS
 62
     0
 10
145.0
 20
-20.0
 30
0.0
  0
POINT
  5
4D4
  8
DEFPOINTS
 62
     0
 10
-145.0
 20
-20.0
 30
0.0
  0
POINT
  5
4D5
  8
DEFPOINTS
 62
     0
 10
-145.0
 20
-1047.6000000238421
 30
0.0
  0
ENDBLK
  5
4D6
  8
0
  0
BLOCK
  8
0
  2
*D66
 70
     1
 10
0.0
 20
0.0
 30
0.0
  3
*D66
  1

  0
LINE
  5
4D9
  8
SIZE
 62
     0
 10
-215.0
 20
2110.0
 30
0.0
 11
-215.0
 21
2264.8204101324081
 31
0.0
  0
LINE
  5
4DA
  8
SIZE
 62
     0
 10
-365.0
 20
1955.0
 30
0.0
 11
-365.0
 21
2264.8204101324081
 31
0.0
  0
LINE
  5
4DB
  8
SIZE
 62
     0
 10
-225.0
 20
2252.3204101324091
 30
0.0
 11
-355.0
 21
2252.3204101324091
 31
0.0
  0
INSERT
  5
4DC
  8
SIZE
 62
     0
  2
_ORIGIN
 10
-215.0
 20
2252.3204101324091
 30
0.0
 41
10.0
 42
10.0
 43
10.0
  0
INSERT
  5
4DD
  8
SIZE
 62
     0
  2
_ORIGIN
 10
-365.0
 20
2252.3204101324091
 30
0.0
 41
10.0
 42
10.0
 43
10.0
 50
180.0
  0
TEXT
  5
4DE
  8
SIZE
 62
     0
 10
-322.50000006119592
 20
2262.3204101324081
 30
0.0
 40
30.0
  1
150
 72
     1
 11
-290.00000006119592
 21
2262.3204101324081
 31
0.0
  0
POINT
  5
4DF
  8
DEFPOINTS
 62
     0
 10
-215.0
 20
2100.0
 30
0.0
  0
POINT
  5
4E0
  8
DEFPOINTS
 62
     0
 10
-365.0
 20
1945.0
 30
0.0
  0
POINT
  5
4E1
  8
DEFPOINTS
 62
     0
 10
-365.0
 20
2252.3204101324091
 30
0.0
  0
ENDBLK
  5
4E2
  8
0
  0
BLOCK
  8
0
  2
*D67
 70
     1
 10
0.0
 20
0.0
 30
0.0
  3
*D67
  1

  0
LINE
  5
4E5
  8
SIZE
 62
     0
 10
-178.0
 20
320.0
 30
0.0
 11
-178.0
 21
-160.1000000238418
 31
0.0
  0
LINE
  5
4E6
  8
SIZE
 62
     0
 10
-215.0
 20
140.0
 30
0.0
 11
-215.0
 21
-160.1000000238418
 31
0.0
  0
LINE
  5
4E7
  8
SIZE
 62
     0
 10
-168.0
 20
-147.60000002384189
 30
0.0
 11
-158.0
 21
-147.60000002384189
 31
0.0
  0
LINE
  5
4E8
  8
SIZE
 62
     0
 10
-225.0
 20
-147.60000002384189
 30
0.0
 11
-319.38375860611779
 21
-147.60000002384189
 31
0.0
  0
LINE
  5
4E9
  8
SIZE
 62
     0
 10
-178.0
 20
-147.60000002384189
 30
0.0
 11
-215.0
 21
-147.60000002384189
 31
0.0
  0
INSERT
  5
4EA
  8
SIZE
 62
     0
  2
_ORIGIN
 10
-178.0
 20
-147.60000002384189
 30
0.0
 41
10.0
 42
10.0
 43
10.0
 50
180.0
  0
INSERT
  5
4EB
  8
SIZE
 62
     0
  2
_ORIGIN
 10
-215.0
 20
-147.60000002384189
 30
0.0
 41
10.0
 42
10.0
 43
10.0
  0
TEXT
  5
4EC
  8
SIZE
 62
     0
 10
-309.38375860611768
 20
-137.60000002384189
 30
0.0
 40
30.0
  1
37
 72
     1
 11
-284.38375860611768
 21
-137.60000002384189
 31
0.0
  0
POINT
  5
4ED
  8
DEFPOINTS
 62
     0
 10
-178.0
 20
330.0
 30
0.0
  0
POINT
  5
4EE
  8
DEFPOINTS
 62
     0
 10
-215.0
 20
150.0
 30
0.0
  0
POINT
  5
4EF
  8
DEFPOINTS
 62
     0
 10
-215.0
 20
-147.60000002384189
 30
0.0
  0
ENDBLK
  5
4F0
  8
0
  0
BLOCK
  8
0
  2
*D68
 70
     1
 10
0.0
 20
0.0
 30
0.0
  3
*D68
  1

  0
LINE
  5
4F3
  8
SIZE
 62
     0
 10
-215.0
 20
140.0
 30
0.0
 11
-215.00000000000011
 21
-560.10000002384174
 31
0.0
  0
LINE
  5
4F4
  8
SIZE
 62
     0
 10
-27.0
 20
271.0
 30
0.0
 11
-27.00000000000005
 21
-560.10000002384174
 31
0.0
  0
LINE
  5
4F5
  8
SIZE
 62
     0
 10
-205.00000000000011
 20
-547.60000002384174
 30
0.0
 11
-37.00000000000005
 21
-547.60000002384174
 31
0.0
  0
INSERT
  5
4F6
  8
SIZE
 62
     0
  2
_ORIGIN
 10
-215.00000000000011
 20
-547.60000002384174
 30
0.0
 41
10.0
 42
10.0
 43
10.0
 50
180.0
  0
INSERT
  5
4F7
  8
SIZE
 62
     0
  2
_ORIGIN
 10
-27.00000000000005
 20
-547.60000002384174
 30
0.0
 41
10.0
 42
10.0
 43
10.0
  0
TEXT
  5
4F8
  8
SIZE
 62
     0
 10
-156.00000006119589
 20
-537.60000002384174
 30
0.0
 40
30.0
  1
188
 72
     1
 11
-121.00000006119591
 21
-537.60000002384174
 31
0.0
  0
POINT
  5
4F9
  8
DEFPOINTS
 62
     0
 10
-215.0
 20
150.0
 30
0.0
  0
POINT
  5
4FA
  8
DEFPOINTS
 62
     0
 10
-27.0
 20
281.0
 30
0.0
  0
POINT
  5
4FB
  8
DEFPOINTS
 62
     0
 10
-27.00000000000005
 20
-547.60000002384174
 30
0.0
  0
ENDBLK
  5
4FC
  8
0
  0
BLOCK
  8
0
  2
*D69
 70
     1
 10
0.0
 20
0.0
 30
0.0
  3
*D69
  1

  0
LINE
  5
4FF
  8
SIZE
 62
     0
 10
-215.0
 20
140.0
 30
0.0
 11
-215.00000000000011
 21
-960.1000000238414
 31
0.0
  0
LINE
  5
500
  8
SIZE
 62
     0
 10
167.0
 20
271.0
 30
0.0
 11
166.9999999999998
 21
-960.1000000238414
 31
0.0
  0
LINE
  5
501
  8
SIZE
 62
     0
 10
-205.00000000000011
 20
-947.6000000238414
 30
0.0
 11
156.9999999999998
 21
-947.6000000238414
 31
0.0
  0
INSERT
  5
502
  8
SIZE
 62
     0
  2
_ORIGIN
 10
-215.00000000000011
 20
-947.6000000238414
 30
0.0
 41
10.0
 42
10.0
 43
10.0
 50
180.0
  0
INSERT
  5
503
  8
SIZE
 62
     0
  2
_ORIGIN
 10
166.9999999999998
 20
-947.6000000238414
 30
0.0
 41
10.0
 42
10.0
 43
10.0
  0
TEXT
  5
504
  8
SIZE
 62
     0
 10
-64.000000061195934
 20
-937.6000000238414
 30
0.0
 40
30.0
  1
382
 72
     1
 11
-24.000000061195951
 21
-937.6000000238414
 31
0.0
  0
POINT
  5
505
  8
DEFPOINTS
 62
     0
 10
-215.0
 20
150.0
 30
0.0
  0
POINT
  5
506
  8
DEFPOINTS
 62
     0
 10
167.0
 20
281.0
 30
0.0
  0
POINT
  5
507
  8
DEFPOINTS
 62
     0
 10
166.9999999999998
 20
-947.6000000238414
 30
0.0
  0
ENDBLK
  5
508
  8
0
  0
BLOCK
  8
0
  2
*D70
 70
     1
 10
0.0
 20
0.0
 30
0.0
  3
*D70
  1

  0
LINE
  5
50B
  8
SIZE
 62
     0
 10
137.0
 20
300.99999999999989
 30
0.0
 11
775.10000002384174
 21
300.99999999999972
 31
0.0
  0
LINE
  5
50C
  8
SIZE
 62
     0
 10
525.0
 20
-0.0000000000000028
 30
0.0
 11
775.10000002384174
 21
-0.0000000000000737
 31
0.0
  0
LINE
  5
50D
  8
SIZE
 62
     0
 10
762.60000002384174
 20
290.99999999999972
 30
0.0
 11
762.60000002384174
 21
9.9999999999999272
 31
0.0
  0
INSERT
  5
50E
  8
SIZE
 62
     0
  2
_ORIGIN
 10
762.60000002384174
 20
300.99999999999972
 30
0.0
 41
10.0
 42
10.0
 43
10.0
 50
90.0
  0
INSERT
  5
50F
  8
SIZE
 62
     0
  2
_ORIGIN
 10
762.60000002384174
 20
-0.0000000000000701
 30
0.0
 41
10.0
 42
10.0
 43
10.0
 50
270.0
  0
TEXT
  5
510
  8
SIZE
 62
     0
 10
752.60000002384174
 20
117.999999877608
 30
0.0
 40
30.0
  1
301
 50
90.0
 72
     1
 11
752.60000002384174
 21
150.49999987760799
 31
0.0
  0
POINT
  5
511
  8
DEFPOINTS
 62
     0
 10
127.0
 20
301.0
 30
0.0
  0
POINT
  5
512
  8
DEFPOINTS
 62
     0
 10
515.0
 20
0.0
 30
0.0
  0
POINT
  5
513
  8
DEFPOINTS
 62
     0
 10
762.60000002384174
 20
-0.0000000000000701
 30
0.0
  0
ENDBLK
  5
514
  8
0
  0
BLOCK
  8
0
  2
*D71
 70
     1
 10
0.0
 20
0.0
 30
0.0
  3
*D71
  1

  0
LINE
  5
517
  8
SIZE
 62
     0
 10
-191.5
 20
-0.0000000000000542
 30
0.0
 11
-429.89999997615809
 21
0.0000000000000134
 31
0.0
  0
LINE
  5
518
  8
SIZE
 62
     0
 10
-57.0
 20
301.0
 30
0.0
 11
-429.89999997615791
 21
301.00000000000011
 31
0.0
  0
LINE
  5
519
  8
SIZE
 62
     0
 10
-417.39999997615809
 20
10.000000000000011
 30
0.0
 11
-417.39999997615791
 21
291.00000000000011
 31
0.0
  0
INSERT
  5
51A
  8
SIZE
 62
     0
  2
_ORIGIN
 10
-417.39999997615809
 20
0.0000000000000098
 30
0.0
 41
10.0
 42
10.0
 43
10.0
 50
270.0
  0
INSERT
  5
51B
  8
SIZE
 62
     0
  2
_ORIGIN
 10
-417.39999997615791
 20
301.00000000000011
 30
0.0
 41
10.0
 42
10.0
 43
10.0
 50
90.0
  0
TEXT
  5
51C
  8
SIZE
 62
     0
 10
-427.39999997615803
 20
117.999999877608
 30
0.0
 40
30.0
  1
301
 50
90.0
 72
     1
 11
-427.39999997615803
 21
150.49999987760799
 31
0.0
  0
POINT
  5
51D
  8
DEFPOINTS
 62
     0
 10
-181.5
 20
-0.000000000000057
 30
0.0
  0
POINT
  5
51E
  8
DEFPOINTS
 62
     0
 10
-47.0
 20
301.0
 30
0.0
  0
POINT
  5
51F
  8
DEFPOINTS
 62
     0
 10
-417.39999997615791
 20
301.00000000000011
 30
0.0
  0
ENDBLK
  5
520
  8
0
  0
BLOCK
  8
0
  2
*D72
 70
     1
 10
0.0
 20
0.0
 30
0.0
  3
*D72
  1

  0
LINE
  5
523
  8
SIZE
 62
     0
 10
-215.0
 20
140.0
 30
0.0
 11
-215.0
 21
-360.1000000238418
 31
0.0
  0
LINE
  5
524
  8
SIZE
 62
     0
 10
-111.0
 20
320.0
 30
0.0
 11
-111.0
 21
-360.10000002384191
 31
0.0
  0
LINE
  5
525
  8
SIZE
 62
     0
 10
-205.0
 20
-347.6000000238418
 30
0.0
 11
-121.0
 21
-347.6000000238418
 31
0.0
  0
INSERT
  5
526
  8
SIZE
 62
     0
  2
_ORIGIN
 10
-215.0
 20
-347.6000000238418
 30
0.0
 41
10.0
 42
10.0
 43
10.0
 50
180.0
  0
INSERT
  5
527
  8
SIZE
 62
     0
  2
_ORIGIN
 10
-111.0
 20
-347.6000000238418
 30
0.0
 41
10.0
 42
10.0
 43
10.0
  0
TEXT
  5
528
  8
SIZE
 62
     0
 10
-195.50000006119589
 20
-337.6000000238418
 30
0.0
 40
30.0
  1
104
 72
     1
 11
-163.00000006119589
 21
-337.6000000238418
 31
0.0
  0
POINT
  5
529
  8
DEFPOINTS
 62
     0
 10
-215.0
 20
150.0
 30
0.0
  0
POINT
  5
52A
  8
DEFPOINTS
 62
     0
 10
-111.0
 20
330.0
 30
0.0
  0
POINT
  5
52B
  8
DEFPOINTS
 62
     0
 10
-111.0
 20
-347.6000000238418
 30
0.0
  0
ENDBLK
  5
52C
  8
0
  0
BLOCK
  8
0
  2
*D73
 70
     1
 10
0.0
 20
0.0
 30
0.0
  3
*D73
  1

  0
LINE
  5
52F
  8
SIZE
 62
     0
 10
-215.0
 20
140.0
 30
0.0
 11
-215.0
 21
-460.10000002384191
 31
0.0
  0
LINE
  5
530
  8
SIZE
 62
     0
 10
-53.0
 20
271.0
 30
0.0
 11
-53.000000000000043
 21
-460.10000002384191
 31
0.0
  0
LINE
  5
531
  8
SIZE
 62
     0
 10
-205.0
 20
-447.6000000238418
 30
0.0
 11
-63.000000000000043
 21
-447.6000000238418
 31
0.0
  0
INSERT
  5
532
  8
SIZE
 62
     0
  2
_ORIGIN
 10
-215.0
 20
-447.6000000238418
 30
0.0
 41
10.0
 42
10.0
 43
10.0
 50
180.0
  0
INSERT
  5
533
  8
SIZE
 62
     0
  2
_ORIGIN
 10
-53.000000000000043
 20
-447.6000000238418
 30
0.0
 41
10.0
 42
10.0
 43
10.0
  0
TEXT
  5
534
  8
SIZE
 62
     0
 10
-169.00000006119581
 20
-437.6000000238418
 30
0.0
 40
30.0
  1
162
 72
     1
 11
-134.00000006119581
 21
-437.6000000238418
 31
0.0
  0
POINT
  5
535
  8
DEFPOINTS
 62
     0
 10
-215.0
 20
150.0
 30
0.0
  0
POINT
  5
536
  8
DEFPOINTS
 62
     0
 10
-53.0
 20
281.0
 30
0.0
  0
POINT
  5
537
  8
DEFPOINTS
 62
     0
 10
-53.000000000000043
 20
-447.6000000238418
 30
0.0
  0
ENDBLK
  5
538
  8
0
  0
BLOCK
  8
0
  2
*D74
 70
     1
 10
0.0
 20
0.0
 30
0.0
  3
*D74
  1

  0
LINE
  5
53B
  8
SIZE
 62
     0
 10
-145.0
 20
-30.0
 30
0.0
 11
-145.0
 21
-1060.1000000238421
 31
0.0
  0
LINE
  5
53C
  8
SIZE
 62
     0
 10
-215.0
 20
140.0
 30
0.0
 11
-215.00000000000011
 21
-1060.1000000238421
 31
0.0
  0
LINE
  5
53D
  8
SIZE
 62
     0
 10
-155.0
 20
-1047.6000000238421
 30
0.0
 11
-205.00000000000011
 21
-1047.6000000238421
 31
0.0
  0
INSERT
  5
53E
  8
SIZE
 62
     0
  2
_ORIGIN
 10
-145.0
 20
-1047.6000000238421
 30
0.0
 41
10.0
 42
10.0
 43
10.0
  0
INSERT
  5
53F
  8
SIZE
 62
     0
  2
_ORIGIN
 10
-215.00000000000011
 20
-1047.6000000238421
 30
0.0
 41
10.0
 42
10.0
 43
10.0
 50
180.0
  0
TEXT
  5
540
  8
SIZE
 62
     0
 10
-202.500000061196
 20
-1037.6000000238409
 30
0.0
 40
30.0
  1
70
 72
     1
 11
-180.000000061196
 21
-1037.6000000238409
 31
0.0
  0
POINT
  5
541
  8
DEFPOINTS
 62
     0
 10
-145.0
 20
-20.0
 30
0.0
  0
POINT
  5
542
  8
DEFPOINTS
 62
     0
 10
-215.0
 20
150.0
 30
0.0
  0
POINT
  5
543
  8
DEFPOINTS
 62
     0
 10
-215.00000000000011
 20
-1047.6000000238421
 30
0.0
  0
ENDBLK
  5
544
  8
0
  0
BLOCK
  8
0
  2
*D75
 70
     1
 10
0.0
 20
0.0
 30
0.0
  3
*D75
  1

  0
LINE
  5
547
  8
SIZE
 62
     0
 10
-215.0
 20
140.0
 30
0.0
 11
-215.00000000000011
 21
-760.10000002384174
 31
0.0
  0
LINE
  5
548
  8
SIZE
 62
     0
 10
67.0
 20
80.0
 30
0.0
 11
66.999999999999929
 21
-760.10000002384174
 31
0.0
  0
LINE
  5
549
  8
SIZE
 62
     0
 10
-205.00000000000011
 20
-747.60000002384174
 30
0.0
 11
56.999999999999929
 21
-747.60000002384174
 31
0.0
  0
INSERT
  5
54A
  8
SIZE
 62
     0
  2
_ORIGIN
 10
-215.00000000000011
 20
-747.60000002384174
 30
0.0
 41
10.0
 42
10.0
 43
10.0
 50
180.0
  0
INSERT
  5
54B
  8
SIZE
 62
     0
  2
_ORIGIN
 10
66.999999999999929
 20
-747.60000002384174
 30
0.0
 41
10.0
 42
10.0
 43
10.0
  0
TEXT
  5
54C
  8
SIZE
 62
     0
 10
-114.00000006119591
 20
-737.60000002384174
 30
0.0
 40
30.0
  1
282
 72
     1
 11
-74.000000061195934
 21
-737.60000002384174
 31
0.0
  0
POINT
  5
54D
  8
DEFPOINTS
 62
     0
 10
-215.0
 20
150.0
 30
0.0
  0
POINT
  5
54E
  8
DEFPOINTS
 62
     0
 10
67.0
 20
90.0
 30
0.0
  0
POINT
  5
54F
  8
DEFPOINTS
 62
     0
 10
66.999999999999929
 20
-747.60000002384174
 30
0.0
  0
ENDBLK
  5
550
  8
0
  0
BLOCK
  8
0
  2
*D76
 70
     1
 10
0.0
 20
0.0
 30
0.0
  3
*D76
  1

  0
LINE
  5
553
  8
SIZE
 62
     0
 10
-215.0
 20
140.0
 30
0.0
 11
-215.00000000000011
 21
-860.10000002384174
 31
0.0
  0
LINE
  5
554
  8
SIZE
 62
     0
 10
107.0
 20
271.0
 30
0.0
 11
106.9999999999999
 21
-860.10000002384174
 31
0.0
  0
LINE
  5
555
  8
SIZE
 62
     0
 10
-205.00000000000011
 20
-847.60000002384174
 30
0.0
 11
96.999999999999943
 21
-847.60000002384174
 31
0.0
  0
INSERT
  5
556
  8
SIZE
 62
     0
  2
_ORIGIN
 10
-215.00000000000011
 20
-847.60000002384174
 30
0.0
 41
10.0
 42
10.0
 43
10.0
 50
180.0
  0
INSERT
  5
557
  8
SIZE
 62
     0
  2
_ORIGIN
 10
106.9999999999999
 20
-847.60000002384174
 30
0.0
 41
10.0
 42
10.0
 43
10.0
  0
TEXT
  5
558
  8
SIZE
 62
     0
 10
-94.000000061195934
 20
-837.60000002384163
 30
0.0
 40
30.0
  1
322
 72
     1
 11
-54.000000061195941
 21
-837.60000002384163
 31
0.0
  0
POINT
  5
559
  8
DEFPOINTS
 62
     0
 10
-215.0
 20
150.0
 30
0.0
  0
POINT
  5
55A
  8
DEFPOINTS
 62
     0
 10
107.0
 20
281.0
 30
0.0
  0
POINT
  5
55B
  8
DEFPOINTS
 62
     0
 10
106.9999999999999
 20
-847.60000002384174
 30
0.0
  0
ENDBLK
  5
55C
  8
0
  0
BLOCK
  8
0
  2
*D77
 70
     1
 10
0.0
 20
0.0
 30
0.0
  3
*D77
  1

  0
LINE
  5
55F
  8
SIZE
 62
     0
 10
48.0
 20
244.0
 30
0.0
 11
47.999999999999929
 21
-663.12130129337322
 31
0.0
  0
LINE
  5
560
  8
SIZE
 62
     0
 10
-215.0
 20
140.0
 30
0.0
 11
-215.00000000000011
 21
-663.12130129337322
 31
0.0
  0
LINE
  5
561
  8
SIZE
 62
     0
 10
37.999999999999943
 20
-650.62130129337322
 30
0.0
 11
-205.00000000000011
 21
-650.62130129337322
 31
0.0
  0
INSERT
  5
562
  8
SIZE
 62
     0
  2
_ORIGIN
 10
47.999999999999929
 20
-650.62130129337322
 30
0.0
 41
10.0
 42
10.0
 43
10.0
  0
INSERT
  5
563
  8
SIZE
 62
     0
  2
_ORIGIN
 10
-215.00000000000011
 20
-650.62130129337322
 30
0.0
 41
10.0
 42
10.0
 43
10.0
 50
180.0
  0
TEXT
  5
564
  8
SIZE
 62
     0
 10
-123.50000006119591
 20
-640.62130129337322
 30
0.0
 40
30.0
  1
263
 72
     1
 11
-83.500000061195905
 21
-640.62130129337322
 31
0.0
  0
POINT
  5
565
  8
DEFPOINTS
 62
     0
 10
48.0
 20
254.0
 30
0.0
  0
POINT
  5
566
  8
DEFPOINTS
 62
     0
 10
-215.0
 20
150.0
 30
0.0
  0
POINT
  5
567
  8
DEFPOINTS
 62
     0
 10
-215.00000000000011
 20
-650.62130129337322
 30
0.0
  0
ENDBLK
  5
568
  8
0
  0
BLOCK
  8
0
  2
*D78
 70
     1
 10
0.0
 20
0.0
 30
0.0
  3
*D78
  1

  0
LINE
  5
56B
  8
SIZE
 62
     0
 10
78.0
 20
276.0
 30
0.0
 11
675.10000002384197
 21
275.99999999999972
 31
0.0
  0
LINE
  5
56C
  8
SIZE
 62
     0
 10
525.0
 20
-0.0000000000000028
 30
0.0
 11
675.10000002384174
 21
-0.0000000000000454
 31
0.0
  0
LINE
  5
56D
  8
SIZE
 62
     0
 10
662.60000002384174
 20
265.99999999999972
 30
0.0
 11
662.60000002384174
 21
9.9999999999999556
 31
0.0
  0
INSERT
  5
56E
  8
SIZE
 62
     0
  2
_ORIGIN
 10
662.60000002384174
 20
275.99999999999972
 30
0.0
 41
10.0
 42
10.0
 43
10.0
 50
90.0
  0
INSERT
  5
56F
  8
SIZE
 62
     0
  2
_ORIGIN
 10
662.60000002384174
 20
-0.0000000000000418
 30
0.0
 41
10.0
 42
10.0
 43
10.0
 50
270.0
  0
TEXT
  5
570
  8
SIZE
 62
     0
 10
652.60000002384174
 20
97.999999877607991
 30
0.0
 40
30.0
  1
276
 50
90.0
 72
     1
 11
652.60000002384174
 21
137.99999987760799
 31
0.0
  0
POINT
  5
571
  8
DEFPOINTS
 62
     0
 10
68.0
 20
276.0
 30
0.0
  0
POINT
  5
572
  8
DEFPOINTS
 62
     0
 10
515.0
 20
0.0
 30
0.0
  0
POINT
  5
573
  8
DEFPOINTS
 62
     0
 10
662.60000002384174
 20
-0.0000000000000418
 30
0.0
  0
ENDBLK
  5
574
  8
0
  0
BLOCK
  8
0
  2
*D79
 70
     1
 10
0.0
 20
0.0
 30
0.0
  3
*D79
  1

  0
LINE
  5
577
  8
SIZE
 62
     0
 10
-175.0
 20
311.0
 30
0.0
 11
-529.89999997615791
 21
311.00000000000011
 31
0.0
  0
LINE
  5
578
  8
SIZE
 62
     0
 10
-191.5
 20
-0.0000000000000542
 30
0.0
 11
-529.89999997615803
 21
0.0000000000000417
 31
0.0
  0
LINE
  5
579
  8
SIZE
 62
     0
 10
-517.39999997615791
 20
301.00000000000011
 30
0.0
 11
-517.39999997615803
 21
10.000000000000041
 31
0.0
  0
INSERT
  5
57A
  8
SIZE
 62
     0
  2
_ORIGIN
 10
-517.39999997615791
 20
311.00000000000011
 30
0.0
 41
10.0
 42
10.0
 43
10.0
 50
90.0
  0
INSERT
  5
57B
  8
SIZE
 62
     0
  2
_ORIGIN
 10
-517.39999997615803
 20
0.0000000000000382
 30
0.0
 41
10.0
 42
10.0
 43
10.0
 50
270.0
  0
TEXT
  5
57C
  8
SIZE
 62
     0
 10
-527.39999997615803
 20
125.499999877608
 30
0.0
 40
30.0
  1
311
 50
90.0
 72
     1
 11
-527.39999997615803
 21
155.49999987760799
 31
0.0
  0
POINT
  5
57D
  8
DEFPOINTS
 62
     0
 10
-165.0
 20
311.0
 30
0.0
  0
POINT
  5
57E
  8
DEFPOINTS
 62
     0
 10
-181.5
 20
-0.000000000000057
 30
0.0
  0
POINT
  5
57F
  8
DEFPOINTS
 62
     0
 10
-517.39999997615803
 20
0.0000000000000382
 30
0.0
  0
ENDBLK
  5
580
  8
0
  0
BLOCK
  8
0
  2
*D80
 70
     1
 10
0.0
 20
0.0
 30
0.0
  3
*D80
  1

  0
LINE
  5
583
  8
SIZE
 62
     0
 10
-145.0
 20
281.0
 30
0.0
 11
-145.0
 21
-260.10000002384191
 31
0.0
  0
LINE
  5
584
  8
SIZE
 62
     0
 10
-215.0
 20
140.0
 30
0.0
 11
-215.0
 21
-260.10000002384191
 31
0.0
  0
LINE
  5
585
  8
SIZE
 62
     0
 10
-155.0
 20
-247.60000002384189
 30
0.0
 11
-205.0
 21
-247.60000002384189
 31
0.0
  0
INSERT
  5
586
  8
SIZE
 62
     0
  2
_ORIGIN
 10
-145.0
 20
-247.60000002384189
 30
0.0
 41
10.0
 42
10.0
 43
10.0
  0
INSERT
  5
587
  8
SIZE
 62
     0
  2
_ORIGIN
 10
-215.0
 20
-247.60000002384189
 30
0.0
 41
10.0
 42
10.0
 43
10.0
 50
180.0
  0
TEXT
  5
588
  8
SIZE
 62
     0
 10
-202.500000061196
 20
-237.6000000238418
 30
0.0
 40
30.0
  1
70
 72
     1
 11
-180.000000061196
 21
-237.6000000238418
 31
0.0
  0
POINT
  5
589
  8
DEFPOINTS
 62
     0
 10
-145.0
 20
291.0
 30
0.0
  0
POINT
  5
58A
  8
DEFPOINTS
 62
     0
 10
-215.0
 20
150.0
 30
0.0
  0
POINT
  5
58B
  8
DEFPOINTS
 62
     0
 10
-215.0
 20
-247.60000002384189
 30
0.0
  0
ENDBLK
  5
58C
  8
0
  0
ENDSEC
  0
SECTION
  2
ENTITIES
  0
LINE
  5
58D
  8
OUTLINE
  6
CONTINUOUS
 10
215.00000000000011
 20
350.0
 30
0.0
 11
-215.0
 21
350.0
 31
0.0
  0
LINE
  5
58E
  8
OUTLINE
  6
CONTINUOUS
 10
181.5
 20
0.0
 30
0.0
 11
108.4999999999999
 21
0.0
 31
0.0
  0
LINE
  5
58F
  8
OUTLINE
  6
CONTINUOUS
 10
215.00000000000011
 20
150.0
 30
0.0
 11
-215.0
 21
150.0
 31
0.0
  0
LINE
  5
590
  8
OUTLINE
  6
CONTINUOUS
 10
215.00000000000011
 20
1900.0
 30
0.0
 11
-215.0
 21
1900.0
 31
0.0
  0
LINE
  5
591
  8
OUTLINE
  6
CONTINUOUS
 10
215.00000000000011
 20
150.0
 30
0.0
 11
215.00000000000011
 21
1900.0
 31
0.0
  0
LINE
  5
592
  8
OUTLINE
  6
CONTINUOUS
 10
-215.0
 20
1900.0
 30
0.0
 11
-215.0
 21
150.0
 31
0.0
  0
LINE
  5
593
  8
OUTLINE
  6
CONTINUOUS
 10
181.5
 20
150.0
 30
0.0
 11
181.5
 21
0.0
 31
0.0
  0
LINE
  5
594
  8
OUTLINE
  6
CONTINUOUS
 10
108.4999999999999
 20
150.0
 30
0.0
 11
108.4999999999999
 21
0.0
 31
0.0
  0
LINE
  5
595
  8
OUTLINE
  6
CONTINUOUS
 10
-181.49999999999969
 20
150.0
 30
0.0
 11
-181.49999999999969
 21
-0.000000000000057
 31
0.0
  0
LINE
  5
596
  8
OUTLINE
  6
CONTINUOUS
 10
-108.4999999999998
 20
150.0
 30
0.0
 11
-108.4999999999997
 21
0.0
 31
0.0
  0
LINE
  5
597
  8
OUTLINE
  6
CONTINUOUS
 10
-181.49999999999969
 20
-0.000000000000057
 30
0.0
 11
-108.4999999999997
 21
0.0
 31
0.0
  0
LINE
  5
598
  8
OUTLINE
  6
CONTINUOUS
 10
33.299999999999997
 20
150.0
 30
0.0
 11
33.299999999999997
 21
0.0
 31
0.0
  0
LINE
  5
599
  8
OUTLINE
  6
CONTINUOUS
 10
-33.299999999999997
 20
150.0
 30
0.0
 11
-33.299999999999997
 21
0.0
 31
0.0
  0
LINE
  5
59A
  8
OUTLINE
  6
CONTINUOUS
 10
33.299999999999997
 20
0.0
 30
0.0
 11
-33.299999999999997
 21
0.0
 31
0.0
  0
LINE
  5
59B
  8
DETAIL
  6
CONTINUOUS
 10
113.10000000000009
 20
6.3999999999999826
 30
0.0
 11
113.10000000000009
 21
3.199999999999994
 31
0.0
  0
LINE
  5
59C
  8
DETAIL
  6
CONTINUOUS
 10
125.8000000000001
 20
8.3999999999999826
 30
0.0
 11
126.65514144880009
 21
18.174311485499981
 31
0.0
  0
LINE
  5
59D
  8
DETAIL
  6
CONTINUOUS
 10
161.3524691551001
 20
20.000000000000011
 30
0.0
 11
128.64753084500001
 21
20.000000000000011
 31
0.0
  0
LINE
  5
59E
  8
DETAIL
  6
CONTINUOUS
 10
163.34485855130009
 20
18.174311485499981
 30
0.0
 11
164.2000000000001
 21
8.3999999999999826
 31
0.0
  0
LINE
  5
59F
  8
DETAIL
  6
CONTINUOUS
 10
176.90000000000001
 20
3.199999999999994
 30
0.0
 11
176.90000000000001
 21
6.3999999999999826
 31
0.0
  0
ARC
  5
5A0
  8
DETAIL
  6
CONTINUOUS
 10
128.64753084500001
 20
18.0
 30
0.0
 40
2.0
 50
90.0
 51
175.0000000000002
  0
ARC
  5
5A1
  8
DETAIL
  6
CONTINUOUS
 10
161.3524691551001
 20
18.0
 30
0.0
 40
2.0000000000000191
 50
4.9999999999997433
 51
90.0
  0
LINE
  5
5A2
  8
DETAIL
  6
CONTINUOUS
 10
113.10000000000009
 20
3.199999999999994
 30
0.0
 11
176.90000000000001
 21
3.199999999999994
 31
0.0
  0
LINE
  5
5A3
  8
DETAIL
  6
CONTINUOUS
 10
113.10000000000009
 20
6.3999999999999826
 30
0.0
 11
176.90000000000001
 21
6.3999999999999693
 31
0.0
  0
LINE
  5
5A4
  8
DETAIL
  6
CONTINUOUS
 10
164.2000000000001
 20
8.3999999999999826
 30
0.0
 11
164.2000000000001
 21
6.3999999999999693
 31
0.0
  0
LINE
  5
5A5
  8
DETAIL
  6
CONTINUOUS
 10
125.8000000000001
 20
6.3999999999999693
 30
0.0
 11
125.8000000000001
 21
8.3999999999999826
 31
0.0
  0
LINE
  5
5A6
  8
DETAIL
  6
CONTINUOUS
 10
-176.89999999999989
 20
6.3999999999999826
 30
0.0
 11
-176.89999999999989
 21
3.199999999999994
 31
0.0
  0
LINE
  5
5A7
  8
DETAIL
  6
CONTINUOUS
 10
-164.1999999999999
 20
8.3999999999999826
 30
0.0
 11
-163.34485855119991
 21
18.174311485499981
 31
0.0
  0
LINE
  5
5A8
  8
DETAIL
  6
CONTINUOUS
 10
-128.6475308448999
 20
20.000000000000011
 30
0.0
 11
-161.35246915499991
 21
20.000000000000011
 31
0.0
  0
LINE
  5
5A9
  8
DETAIL
  6
CONTINUOUS
 10
-126.65514144869989
 20
18.174311485499981
 30
0.0
 11
-125.7999999999999
 21
8.3999999999999826
 31
0.0
  0
LINE
  5
5AA
  8
DETAIL
  6
CONTINUOUS
 10
-113.0999999999998
 20
3.199999999999994
 30
0.0
 11
-113.0999999999998
 21
6.3999999999999826
 31
0.0
  0
ARC
  5
5AB
  8
DETAIL
  6
CONTINUOUS
 10
-161.35246915499991
 20
18.0
 30
0.0
 40
2.0
 50
90.0
 51
175.0000000000002
  0
ARC
  5
5AC
  8
DETAIL
  6
CONTINUOUS
 10
-128.6475308448999
 20
18.0
 30
0.0
 40
2.0000000000000191
 50
4.9999999999997433
 51
90.0
  0
LINE
  5
5AD
  8
DETAIL
  6
CONTINUOUS
 10
-176.89999999999989
 20
3.199999999999994
 30
0.0
 11
-113.0999999999998
 21
3.199999999999994
 31
0.0
  0
LINE
  5
5AE
  8
DETAIL
  6
CONTINUOUS
 10
-176.89999999999989
 20
6.3999999999999826
 30
0.0
 11
-113.0999999999998
 21
6.3999999999999693
 31
0.0
  0
LINE
  5
5AF
  8
DETAIL
  6
CONTINUOUS
 10
-125.7999999999999
 20
8.3999999999999826
 30
0.0
 11
-125.7999999999999
 21
6.3999999999999693
 31
0.0
  0
LINE
  5
5B0
  8
DETAIL
  6
CONTINUOUS
 10
-164.1999999999999
 20
6.3999999999999693
 30
0.0
 11
-164.1999999999999
 21
8.3999999999999826
 31
0.0
  0
POLYLINE
  5
5B1
  8
DETAIL
  6
CONTINUOUS
 66
     1
 10
0.0
 20
0.0
 30
0.0
  0
VERTEX
  5
8EF
  8
DETAIL
  6
CONTINUOUS
 10
-108.4999999999998
 20
117.1390478177898
 30
0.0
  0
VERTEX
  5
8F0
  8
DETAIL
  6
CONTINUOUS
 10
-108.1088227921406
 20
118.6585800101403
 30
0.0
  0
VERTEX
  5
8F1
  8
DETAIL
  6
CONTINUOUS
 10
-107.86832753765771
 20
120.29861191399721
 30
0.0
  0
VERTEX
  5
8F2
  8
DETAIL
  6
CONTINUOUS
 10
-107.78718707889701
 20
121.9999999999999
 30
0.0
  0
VERTEX
  5
8F3
  8
DETAIL
  6
CONTINUOUS
 10
-107.86832753765771
 20
123.70138808600259
 30
0.0
  0
VERTEX
  5
8F4
  8
DETAIL
  6
CONTINUOUS
 10
-108.1088227921406
 20
125.3414199898595
 30
0.0
  0
VERTEX
  5
8F5
  8
DETAIL
  6
CONTINUOUS
 10
-108.4999999999998
 20
126.86095218221
 30
0.0
  0
SEQEND
  5
8F6
  8
DETAIL
  6
CONTINUOUS
  0
POLYLINE
  5
5BA
  8
DETAIL
  6
DASHED
 66
     1
 10
0.0
 20
0.0
 30
0.0
  0
VERTEX
  5
8F7
  8
DETAIL
  6
DASHED
 10
-108.4999999999998
 20
126.86095218221
 30
0.0
  0
VERTEX
  5
8F8
  8
DETAIL
  6
DASHED
 10
-108.95580249272
 20
128.05041378386031
 30
0.0
  0
VERTEX
  5
8F9
  8
DETAIL
  6
DASHED
 10
-109.5039724577652
 20
129.0721188826879
 30
0.0
  0
VERTEX
  5
8FA
  8
DETAIL
  6
DASHED
 10
-110.12931108732261
 20
129.8977392220776
 30
0.0
  0
VERTEX
  5
8FB
  8
DETAIL
  6
DASHED
 10
-110.81447996036469
 20
130.5043832799382
 30
0.0
  0
VERTEX
  5
8FC
  8
DETAIL
  6
DASHED
 10
-111.5404817755348
 20
130.87523096937321
 30
0.0
  0
VERTEX
  5
8FD
  8
DETAIL
  6
DASHED
 10
-112.28718707889711
 20
130.9999999999998
 30
0.0
  0
SEQEND
  5
8FE
  8
DETAIL
  6
DASHED
  0
LINE
  5
5C3
  8
DETAIL
  6
CONTINUOUS
 10
-108.4999999999998
 20
146.50000000000011
 30
0.0
 11
-105.0
 21
150.0
 31
0.0
  0
LINE
  5
5C4
  8
DETAIL
  6
DASHED
 10
-165.0
 20
139.9999999999998
 30
0.0
 11
-175.0
 21
150.0
 31
0.0
  0
LINE
  5
5C5
  8
DETAIL
  6
DASHED
 10
-114.9999999999999
 20
139.9999999999998
 30
0.0
 11
-108.4999999999998
 21
146.50000000000011
 31
0.0
  0
ARC
  5
5C6
  8
DETAIL
  6
CONTINUOUS
 10
-116.5
 20
573.5
 30
0.0
 40
3.0
 50
180.0
 51
270.0
  0
ARC
  5
5C7
  8
DETAIL
  6
CONTINUOUS
 10
-116.5
 20
582.5
 30
0.0
 40
3.0
 50
90.0
 51
180.0
  0
ARC
  5
5C8
  8
DETAIL
  6
CONTINUOUS
 10
-110.8578166916005
 20
573.5
 30
0.0
 40
3.0
 50
270.0
 51
299.59184579395139
  0
ARC
  5
5C9
  8
DETAIL
  6
CONTINUOUS
 10
-82.5
 20
573.5
 30
0.0
 40
3.0
 50
270.0
 51
0.0
  0
ARC
  5
5CA
  8
DETAIL
  6
CONTINUOUS
 10
-88.142183308399453
 20
573.5
 30
0.0
 40
2.99999999999998
 50
240.40815420604849
 51
270.0
  0
ARC
  5
5CB
  8
DETAIL
  6
CONTINUOUS
 10
-82.5
 20
582.5
 30
0.0
 40
3.0
 50
0.0
 51
90.0
  0
LINE
  5
5CC
  8
DETAIL
  6
CONTINUOUS
 10
-82.5
 20
570.5
 30
0.0
 11
-88.142183308399453
 21
570.5
 31
0.0
  0
ARC
  5
5CD
  8
DETAIL
  6
CONTINUOUS
 10
-99.500000000000014
 20
553.5
 30
0.0
 40
20.000000000000011
 50
60.408154206049389
 51
119.5918457939506
  0
LINE
  5
5CE
  8
DETAIL
  6
CONTINUOUS
 10
-119.5
 20
582.5
 30
0.0
 11
-119.5
 21
573.5
 31
0.0
  0
LINE
  5
5CF
  8
DETAIL
  6
CONTINUOUS
 10
-79.5
 20
582.5
 30
0.0
 11
-79.5
 21
573.5
 31
0.0
  0
LINE
  5
5D0
  8
DETAIL
  6
CONTINUOUS
 10
-116.5
 20
585.5
 30
0.0
 11
-82.5
 21
585.5
 31
0.0
  0
LINE
  5
5D1
  8
DETAIL
  6
CONTINUOUS
 10
-116.5
 20
570.5
 30
0.0
 11
-110.8578166916005
 21
570.5
 31
0.0
  0
ARC
  5
5D2
  8
DETAIL
  6
CONTINUOUS
 10
-22.0
 20
416.0
 30
0.0
 40
8.0
 50
270.0
 51
0.0
  0
ARC
  5
5D3
  8
DETAIL
  6
CONTINUOUS
 10
-177.0
 20
416.0
 30
0.0
 40
8.0
 50
180.0
 51
270.0
  0
ARC
  5
5D4
  8
DETAIL
  6
CONTINUOUS
 10
-177.0
 20
620.0
 30
0.0
 40
8.0
 50
90.0
 51
180.0
  0
ARC
  5
5D5
  8
DETAIL
  6
CONTINUOUS
 10
-22.0
 20
620.0
 30
0.0
 40
8.0
 50
0.0
 51
90.0
  0
LINE
  5
5D6
  8
DETAIL
  6
CONTINUOUS
 10
-185.0
 20
620.0
 30
0.0
 11
-185.0
 21
416.0
 31
0.0
  0
LINE
  5
5D7
  8
DETAIL
  6
CONTINUOUS
 10
-14.0
 20
620.0
 30
0.0
 11
-14.0
 21
416.0
 31
0.0
  0
LINE
  5
5D8
  8
DETAIL
  6
CONTINUOUS
 10
-22.0
 20
628.0
 30
0.0
 11
-177.0
 21
628.0
 31
0.0
  0
LINE
  5
5D9
  8
DETAIL
  6
CONTINUOUS
 10
-22.0
 20
408.0
 30
0.0
 11
-177.0
 21
408.0
 31
0.0
  0
LINE
  5
5DA
  8
DETAIL
  6
CONTINUOUS
 10
-13.4
 20
301.0
 30
0.0
 11
-40.600000000000001
 21
301.0
 31
0.0
  0
LINE
  5
5DB
  8
DETAIL
  6
CONTINUOUS
 10
-13.4
 20
301.0
 30
0.0
 11
-13.39999999999992
 21
350.0
 31
0.0
  0
LINE
  5
5DC
  8
DETAIL
  6
CONTINUOUS
 10
-40.600000000000001
 20
301.0
 30
0.0
 11
-40.599999999999973
 21
350.0
 31
0.0
  0
LINE
  5
5DD
  8
DETAIL
  6
CONTINUOUS
 10
61.600000000000001
 20
276.0
 30
0.0
 11
34.400000000000013
 21
276.0
 31
0.0
  0
LINE
  5
5DE
  8
DETAIL
  6
CONTINUOUS
 10
61.600000000000009
 20
276.0
 30
0.0
 11
61.600000000000072
 21
350.0
 31
0.0
  0
LINE
  5
5DF
  8
DETAIL
  6
CONTINUOUS
 10
34.400000000000013
 20
276.0
 30
0.0
 11
34.400000000000013
 21
350.0
 31
0.0
  0
LINE
  5
5E0
  8
DETAIL
  6
CONTINUOUS
 10
-134.15000000000001
 20
311.0
 30
0.0
 11
-155.84999999999999
 21
311.0
 31
0.0
  0
LINE
  5
5E1
  8
DETAIL
  6
CONTINUOUS
 10
-155.84999999999999
 20
311.0
 30
0.0
 11
-155.84999999999999
 21
350.0
 31
0.0
  0
LINE
  5
5E2
  8
DETAIL
  6
CONTINUOUS
 10
-134.15000000000001
 20
311.0
 30
0.0
 11
-134.15000000000001
 21
350.0
 31
0.0
  0
LINE
  5
5E3
  8
DETAIL
  6
CONTINUOUS
 10
117.84999999999999
 20
301.0
 30
0.0
 11
117.84999999999999
 21
350.0
 31
0.0
  0
LINE
  5
5E4
  8
DETAIL
  6
CONTINUOUS
 10
117.84999999999999
 20
301.0
 30
0.0
 11
96.150000000000006
 21
301.0
 31
0.0
  0
LINE
  5
5E5
  8
DETAIL
  6
CONTINUOUS
 10
96.150000000000006
 20
301.0
 30
0.0
 11
96.150000000000006
 21
350.0
 31
0.0
  0
LINE
  5
5E6
  8
DETAIL
  6
CONTINUOUS
 10
177.84999999999999
 20
301.0
 30
0.0
 11
177.84999999999999
 21
350.0
 31
0.0
  0
LINE
  5
5E7
  8
DETAIL
  6
CONTINUOUS
 10
177.84999999999999
 20
301.0
 30
0.0
 11
156.14999999999981
 21
301.0
 31
0.0
  0
LINE
  5
5E8
  8
DETAIL
  6
CONTINUOUS
 10
156.14999999999981
 20
301.0
 30
0.0
 11
156.14999999999981
 21
350.0
 31
0.0
  0
LINE
  5
5E9
  8
DETAIL
  6
CONTINUOUS
 10
215.00000000000011
 20
350.0
 30
0.0
 11
-215.0
 21
350.0
 31
0.0
  0
LINE
  5
5EA
  8
DETAIL
  6
CONTINUOUS
 10
215.00000000000011
 20
1874.0
 30
0.0
 11
-215.0
 21
1874.0
 31
0.0
  0
LINE
  5
5EB
  8
DETAIL
  6
CONTINUOUS
 10
-180.0
 20
773.0
 30
0.0
 11
-101.0
 21
773.0
 31
0.0
  0
ARC
  5
5EC
  8
DETAIL
  6
CONTINUOUS
 10
-180.0
 20
649.0
 30
0.0
 40
8.0
 50
180.0
 51
270.0
  0
LINE
  5
5ED
  8
DETAIL
  6
CONTINUOUS
 10
-188.0
 20
765.0
 30
0.0
 11
-188.0
 21
649.0
 31
0.0
  0
ARC
  5
5EE
  8
DETAIL
  6
CONTINUOUS
 10
-101.0
 20
649.0
 30
0.0
 40
8.0
 50
270.0
 51
0.0
  0
LINE
  5
5EF
  8
DETAIL
  6
CONTINUOUS
 10
-101.0
 20
641.0
 30
0.0
 11
-180.0
 21
641.0
 31
0.0
  0
ARC
  5
5F0
  8
DETAIL
  6
CONTINUOUS
 10
-180.0
 20
765.0
 30
0.0
 40
8.0
 50
90.0
 51
180.0
  0
ARC
  5
5F1
  8
DETAIL
  6
CONTINUOUS
 10
-101.0
 20
765.0
 30
0.0
 40
8.0
 50
0.0
 51
90.0
  0
LINE
  5
5F2
  8
DETAIL
  6
CONTINUOUS
 10
-93.0
 20
765.0
 30
0.0
 11
-93.0
 21
649.0
 31
0.0
  0
LINE
  5
5F3
  8
DETAIL
  6
CONTINUOUS
 10
-181.49999999999969
 20
-0.000000000000057
 30
0.0
 11
-108.4999999999997
 21
0.0
 31
0.0
  0
LINE
  5
5F4
  8
DETAIL
  6
CONTINUOUS
 10
-181.49999999999969
 20
150.0
 30
0.0
 11
-181.49999999999969
 21
-0.000000000000057
 31
0.0
  0
LINE
  5
5F5
  8
DETAIL
  6
CONTINUOUS
 10
108.4999999999999
 20
150.0
 30
0.0
 11
108.4999999999999
 21
0.0
 31
0.0
  0
LINE
  5
5F6
  8
DETAIL
  6
CONTINUOUS
 10
181.5
 20
150.0
 30
0.0
 11
181.5
 21
0.0
 31
0.0
  0
LINE
  5
5F7
  8
DETAIL
  6
CONTINUOUS
 10
-215.0
 20
1900.0
 30
0.0
 11
-215.0
 21
150.0
 31
0.0
  0
LINE
  5
5F8
  8
DETAIL
  6
CONTINUOUS
 10
215.00000000000011
 20
150.0
 30
0.0
 11
215.00000000000011
 21
1900.0
 31
0.0
  0
LINE
  5
5F9
  8
DETAIL
  6
CONTINUOUS
 10
-151.80000000000001
 20
1900.0
 30
0.0
 11
-215.0
 21
1900.0
 31
0.0
  0
LINE
  5
5FA
  8
DETAIL
  6
CONTINUOUS
 10
215.00000000000011
 20
150.0
 30
0.0
 11
-215.0
 21
150.0
 31
0.0
  0
LINE
  5
5FB
  8
DETAIL
  6
CONTINUOUS
 10
181.5
 20
0.0
 30
0.0
 11
108.4999999999999
 21
0.0
 31
0.0
  0
LINE
  5
5FC
  8
DETAIL
  6
CONTINUOUS
 10
-99.0
 20
762.0
 30
0.0
 11
-99.0
 21
652.0
 31
0.0
  0
LINE
  5
5FD
  8
DETAIL
  6
CONTINUOUS
 10
-182.0
 20
762.0
 30
0.0
 11
-182.0
 21
652.0
 31
0.0
  0
LINE
  5
5FE
  8
DETAIL
  6
CONTINUOUS
 10
-180.0
 20
764.0
 30
0.0
 11
-101.0
 21
764.0
 31
0.0
  0
LINE
  5
5FF
  8
DETAIL
  6
CONTINUOUS
 10
-174.0
 20
655.0
 30
0.0
 11
-107.0
 21
655.0
 31
0.0
  0
LINE
  5
600
  8
DETAIL
  6
CONTINUOUS
 10
-174.0
 20
644.0
 30
0.0
 11
-107.0
 21
644.0
 31
0.0
  0
ARC
  5
601
  8
DETAIL
  6
CONTINUOUS
 10
-107.0
 20
663.0
 30
0.0
 40
8.0
 50
270.0
 51
0.0
  0
ARC
  5
602
  8
DETAIL
  6
CONTINUOUS
 10
-107.0
 20
652.0
 30
0.0
 40
8.0
 50
270.0
 51
0.0
  0
ARC
  5
603
  8
DETAIL
  6
CONTINUOUS
 10
-174.0
 20
663.0
 30
0.0
 40
8.0
 50
180.0
 51
270.0
  0
ARC
  5
604
  8
DETAIL
  6
CONTINUOUS
 10
-174.0
 20
652.0
 30
0.0
 40
8.0
 50
180.0
 51
270.0
  0
ARC
  5
605
  8
DETAIL
  6
CONTINUOUS
 10
-101.0
 20
762.0
 30
0.0
 40
2.0
 50
0.0
 51
90.0
  0
ARC
  5
606
  8
DETAIL
  6
CONTINUOUS
 10
-180.0
 20
762.0
 30
0.0
 40
2.0
 50
90.0
 51
180.0
  0
ARC
  5
607
  8
DETAIL
  6
CONTINUOUS
 10
35.000000000000028
 20
1756.0
 30
0.0
 40
2.0
 50
270.0
 51
0.0
  0
ARC
  5
608
  8
DETAIL
  6
CONTINUOUS
 10
-35.0
 20
1756.0
 30
0.0
 40
2.0
 50
180.0
 51
270.0
  0
ARC
  5
609
  8
DETAIL
  6
CONTINUOUS
 10
35.000000000000028
 20
1743.0
 30
0.0
 40
2.0
 50
270.0
 51
0.0
  0
ARC
  5
60A
  8
DETAIL
  6
CONTINUOUS
 10
-35.0
 20
1743.0
 30
0.0
 40
2.0
 50
180.0
 51
270.0
  0
LINE
  5
60B
  8
DETAIL
  6
CONTINUOUS
 10
35.000000000000028
 20
1741.0
 30
0.0
 11
0.000000000000025
 21
1741.0
 31
0.0
  0
LINE
  5
60C
  8
DETAIL
  6
CONTINUOUS
 10
-35.0
 20
1741.0
 30
0.0
 11
0.0
 21
1741.0
 31
0.0
  0
LINE
  5
60D
  8
DETAIL
  6
CONTINUOUS
 10
35.000000000000028
 20
1754.0
 30
0.0
 11
0.000000000000024
 21
1754.0
 31
0.0
  0
LINE
  5
60E
  8
DETAIL
  6
CONTINUOUS
 10
-35.0
 20
1754.0
 30
0.0
 11
0.0
 21
1754.0
 31
0.0
  0
LINE
  5
60F
  8
DETAIL
  6
CONTINUOUS
 10
37.000000000000007
 20
1851.0
 30
0.0
 11
37.000000000000007
 21
1743.0
 31
0.0
  0
LINE
  5
610
  8
DETAIL
  6
CONTINUOUS
 10
-37.0
 20
1851.0
 30
0.0
 11
-37.0
 21
1743.0
 31
0.0
  0
ARC
  5
611
  8
DETAIL
  6
CONTINUOUS
 10
36.00000000000005
 20
1745.0
 30
0.0
 40
6.0
 50
270.0
 51
0.0
  0
ARC
  5
612
  8
DETAIL
  6
CONTINUOUS
 10
-36.0
 20
1745.0
 30
0.0
 40
6.0
 50
180.0
 51
270.0
  0
LINE
  5
613
  8
DETAIL
  6
CONTINUOUS
 10
37.000000000000007
 20
1739.0
 30
0.0
 11
0.000000000000025
 21
1739.0
 31
0.0
  0
LINE
  5
614
  8
DETAIL
  6
CONTINUOUS
 10
-37.0
 20
1739.0
 30
0.0
 11
0.0
 21
1739.0
 31
0.0
  0
LINE
  5
615
  8
DETAIL
  6
CONTINUOUS
 10
37.000000000000007
 20
1851.0
 30
0.0
 11
0.000000000000012
 21
1851.0
 31
0.0
  0
LINE
  5
616
  8
DETAIL
  6
CONTINUOUS
 10
-37.0
 20
1851.0
 30
0.0
 11
0.0
 21
1851.0
 31
0.0
  0
ARC
  5
617
  8
DETAIL
  6
CONTINUOUS
 10
36.000000000000007
 20
1851.0
 30
0.0
 40
6.0
 50
0.0
 51
90.0
  0
ARC
  5
618
  8
DETAIL
  6
CONTINUOUS
 10
-36.0
 20
1851.0
 30
0.0
 40
6.0
 50
90.0
 51
180.0
  0
LINE
  5
619
  8
DETAIL
  6
CONTINUOUS
 10
42.000000000000007
 20
1851.0
 30
0.0
 11
42.000000000000007
 21
1745.0
 31
0.0
  0
LINE
  5
61A
  8
DETAIL
  6
CONTINUOUS
 10
-42.0
 20
1851.0
 30
0.0
 11
-42.0
 21
1745.0
 31
0.0
  0
LINE
  5
61B
  8
DETAIL
  6
CONTINUOUS
 10
37.000000000000007
 20
1857.0
 30
0.0
 11
0.000000000000011
 21
1857.0
 31
0.0
  0
LINE
  5
61C
  8
DETAIL
  6
CONTINUOUS
 10
-37.0
 20
1857.0
 30
0.0
 11
0.0
 21
1857.0
 31
0.0
  0
LINE
  5
61D
  8
DETAIL
  6
DASHED
 10
-42.150000000000013
 20
301.0
 30
0.0
 11
-42.149999999999963
 21
350.0
 31
0.0
  0
LINE
  5
61E
  8
DETAIL
  6
CONTINUOUS
 10
-63.850000000000001
 20
301.0
 30
0.0
 11
-63.850000000000001
 21
350.0
 31
0.0
  0
LINE
  5
61F
  8
DETAIL
  6
CONTINUOUS
 10
-42.150000000000013
 20
301.0
 30
0.0
 11
-63.850000000000001
 21
301.0
 31
0.0
  0
LINE
  5
620
  8
DETAIL
  6
CONTINUOUS
 10
-223.0
 20
1903.2
 30
0.0
 11
-361.80000000000001
 21
1903.2
 31
0.0
  0
LINE
  5
621
  8
DETAIL
  6
CONTINUOUS
 10
-223.0
 20
1900.0
 30
0.0
 11
-365.0
 21
1900.0
 31
0.0
  0
LINE
  5
622
  8
DETAIL
  6
CONTINUOUS
 10
-361.80000000000001
 20
1945.0
 30
0.0
 11
-365.0
 21
1945.0
 31
0.0
  0
LINE
  5
623
  8
DETAIL
  6
CONTINUOUS
 10
-361.80000000000001
 20
1903.2
 30
0.0
 11
-361.80000000000001
 21
1945.0
 31
0.0
  0
LINE
  5
624
  8
DETAIL
  6
CONTINUOUS
 10
-365.0
 20
1900.0
 30
0.0
 11
-365.0
 21
1945.0
 31
0.0
  0
LINE
  5
625
  8
DETAIL
  6
CONTINUOUS
 10
-365.0
 20
1900.0
 30
0.0
 11
-365.0
 21
1945.0
 31
0.0
  0
LINE
  5
626
  8
DETAIL
  6
CONTINUOUS
 10
-361.80000000000001
 20
1903.2
 30
0.0
 11
-361.80000000000001
 21
1945.0
 31
0.0
  0
LINE
  5
627
  8
DETAIL
  6
CONTINUOUS
 10
-363.80000000000001
 20
1945.0
 30
0.0
 11
-365.0
 21
1945.0
 31
0.0
  0
LINE
  5
628
  8
DETAIL
  6
CONTINUOUS
 10
-153.0
 20
1900.0
 30
0.0
 11
-365.0
 21
1900.0
 31
0.0
  0
LINE
  5
629
  8
DETAIL
  6
CONTINUOUS
 10
-151.80000000000001
 20
1903.2
 30
0.0
 11
-361.80000000000001
 21
1903.2
 31
0.0
  0
LINE
  5
62A
  8
DETAIL
  6
CONTINUOUS
 10
-151.80000000000001
 20
1903.2
 30
0.0
 11
-151.80000000000001
 21
1900.0
 31
0.0
  0
LINE
  5
62B
  8
DETAIL
  6
DASHED
 10
-163.0
 20
137.9999999999998
 30
0.0
 11
-117.0
 21
137.9999999999998
 31
0.0
  0
LINE
  5
62C
  8
DETAIL
  6
DASHED
 10
-163.0
 20
139.9999999999998
 30
0.0
 11
-163.0
 21
137.9999999999998
 31
0.0
  0
LINE
  5
62D
  8
DETAIL
  6
DASHED
 10
-151.99999999999631
 20
137.9999999999998
 30
0.0
 11
-151.99999999999631
 21
124.9999999999999
 31
0.0
  0
ARC
  5
62E
  8
DETAIL
  6
DASHED
 10
-140.00000000000361
 20
124.9999999999999
 30
0.0
 40
11.99999999999272
 50
180.0
 51
270.0
  0
LINE
  5
62F
  8
DETAIL
  6
DASHED
 10
-112.28718707889711
 20
112.9999999999999
 30
0.0
 11
-140.00000000000361
 21
112.9999999999999
 31
0.0
  0
LINE
  5
630
  8
DETAIL
  6
DASHED
 10
-112.28718707889711
 20
130.9999999999998
 30
0.0
 11
-127.0
 21
130.9999999999998
 31
0.0
  0
LINE
  5
631
  8
DETAIL
  6
DASHED
 10
-117.0
 20
139.9999999999998
 30
0.0
 11
-117.0
 21
137.9999999999998
 31
0.0
  0
ARC
  5
632
  8
DETAIL
  6
CONTINUOUS
 10
-127.0
 20
131.9999999999998
 30
0.0
 40
1.000000000000788
 50
180.00007194436921
 51
270.0
  0
LINE
  5
633
  8
DETAIL
  6
DASHED
 10
-128.0000000000035
 20
137.9999999999998
 30
0.0
 11
-128.0000000000035
 21
131.9999999999998
 31
0.0
  0
LINE
  5
634
  8
DETAIL
  6
CONTINUOUS
 10
-33.299999999999997
 20
150.0
 30
0.0
 11
-33.299999999999997
 21
0.0
 31
0.0
  0
LINE
  5
635
  8
DETAIL
  6
CONTINUOUS
 10
33.299999999999997
 20
150.0
 30
0.0
 11
33.299999999999997
 21
0.0
 31
0.0
  0
LINE
  5
636
  8
DETAIL
  6
CONTINUOUS
 10
33.299999999999997
 20
0.0
 30
0.0
 11
-33.299999999999997
 21
0.0
 31
0.0
  0
POLYLINE
  5
637
  8
DETAIL
  6
DASHED
 66
     1
 10
0.0
 20
0.0
 30
0.0
  0
VERTEX
  5
8FF
  8
DETAIL
  6
DASHED
 10
-112.28718707889711
 20
112.9999999999999
 30
0.0
  0
VERTEX
  5
900
  8
DETAIL
  6
DASHED
 10
-111.5404817755348
 20
113.1247690306266
 30
0.0
  0
VERTEX
  5
901
  8
DETAIL
  6
DASHED
 10
-110.81447996036469
 20
113.49561672006151
 30
0.0
  0
VERTEX
  5
902
  8
DETAIL
  6
DASHED
 10
-110.12931108732261
 20
114.1022607779221
 30
0.0
  0
VERTEX
  5
903
  8
DETAIL
  6
DASHED
 10
-109.5039724577652
 20
114.9278811173119
 30
0.0
  0
VERTEX
  5
904
  8
DETAIL
  6
DASHED
 10
-108.95580249272
 20
115.94958621613949
 30
0.0
  0
VERTEX
  5
905
  8
DETAIL
  6
DASHED
 10
-108.4999999999998
 20
117.1390478177898
 30
0.0
  0
SEQEND
  5
906
  8
DETAIL
  6
DASHED
  0
POLYLINE
  5
640
  8
DETAIL
  6
CONTINUOUS
 66
     1
 10
0.0
 20
0.0
 30
0.0
  0
VERTEX
  5
907
  8
DETAIL
  6
CONTINUOUS
 10
-108.9193107731261
 20
114.1495457928513
 30
0.0
  0
VERTEX
  5
908
  8
DETAIL
  6
CONTINUOUS
 10
-108.215550827915
 20
114.5626292792119
 30
0.0
  0
VERTEX
  5
909
  8
DETAIL
  6
CONTINUOUS
 10
-107.5613335877463
 20
115.2257653280751
 30
0.0
  0
VERTEX
  5
90A
  8
DETAIL
  6
CONTINUOUS
 10
-106.97865455391729
 20
116.1166585780115
 30
0.0
  0
VERTEX
  5
90B
  8
DETAIL
  6
CONTINUOUS
 10
-106.4871040347499
 20
117.2053562206392
 30
0.0
  0
VERTEX
  5
90C
  8
DETAIL
  6
CONTINUOUS
 10
-106.1032084979345
 20
118.4552550469011
 30
0.0
  0
VERTEX
  5
90D
  8
DETAIL
  6
CONTINUOUS
 10
-105.8398749325561
 20
119.8243320871067
 30
0.0
  0
VERTEX
  5
90E
  8
DETAIL
  6
CONTINUOUS
 10
-105.7059569019621
 20
121.2665574692731
 30
0.0
  0
VERTEX
  5
90F
  8
DETAIL
  6
CONTINUOUS
 10
-105.7059568772506
 20
122.7334419939164
 30
0.0
  0
VERTEX
  5
910
  8
DETAIL
  6
CONTINUOUS
 10
-105.8398748592523
 20
124.175667394131
 30
0.0
  0
VERTEX
  5
911
  8
DETAIL
  6
CONTINUOUS
 10
-106.1032083785031
 20
125.5447444698261
 30
0.0
  0
VERTEX
  5
912
  8
DETAIL
  6
CONTINUOUS
 10
-106.48710387320619
 20
126.7946433478256
 30
0.0
  0
VERTEX
  5
913
  8
DETAIL
  6
CONTINUOUS
 10
-106.9786543556925
 20
127.88334105669971
 30
0.0
  0
VERTEX
  5
914
  8
DETAIL
  6
CONTINUOUS
 10
-107.5613333595051
 20
128.77423438516379
 30
0.0
  0
VERTEX
  5
915
  8
DETAIL
  6
CONTINUOUS
 10
-108.2155505773311
 20
129.43737052219601
 30
0.0
  0
VERTEX
  5
916
  8
DETAIL
  6
CONTINUOUS
 10
-108.91931050862441
 20
129.8504541034024
 30
0.0
  0
SEQEND
  5
917
  8
DETAIL
  6
CONTINUOUS
  0
LINE
  5
652
  8
DETAIL
  6
DASHED
 10
-108.9193105086247
 20
129.85045410340251
 30
0.0
 11
-111.4211616751129
 21
130.83176086632781
 31
0.0
  0
LINE
  5
653
  8
DETAIL
  6
DASHED
 10
-108.9193105086247
 20
114.1495458965973
 30
0.0
 11
-111.4211616751129
 21
113.168239133672
 31
0.0
  0
LINE
  5
654
  8
DETAIL
  6
CONTINUOUS
 10
-108.4999999999997
 20
146.5000000000002
 30
0.0
 11
-108.4999999999997
 21
129.6383284414033
 31
0.0
  0
LINE
  5
655
  8
DETAIL
  6
CONTINUOUS
 10
-108.4999999999997
 20
114.3616715585965
 30
0.0
 11
-108.4999999999997
 21
0.0
 31
0.0
  0
LINE
  5
656
  8
DETAIL
  6
CONTINUOUS
 10
80.59999999999998
 20
110.0
 30
0.0
 11
80.600000000000051
 21
150.0
 31
0.0
  0
LINE
  5
657
  8
DETAIL
  6
CONTINUOUS
 10
53.400000000000013
 20
110.0
 30
0.0
 11
53.400000000000013
 21
150.0
 31
0.0
  0
LINE
  5
658
  8
DETAIL
  6
CONTINUOUS
 10
80.59999999999998
 20
110.0
 30
0.0
 11
53.400000000000013
 21
110.0
 31
0.0
  0
LINE
  5
659
  8
DETAIL
  6
DASHED
 10
-165.0
 20
139.9999999999998
 30
0.0
 11
-114.9999999999999
 21
139.9999999999998
 31
0.0
  0
LINE
  5
65A
  8
BASIS
  6
DASHDOT
 10
-2.0
 20
1932.0
 30
0.0
 11
-2.0
 21
-68.0
 31
0.0
  0
LINE
  5
65B
  8
SIZE
  6
CONTINUOUS
 62
    30
 10
-145.0
 20
281.0
 30
0.0
 11
-145.0
 21
-260.10000002384191
 31
0.0
  0
LINE
  5
65C
  8
SIZE
  6
CONTINUOUS
 62
    30
 10
-215.0
 20
140.0
 30
0.0
 11
-215.0
 21
-260.10000002384191
 31
0.0
  0
LINE
  5
65D
  8
SIZE
  6
CONTINUOUS
 62
    30
 10
-155.0
 20
-247.60000002384189
 30
0.0
 11
-205.0
 21
-247.60000002384189
 31
0.0
  0
CIRCLE
  5
65E
  8
SIZE
  6
CONTINUOUS
 62
    30
 10
-145.0
 20
-247.60000002384189
 30
0.0
 40
5.0
  0
LINE
  5
65F
  8
SIZE
  6
CONTINUOUS
 62
    30
 10
-145.0
 20
-247.60000002384189
 30
0.0
 11
-155.0
 21
-247.60000002384189
 31
0.0
  0
CIRCLE
  5
660
  8
SIZE
  6
CONTINUOUS
 62
    30
 10
-215.0
 20
-247.60000002384189
 30
0.0
 40
5.0
  0
LINE
  5
661
  8
SIZE
  6
CONTINUOUS
 62
    30
 10
-215.0
 20
-247.60000002384189
 30
0.0
 11
-205.0
 21
-247.60000002384189
 31
0.0
  0
TEXT
  5
662
  8
SIZE
  6
CONTINUOUS
 62
    30
 10
-202.500000061196
 20
-237.6000000238418
 30
0.0
 40
30.0
  1
70
 72
     1
 11
-180.000000061196
 21
-237.6000000238418
 31
0.0
  0
POINT
  5
663
  8
DEFPOINTS
  6
CONTINUOUS
 62
    30
 10
-145.0
 20
291.0
 30
0.0
  0
POINT
  5
664
  8
DEFPOINTS
  6
CONTINUOUS
 62
    30
 10
-215.0
 20
150.0
 30
0.0
  0
POINT
  5
665
  8
DEFPOINTS
  6
CONTINUOUS
 62
    30
 10
-215.0
 20
-247.60000002384189
 30
0.0
  0
LINE
  5
666
  8
SIZE
  6
CONTINUOUS
 62
    30
 10
-175.0
 20
311.0
 30
0.0
 11
-529.89999997615791
 21
311.00000000000011
 31
0.0
  0
LINE
  5
667
  8
SIZE
  6
CONTINUOUS
 62
    30
 10
-191.5
 20
-0.0000000000000542
 30
0.0
 11
-529.89999997615803
 21
0.0000000000000417
 31
0.0
  0
LINE
  5
668
  8
SIZE
  6
CONTINUOUS
 62
    30
 10
-517.39999997615791
 20
301.00000000000011
 30
0.0
 11
-517.39999997615803
 21
10.000000000000041
 31
0.0
  0
CIRCLE
  5
669
  8
SIZE
  6
CONTINUOUS
 62
    30
 10
-517.39999997615791
 20
311.00000000000011
 30
0.0
 40
5.0
  0
LINE
  5
66A
  8
SIZE
  6
CONTINUOUS
 62
    30
 10
-517.39999997615791
 20
311.00000000000011
 30
0.0
 11
-517.39999997615791
 21
301.00000000000011
 31
0.0
  0
CIRCLE
  5
66B
  8
SIZE
  6
CONTINUOUS
 62
    30
 10
-517.39999997615803
 20
0.0000000000000382
 30
0.0
 40
5.0
  0
LINE
  5
66C
  8
SIZE
  6
CONTINUOUS
 62
    30
 10
-517.39999997615803
 20
0.0000000000000382
 30
0.0
 11
-517.39999997615803
 21
10.000000000000041
 31
0.0
  0
TEXT
  5
66D
  8
SIZE
  6
CONTINUOUS
 62
    30
 10
-527.39999997615803
 20
125.499999877608
 30
0.0
 40
30.0
  1
311
 50
90.0
 72
     1
 11
-527.39999997615803
 21
155.49999987760799
 31
0.0
  0
POINT
  5
66E
  8
DEFPOINTS
  6
CONTINUOUS
 62
    30
 10
-165.0
 20
311.0
 30
0.0
  0
POINT
  5
66F
  8
DEFPOINTS
  6
CONTINUOUS
 62
    30
 10
-181.5
 20
-0.000000000000057
 30
0.0
  0
POINT
  5
670
  8
DEFPOINTS
  6
CONTINUOUS
 62
    30
 10
-517.39999997615803
 20
0.0000000000000382
 30
0.0
  0
LINE
  5
671
  8
SIZE
  6
CONTINUOUS
 62
    30
 10
78.0
 20
276.0
 30
0.0
 11
675.10000002384197
 21
275.99999999999972
 31
0.0
  0
LINE
  5
672
  8
SIZE
  6
CONTINUOUS
 62
    30
 10
525.0
 20
-0.0000000000000028
 30
0.0
 11
675.10000002384174
 21
-0.0000000000000454
 31
0.0
  0
LINE
  5
673
  8
SIZE
  6
CONTINUOUS
 62
    30
 10
662.60000002384174
 20
265.99999999999972
 30
0.0
 11
662.60000002384174
 21
9.9999999999999556
 31
0.0
  0
CIRCLE
  5
674
  8
SIZE
  6
CONTINUOUS
 62
    30
 10
662.60000002384174
 20
275.99999999999972
 30
0.0
 40
5.0
  0
LINE
  5
675
  8
SIZE
  6
CONTINUOUS
 62
    30
 10
662.60000002384174
 20
275.99999999999972
 30
0.0
 11
662.60000002384174
 21
265.99999999999972
 31
0.0
  0
CIRCLE
  5
676
  8
SIZE
  6
CONTINUOUS
 62
    30
 10
662.60000002384174
 20
-0.0000000000000418
 30
0.0
 40
5.0
  0
LINE
  5
677
  8
SIZE
  6
CONTINUOUS
 62
    30
 10
662.60000002384174
 20
-0.0000000000000418
 30
0.0
 11
662.60000002384174
 21
9.9999999999999556
 31
0.0
  0
TEXT
  5
678
  8
SIZE
  6
CONTINUOUS
 62
    30
 10
652.60000002384174
 20
97.999999877607991
 30
0.0
 40
30.0
  1
276
 50
90.0
 72
     1
 11
652.60000002384174
 21
137.99999987760799
 31
0.0
  0
POINT
  5
679
  8
DEFPOINTS
  6
CONTINUOUS
 62
    30
 10
68.0
 20
276.0
 30
0.0
  0
POINT
  5
67A
  8
DEFPOINTS
  6
CONTINUOUS
 62
    30
 10
515.0
 20
0.0
 30
0.0
  0
POINT
  5
67B
  8
DEFPOINTS
  6
CONTINUOUS
 62
    30
 10
662.60000002384174
 20
-0.0000000000000418
 30
0.0
  0
LINE
  5
67C
  8
SIZE
  6
CONTINUOUS
 62
    30
 10
48.0
 20
244.0
 30
0.0
 11
47.999999999999929
 21
-663.12130129337322
 31
0.0
  0
LINE
  5
67D
  8
SIZE
  6
CONTINUOUS
 62
    30
 10
-215.0
 20
140.0
 30
0.0
 11
-215.00000000000011
 21
-663.12130129337322
 31
0.0
  0
LINE
  5
67E
  8
SIZE
  6
CONTINUOUS
 62
    30
 10
37.999999999999943
 20
-650.62130129337322
 30
0.0
 11
-205.00000000000011
 21
-650.62130129337322
 31
0.0
  0
CIRCLE
  5
67F
  8
SIZE
  6
CONTINUOUS
 62
    30
 10
47.999999999999929
 20
-650.62130129337322
 30
0.0
 40
5.0
  0
LINE
  5
680
  8
SIZE
  6
CONTINUOUS
 62
    30
 10
47.999999999999929
 20
-650.62130129337322
 30
0.0
 11
37.999999999999943
 21
-650.62130129337322
 31
0.0
  0
CIRCLE
  5
681
  8
SIZE
  6
CONTINUOUS
 62
    30
 10
-215.00000000000011
 20
-650.62130129337322
 30
0.0
 40
5.0
  0
LINE
  5
682
  8
SIZE
  6
CONTINUOUS
 62
    30
 10
-215.00000000000011
 20
-650.62130129337322
 30
0.0
 11
-205.00000000000011
 21
-650.62130129337322
 31
0.0
  0
TEXT
  5
683
  8
SIZE
  6
CONTINUOUS
 62
    30
 10
-123.50000006119591
 20
-640.62130129337322
 30
0.0
 40
30.0
  1
263
 72
     1
 11
-83.500000061195905
 21
-640.62130129337322
 31
0.0
  0
POINT
  5
684
  8
DEFPOINTS
  6
CONTINUOUS
 62
    30
 10
48.0
 20
254.0
 30
0.0
  0
POINT
  5
685
  8
DEFPOINTS
  6
CONTINUOUS
 62
    30
 10
-215.0
 20
150.0
 30
0.0
  0
POINT
  5
686
  8
DEFPOINTS
  6
CONTINUOUS
 62
    30
 10
-215.00000000000011
 20
-650.62130129337322
 30
0.0
  0
LINE
  5
687
  8
SIZE
  6
CONTINUOUS
 62
    30
 10
-215.0
 20
140.0
 30
0.0
 11
-215.00000000000011
 21
-860.10000002384174
 31
0.0
  0
LINE
  5
688
  8
SIZE
  6
CONTINUOUS
 62
    30
 10
107.0
 20
271.0
 30
0.0
 11
106.9999999999999
 21
-860.10000002384174
 31
0.0
  0
LINE
  5
689
  8
SIZE
  6
CONTINUOUS
 62
    30
 10
-205.00000000000011
 20
-847.60000002384174
 30
0.0
 11
96.999999999999943
 21
-847.60000002384174
 31
0.0
  0
CIRCLE
  5
68A
  8
SIZE
  6
CONTINUOUS
 62
    30
 10
-215.00000000000011
 20
-847.60000002384174
 30
0.0
 40
5.0
  0
LINE
  5
68B
  8
SIZE
  6
CONTINUOUS
 62
    30
 10
-215.00000000000011
 20
-847.60000002384174
 30
0.0
 11
-205.00000000000011
 21
-847.60000002384174
 31
0.0
  0
CIRCLE
  5
68C
  8
SIZE
  6
CONTINUOUS
 62
    30
 10
106.9999999999999
 20
-847.60000002384174
 30
0.0
 40
5.0
  0
LINE
  5
68D
  8
SIZE
  6
CONTINUOUS
 62
    30
 10
106.9999999999999
 20
-847.60000002384174
 30
0.0
 11
96.999999999999901
 21
-847.60000002384174
 31
0.0
  0
TEXT
  5
68E
  8
SIZE
  6
CONTINUOUS
 62
    30
 10
-94.000000061195934
 20
-837.60000002384163
 30
0.0
 40
30.0
  1
322
 72
     1
 11
-54.000000061195941
 21
-837.60000002384163
 31
0.0
  0
POINT
  5
68F
  8
DEFPOINTS
  6
CONTINUOUS
 62
    30
 10
-215.0
 20
150.0
 30
0.0
  0
POINT
  5
690
  8
DEFPOINTS
  6
CONTINUOUS
 62
    30
 10
107.0
 20
281.0
 30
0.0
  0
POINT
  5
691
  8
DEFPOINTS
  6
CONTINUOUS
 62
    30
 10
106.9999999999999
 20
-847.60000002384174
 30
0.0
  0
LINE
  5
692
  8
SIZE
  6
CONTINUOUS
 62
    30
 10
-215.0
 20
140.0
 30
0.0
 11
-215.00000000000011
 21
-760.10000002384174
 31
0.0
  0
LINE
  5
693
  8
SIZE
  6
CONTINUOUS
 62
    30
 10
67.0
 20
80.0
 30
0.0
 11
66.999999999999929
 21
-760.10000002384174
 31
0.0
  0
LINE
  5
694
  8
SIZE
  6
CONTINUOUS
 62
    30
 10
-205.00000000000011
 20
-747.60000002384174
 30
0.0
 11
56.999999999999929
 21
-747.60000002384174
 31
0.0
  0
CIRCLE
  5
695
  8
SIZE
  6
CONTINUOUS
 62
    30
 10
-215.00000000000011
 20
-747.60000002384174
 30
0.0
 40
5.0
  0
LINE
  5
696
  8
SIZE
  6
CONTINUOUS
 62
    30
 10
-215.00000000000011
 20
-747.60000002384174
 30
0.0
 11
-205.00000000000011
 21
-747.60000002384174
 31
0.0
  0
CIRCLE
  5
697
  8
SIZE
  6
CONTINUOUS
 62
    30
 10
66.999999999999929
 20
-747.60000002384174
 30
0.0
 40
5.0
  0
LINE
  5
698
  8
SIZE
  6
CONTINUOUS
 62
    30
 10
66.999999999999929
 20
-747.60000002384174
 30
0.0
 11
56.999999999999929
 21
-747.60000002384174
 31
0.0
  0
TEXT
  5
699
  8
SIZE
  6
CONTINUOUS
 62
    30
 10
-114.00000006119591
 20
-737.60000002384174
 30
0.0
 40
30.0
  1
282
 72
     1
 11
-74.000000061195934
 21
-737.60000002384174
 31
0.0
  0
POINT
  5
69A
  8
DEFPOINTS
  6
CONTINUOUS
 62
    30
 10
-215.0
 20
150.0
 30
0.0
  0
POINT
  5
69B
  8
DEFPOINTS
  6
CONTINUOUS
 62
    30
 10
67.0
 20
90.0
 30
0.0
  0
POINT
  5
69C
  8
DEFPOINTS
  6
CONTINUOUS
 62
    30
 10
66.999999999999929
 20
-747.60000002384174
 30
0.0
  0
LINE
  5
69D
  8
SIZE
  6
CONTINUOUS
 62
    30
 10
-145.0
 20
-30.0
 30
0.0
 11
-145.0
 21
-1060.1000000238421
 31
0.0
  0
LINE
  5
69E
  8
SIZE
  6
CONTINUOUS
 62
    30
 10
-215.0
 20
140.0
 30
0.0
 11
-215.00000000000011
 21
-1060.1000000238421
 31
0.0
  0
LINE
  5
69F
  8
SIZE
  6
CONTINUOUS
 62
    30
 10
-155.0
 20
-1047.6000000238421
 30
0.0
 11
-205.00000000000011
 21
-1047.6000000238421
 31
0.0
  0
CIRCLE
  5
6A0
  8
SIZE
  6
CONTINUOUS
 62
    30
 10
-145.0
 20
-1047.6000000238421
 30
0.0
 40
5.0
  0
LINE
  5
6A1
  8
SIZE
  6
CONTINUOUS
 62
    30
 10
-145.0
 20
-1047.6000000238421
 30
0.0
 11
-155.0
 21
-1047.6000000238421
 31
0.0
  0
CIRCLE
  5
6A2
  8
SIZE
  6
CONTINUOUS
 62
    30
 10
-215.00000000000011
 20
-1047.6000000238421
 30
0.0
 40
5.0
  0
LINE
  5
6A3
  8
SIZE
  6
CONTINUOUS
 62
    30
 10
-215.00000000000011
 20
-1047.6000000238421
 30
0.0
 11
-205.00000000000011
 21
-1047.6000000238421
 31
0.0
  0
TEXT
  5
6A4
  8
SIZE
  6
CONTINUOUS
 62
    30
 10
-202.500000061196
 20
-1037.6000000238409
 30
0.0
 40
30.0
  1
70
 72
     1
 11
-180.000000061196
 21
-1037.6000000238409
 31
0.0
  0
POINT
  5
6A5
  8
DEFPOINTS
  6
CONTINUOUS
 62
    30
 10
-145.0
 20
-20.0
 30
0.0
  0
POINT
  5
6A6
  8
DEFPOINTS
  6
CONTINUOUS
 62
    30
 10
-215.0
 20
150.0
 30
0.0
  0
POINT
  5
6A7
  8
DEFPOINTS
  6
CONTINUOUS
 62
    30
 10
-215.00000000000011
 20
-1047.6000000238421
 30
0.0
  0
LINE
  5
6A8
  8
SIZE
  6
CONTINUOUS
 62
    30
 10
-215.0
 20
140.0
 30
0.0
 11
-215.0
 21
-460.10000002384191
 31
0.0
  0
LINE
  5
6A9
  8
SIZE
  6
CONTINUOUS
 62
    30
 10
-53.0
 20
271.0
 30
0.0
 11
-53.000000000000043
 21
-460.10000002384191
 31
0.0
  0
LINE
  5
6AA
  8
SIZE
  6
CONTINUOUS
 62
    30
 10
-205.0
 20
-447.6000000238418
 30
0.0
 11
-63.000000000000043
 21
-447.6000000238418
 31
0.0
  0
CIRCLE
  5
6AB
  8
SIZE
  6
CONTINUOUS
 62
    30
 10
-215.0
 20
-447.6000000238418
 30
0.0
 40
5.0
  0
LINE
  5
6AC
  8
SIZE
  6
CONTINUOUS
 62
    30
 10
-215.0
 20
-447.6000000238418
 30
0.0
 11
-205.0
 21
-447.6000000238418
 31
0.0
  0
CIRCLE
  5
6AD
  8
SIZE
  6
CONTINUOUS
 62
    30
 10
-53.000000000000043
 20
-447.6000000238418
 30
0.0
 40
5.0
  0
LINE
  5
6AE
  8
SIZE
  6
CONTINUOUS
 62
    30
 10
-53.000000000000043
 20
-447.6000000238418
 30
0.0
 11
-63.000000000000043
 21
-447.6000000238418
 31
0.0
  0
TEXT
  5
6AF
  8
SIZE
  6
CONTINUOUS
 62
    30
 10
-169.00000006119581
 20
-437.6000000238418
 30
0.0
 40
30.0
  1
162
 72
     1
 11
-134.00000006119581
 21
-437.6000000238418
 31
0.0
  0
POINT
  5
6B0
  8
DEFPOINTS
  6
CONTINUOUS
 62
    30
 10
-215.0
 20
150.0
 30
0.0
  0
POINT
  5
6B1
  8
DEFPOINTS
  6
CONTINUOUS
 62
    30
 10
-53.0
 20
281.0
 30
0.0
  0
POINT
  5
6B2
  8
DEFPOINTS
  6
CONTINUOUS
 62
    30
 10
-53.000000000000043
 20
-447.6000000238418
 30
0.0
  0
LINE
  5
6B3
  8
SIZE
  6
CONTINUOUS
 62
    30
 10
-215.0
 20
140.0
 30
0.0
 11
-215.0
 21
-360.1000000238418
 31
0.0
  0
LINE
  5
6B4
  8
SIZE
  6
CONTINUOUS
 62
    30
 10
-111.0
 20
320.0
 30
0.0
 11
-111.0
 21
-360.10000002384191
 31
0.0
  0
LINE
  5
6B5
  8
SIZE
  6
CONTINUOUS
 62
    30
 10
-205.0
 20
-347.6000000238418
 30
0.0
 11
-121.0
 21
-347.6000000238418
 31
0.0
  0
CIRCLE
  5
6B6
  8
SIZE
  6
CONTINUOUS
 62
    30
 10
-215.0
 20
-347.6000000238418
 30
0.0
 40
5.0
  0
LINE
  5
6B7
  8
SIZE
  6
CONTINUOUS
 62
    30
 10
-215.0
 20
-347.6000000238418
 30
0.0
 11
-205.0
 21
-347.6000000238418
 31
0.0
  0
CIRCLE
  5
6B8
  8
SIZE
  6
CONTINUOUS
 62
    30
 10
-111.0
 20
-347.6000000238418
 30
0.0
 40
5.0
  0
LINE
  5
6B9
  8
SIZE
  6
CONTINUOUS
 62
    30
 10
-111.0
 20
-347.6000000238418
 30
0.0
 11
-121.0
 21
-347.6000000238418
 31
0.0
  0
TEXT
  5
6BA
  8
SIZE
  6
CONTINUOUS
 62
    30
 10
-195.50000006119589
 20
-337.6000000238418
 30
0.0
 40
30.0
  1
104
 72
     1
 11
-163.00000006119589
 21
-337.6000000238418
 31
0.0
  0
POINT
  5
6BB
  8
DEFPOINTS
  6
CONTINUOUS
 62
    30
 10
-215.0
 20
150.0
 30
0.0
  0
POINT
  5
6BC
  8
DEFPOINTS
  6
CONTINUOUS
 62
    30
 10
-111.0
 20
330.0
 30
0.0
  0
POINT
  5
6BD
  8
DEFPOINTS
  6
CONTINUOUS
 62
    30
 10
-111.0
 20
-347.6000000238418
 30
0.0
  0
LINE
  5
6BE
  8
SIZE
  6
CONTINUOUS
 62
    30
 10
-191.5
 20
-0.0000000000000542
 30
0.0
 11
-429.89999997615809
 21
0.0000000000000134
 31
0.0
  0
LINE
  5
6BF
  8
SIZE
  6
CONTINUOUS
 62
    30
 10
-57.0
 20
301.0
 30
0.0
 11
-429.89999997615791
 21
301.00000000000011
 31
0.0
  0
LINE
  5
6C0
  8
SIZE
  6
CONTINUOUS
 62
    30
 10
-417.39999997615809
 20
10.000000000000011
 30
0.0
 11
-417.39999997615791
 21
291.00000000000011
 31
0.0
  0
CIRCLE
  5
6C1
  8
SIZE
  6
CONTINUOUS
 62
    30
 10
-417.39999997615809
 20
0.0000000000000098
 30
0.0
 40
5.0
  0
LINE
  5
6C2
  8
SIZE
  6
CONTINUOUS
 62
    30
 10
-417.39999997615809
 20
0.0000000000000098
 30
0.0
 11
-417.39999997615809
 21
10.000000000000011
 31
0.0
  0
CIRCLE
  5
6C3
  8
SIZE
  6
CONTINUOUS
 62
    30
 10
-417.39999997615791
 20
301.00000000000011
 30
0.0
 40
5.0
  0
LINE
  5
6C4
  8
SIZE
  6
CONTINUOUS
 62
    30
 10
-417.39999997615791
 20
301.00000000000011
 30
0.0
 11
-417.39999997615791
 21
291.00000000000011
 31
0.0
  0
TEXT
  5
6C5
  8
SIZE
  6
CONTINUOUS
 62
    30
 10
-427.39999997615803
 20
117.999999877608
 30
0.0
 40
30.0
  1
301
 50
90.0
 72
     1
 11
-427.39999997615803
 21
150.49999987760799
 31
0.0
  0
POINT
  5
6C6
  8
DEFPOINTS
  6
CONTINUOUS
 62
    30
 10
-181.5
 20
-0.000000000000057
 30
0.0
  0
POINT
  5
6C7
  8
DEFPOINTS
  6
CONTINUOUS
 62
    30
 10
-47.0
 20
301.0
 30
0.0
  0
POINT
  5
6C8
  8
DEFPOINTS
  6
CONTINUOUS
 62
    30
 10
-417.39999997615791
 20
301.00000000000011
 30
0.0
  0
LINE
  5
6C9
  8
SIZE
  6
CONTINUOUS
 62
    30
 10
137.0
 20
300.99999999999989
 30
0.0
 11
775.10000002384174
 21
300.99999999999972
 31
0.0
  0
LINE
  5
6CA
  8
SIZE
  6
CONTINUOUS
 62
    30
 10
525.0
 20
-0.0000000000000028
 30
0.0
 11
775.10000002384174
 21
-0.0000000000000737
 31
0.0
  0
LINE
  5
6CB
  8
SIZE
  6
CONTINUOUS
 62
    30
 10
762.60000002384174
 20
290.99999999999972
 30
0.0
 11
762.60000002384174
 21
9.9999999999999272
 31
0.0
  0
CIRCLE
  5
6CC
  8
SIZE
  6
CONTINUOUS
 62
    30
 10
762.60000002384174
 20
300.99999999999972
 30
0.0
 40
5.0
  0
LINE
  5
6CD
  8
SIZE
  6
CONTINUOUS
 62
    30
 10
762.60000002384174
 20
300.99999999999972
 30
0.0
 11
762.60000002384174
 21
290.99999999999972
 31
0.0
  0
CIRCLE
  5
6CE
  8
SIZE
  6
CONTINUOUS
 62
    30
 10
762.60000002384174
 20
-0.0000000000000701
 30
0.0
 40
5.0
  0
LINE
  5
6CF
  8
SIZE
  6
CONTINUOUS
 62
    30
 10
762.60000002384174
 20
-0.0000000000000701
 30
0.0
 11
762.60000002384174
 21
9.9999999999999272
 31
0.0
  0
TEXT
  5
6D0
  8
SIZE
  6
CONTINUOUS
 62
    30
 10
752.60000002384174
 20
117.999999877608
 30
0.0
 40
30.0
  1
301
 50
90.0
 72
     1
 11
752.60000002384174
 21
150.49999987760799
 31
0.0
  0
POINT
  5
6D1
  8
DEFPOINTS
  6
CONTINUOUS
 62
    30
 10
127.0
 20
301.0
 30
0.0
  0
POINT
  5
6D2
  8
DEFPOINTS
  6
CONTINUOUS
 62
    30
 10
515.0
 20
0.0
 30
0.0
  0
POINT
  5
6D3
  8
DEFPOINTS
  6
CONTINUOUS
 62
    30
 10
762.60000002384174
 20
-0.0000000000000701
 30
0.0
  0
LINE
  5
6D4
  8
SIZE
  6
CONTINUOUS
 62
    30
 10
-215.0
 20
140.0
 30
0.0
 11
-215.00000000000011
 21
-960.1000000238414
 31
0.0
  0
LINE
  5
6D5
  8
SIZE
  6
CONTINUOUS
 62
    30
 10
167.0
 20
271.0
 30
0.0
 11
166.9999999999998
 21
-960.1000000238414
 31
0.0
  0
LINE
  5
6D6
  8
SIZE
  6
CONTINUOUS
 62
    30
 10
-205.00000000000011
 20
-947.6000000238414
 30
0.0
 11
156.9999999999998
 21
-947.6000000238414
 31
0.0
  0
CIRCLE
  5
6D7
  8
SIZE
  6
CONTINUOUS
 62
    30
 10
-215.00000000000011
 20
-947.6000000238414
 30
0.0
 40
5.0
  0
LINE
  5
6D8
  8
SIZE
  6
CONTINUOUS
 62
    30
 10
-215.00000000000011
 20
-947.6000000238414
 30
0.0
 11
-205.00000000000011
 21
-947.6000000238414
 31
0.0
  0
CIRCLE
  5
6D9
  8
SIZE
  6
CONTINUOUS
 62
    30
 10
166.9999999999998
 20
-947.6000000238414
 30
0.0
 40
5.0
  0
LINE
  5
6DA
  8
SIZE
  6
CONTINUOUS
 62
    30
 10
166.9999999999998
 20
-947.6000000238414
 30
0.0
 11
156.9999999999998
 21
-947.6000000238414
 31
0.0
  0
TEXT
  5
6DB
  8
SIZE
  6
CONTINUOUS
 62
    30
 10
-64.000000061195934
 20
-937.6000000238414
 30
0.0
 40
30.0
  1
382
 72
     1
 11
-24.000000061195951
 21
-937.6000000238414
 31
0.0
  0
POINT
  5
6DC
  8
DEFPOINTS
  6
CONTINUOUS
 62
    30
 10
-215.0
 20
150.0
 30
0.0
  0
POINT
  5
6DD
  8
DEFPOINTS
  6
CONTINUOUS
 62
    30
 10
167.0
 20
281.0
 30
0.0
  0
POINT
  5
6DE
  8
DEFPOINTS
  6
CONTINUOUS
 62
    30
 10
166.9999999999998
 20
-947.6000000238414
 30
0.0
  0
LINE
  5
6DF
  8
SIZE
  6
CONTINUOUS
 62
    30
 10
-215.0
 20
140.0
 30
0.0
 11
-215.00000000000011
 21
-560.10000002384174
 31
0.0
  0
LINE
  5
6E0
  8
SIZE
  6
CONTINUOUS
 62
    30
 10
-27.0
 20
271.0
 30
0.0
 11
-27.00000000000005
 21
-560.10000002384174
 31
0.0
  0
LINE
  5
6E1
  8
SIZE
  6
CONTINUOUS
 62
    30
 10
-205.00000000000011
 20
-547.60000002384174
 30
0.0
 11
-37.00000000000005
 21
-547.60000002384174
 31
0.0
  0
CIRCLE
  5
6E2
  8
SIZE
  6
CONTINUOUS
 62
    30
 10
-215.00000000000011
 20
-547.60000002384174
 30
0.0
 40
5.0
  0
LINE
  5
6E3
  8
SIZE
  6
CONTINUOUS
 62
    30
 10
-215.00000000000011
 20
-547.60000002384174
 30
0.0
 11
-205.00000000000011
 21
-547.60000002384174
 31
0.0
  0
CIRCLE
  5
6E4
  8
SIZE
  6
CONTINUOUS
 62
    30
 10
-27.00000000000005
 20
-547.60000002384174
 30
0.0
 40
5.0
  0
LINE
  5
6E5
  8
SIZE
  6
CONTINUOUS
 62
    30
 10
-27.00000000000005
 20
-547.60000002384174
 30
0.0
 11
-37.00000000000005
 21
-547.60000002384174
 31
0.0
  0
TEXT
  5
6E6
  8
SIZE
  6
CONTINUOUS
 62
    30
 10
-156.00000006119589
 20
-537.60000002384174
 30
0.0
 40
30.0
  1
188
 72
     1
 11
-121.00000006119591
 21
-537.60000002384174
 31
0.0
  0
POINT
  5
6E7
  8
DEFPOINTS
  6
CONTINUOUS
 62
    30
 10
-215.0
 20
150.0
 30
0.0
  0
POINT
  5
6E8
  8
DEFPOINTS
  6
CONTINUOUS
 62
    30
 10
-27.0
 20
281.0
 30
0.0
  0
POINT
  5
6E9
  8
DEFPOINTS
  6
CONTINUOUS
 62
    30
 10
-27.00000000000005
 20
-547.60000002384174
 30
0.0
  0
LINE
  5
6EA
  8
SIZE
  6
CONTINUOUS
 62
    30
 10
-178.0
 20
320.0
 30
0.0
 11
-178.0
 21
-160.1000000238418
 31
0.0
  0
LINE
  5
6EB
  8
SIZE
  6
CONTINUOUS
 62
    30
 10
-215.0
 20
140.0
 30
0.0
 11
-215.0
 21
-160.1000000238418
 31
0.0
  0
LINE
  5
6EC
  8
SIZE
  6
CONTINUOUS
 62
    30
 10
-168.0
 20
-147.60000002384189
 30
0.0
 11
-158.0
 21
-147.60000002384189
 31
0.0
  0
LINE
  5
6ED
  8
SIZE
  6
CONTINUOUS
 62
    30
 10
-225.0
 20
-147.60000002384189
 30
0.0
 11
-319.38375860611779
 21
-147.60000002384189
 31
0.0
  0
LINE
  5
6EE
  8
SIZE
  6
CONTINUOUS
 62
    30
 10
-178.0
 20
-147.60000002384189
 30
0.0
 11
-215.0
 21
-147.60000002384189
 31
0.0
  0
CIRCLE
  5
6EF
  8
SIZE
  6
CONTINUOUS
 62
    30
 10
-178.0
 20
-147.60000002384189
 30
0.0
 40
5.0
  0
LINE
  5
6F0
  8
SIZE
  6
CONTINUOUS
 62
    30
 10
-178.0
 20
-147.60000002384189
 30
0.0
 11
-168.0
 21
-147.60000002384189
 31
0.0
  0
CIRCLE
  5
6F1
  8
SIZE
  6
CONTINUOUS
 62
    30
 10
-215.0
 20
-147.60000002384189
 30
0.0
 40
5.0
  0
LINE
  5
6F2
  8
SIZE
  6
CONTINUOUS
 62
    30
 10
-215.0
 20
-147.60000002384189
 30
0.0
 11
-225.0
 21
-147.60000002384189
 31
0.0
  0
TEXT
  5
6F3
  8
SIZE
  6
CONTINUOUS
 62
    30
 10
-309.38375860611768
 20
-137.60000002384189
 30
0.0
 40
30.0
  1
37
 72
     1
 11
-284.38375860611768
 21
-137.60000002384189
 31
0.0
  0
POINT
  5
6F4
  8
DEFPOINTS
  6
CONTINUOUS
 62
    30
 10
-178.0
 20
330.0
 30
0.0
  0
POINT
  5
6F5
  8
DEFPOINTS
  6
CONTINUOUS
 62
    30
 10
-215.0
 20
150.0
 30
0.0
  0
POINT
  5
6F6
  8
DEFPOINTS
  6
CONTINUOUS
 62
    30
 10
-215.0
 20
-147.60000002384189
 30
0.0
  0
LINE
  5
6F7
  8
SIZE
  6
CONTINUOUS
 62
    30
 10
-215.0
 20
2110.0
 30
0.0
 11
-215.0
 21
2264.8204101324081
 31
0.0
  0
LINE
  5
6F8
  8
SIZE
  6
CONTINUOUS
 62
    30
 10
-365.0
 20
1955.0
 30
0.0
 11
-365.0
 21
2264.8204101324081
 31
0.0
  0
LINE
  5
6F9
  8
SIZE
  6
CONTINUOUS
 62
    30
 10
-225.0
 20
2252.3204101324091
 30
0.0
 11
-355.0
 21
2252.3204101324091
 31
0.0
  0
CIRCLE
  5
6FA
  8
SIZE
  6
CONTINUOUS
 62
    30
 10
-215.0
 20
2252.3204101324091
 30
0.0
 40
5.0
  0
LINE
  5
6FB
  8
SIZE
  6
CONTINUOUS
 62
    30
 10
-215.0
 20
2252.3204101324091
 30
0.0
 11
-225.0
 21
2252.3204101324091
 31
0.0
  0
CIRCLE
  5
6FC
  8
SIZE
  6
CONTINUOUS
 62
    30
 10
-365.0
 20
2252.3204101324091
 30
0.0
 40
5.0
  0
LINE
  5
6FD
  8
SIZE
  6
CONTINUOUS
 62
    30
 10
-365.0
 20
2252.3204101324091
 30
0.0
 11
-355.0
 21
2252.3204101324091
 31
0.0
  0
TEXT
  5
6FE
  8
SIZE
  6
CONTINUOUS
 62
    30
 10
-322.50000006119592
 20
2262.3204101324081
 30
0.0
 40
30.0
  1
150
 72
     1
 11
-290.00000006119592
 21
2262.3204101324081
 31
0.0
  0
POINT
  5
6FF
  8
DEFPOINTS
  6
CONTINUOUS
 62
    30
 10
-215.0
 20
2100.0
 30
0.0
  0
POINT
  5
700
  8
DEFPOINTS
  6
CONTINUOUS
 62
    30
 10
-365.0
 20
1945.0
 30
0.0
  0
POINT
  5
701
  8
DEFPOINTS
  6
CONTINUOUS
 62
    30
 10
-365.0
 20
2252.3204101324091
 30
0.0
  0
LINE
  5
702
  8
SIZE
  6
CONTINUOUS
 62
    30
 10
145.0
 20
-30.0
 30
0.0
 11
144.9999999999998
 21
-1060.1000000238421
 31
0.0
  0
LINE
  5
703
  8
SIZE
  6
CONTINUOUS
 62
    30
 10
-145.0
 20
-30.0
 30
0.0
 11
-145.0
 21
-1060.1000000238421
 31
0.0
  0
LINE
  5
704
  8
SIZE
  6
CONTINUOUS
 62
    30
 10
134.9999999999998
 20
-1047.6000000238421
 30
0.0
 11
-135.0
 21
-1047.6000000238421
 31
0.0
  0
CIRCLE
  5
705
  8
SIZE
  6
CONTINUOUS
 62
    30
 10
144.9999999999998
 20
-1047.6000000238421
 30
0.0
 40
5.0
  0
LINE
  5
706
  8
SIZE
  6
CONTINUOUS
 62
    30
 10
144.9999999999998
 20
-1047.6000000238421
 30
0.0
 11
134.9999999999998
 21
-1047.6000000238421
 31
0.0
  0
CIRCLE
  5
707
  8
SIZE
  6
CONTINUOUS
 62
    30
 10
-145.0
 20
-1047.6000000238421
 30
0.0
 40
5.0
  0
LINE
  5
708
  8
SIZE
  6
CONTINUOUS
 62
    30
 10
-145.0
 20
-1047.6000000238421
 30
0.0
 11
-135.0
 21
-1047.6000000238421
 31
0.0
  0
TEXT
  5
709
  8
SIZE
  6
CONTINUOUS
 62
    30
 10
-37.500000104907222
 20
-1037.6000000238409
 30
0.0
 40
30.0
  1
290
 72
     1
 11
-0.0000001049072154
 21
-1037.6000000238409
 31
0.0
  0
POINT
  5
70A
  8
DEFPOINTS
  6
CONTINUOUS
 62
    30
 10
145.0
 20
-20.0
 30
0.0
  0
POINT
  5
70B
  8
DEFPOINTS
  6
CONTINUOUS
 62
    30
 10
-145.0
 20
-20.0
 30
0.0
  0
POINT
  5
70C
  8
DEFPOINTS
  6
CONTINUOUS
 62
    30
 10
-145.0
 20
-1047.6000000238421
 30
0.0
  0
LINE
  5
70D
  8
SIZE
  6
CONTINUOUS
 62
    30
 10
-215.0
 20
140.0
 30
0.0
 11
-215.00000000000011
 21
-1160.1000000238421
 31
0.0
  0
LINE
  5
70E
  8
SIZE
  6
CONTINUOUS
 62
    30
 10
215.0
 20
-10.0
 30
0.0
 11
214.99999999999989
 21
-1160.1000000238421
 31
0.0
  0
LINE
  5
70F
  8
SIZE
  6
CONTINUOUS
 62
    30
 10
-205.00000000000011
 20
-1147.6000000238421
 30
0.0
 11
204.99999999999989
 21
-1147.6000000238421
 31
0.0
  0
CIRCLE
  5
710
  8
SIZE
  6
CONTINUOUS
 62
    30
 10
-215.00000000000011
 20
-1147.6000000238421
 30
0.0
 40
5.0
  0
LINE
  5
711
  8
SIZE
  6
CONTINUOUS
 62
    30
 10
-215.00000000000011
 20
-1147.6000000238421
 30
0.0
 11
-205.00000000000011
 21
-1147.6000000238421
 31
0.0
  0
CIRCLE
  5
712
  8
SIZE
  6
CONTINUOUS
 62
    30
 10
214.99999999999989
 20
-1147.6000000238421
 30
0.0
 40
5.0
  0
LINE
  5
713
  8
SIZE
  6
CONTINUOUS
 62
    30
 10
214.99999999999989
 20
-1147.6000000238421
 30
0.0
 11
204.99999999999989
 21
-1147.6000000238421
 31
0.0
  0
TEXT
  5
714
  8
SIZE
  6
CONTINUOUS
 62
    30
 10
-37.500000104907251
 20
-1137.6000000238421
 30
0.0
 40
30.0
  1
430
 72
     1
 11
-0.0000001049072438
 21
-1137.6000000238421
 31
0.0
  0
POINT
  5
715
  8
DEFPOINTS
  6
CONTINUOUS
 62
    30
 10
-215.0
 20
150.0
 30
0.0
  0
POINT
  5
716
  8
DEFPOINTS
  6
CONTINUOUS
 62
    30
 10
215.0
 20
0.0
 30
0.0
  0
POINT
  5
717
  8
DEFPOINTS
  6
CONTINUOUS
 62
    30
 10
214.99999999999989
 20
-1147.6000000238421
 30
0.0
  0
LINE
  5
718
  8
SIZE
  6
CONTINUOUS
 62
    30
 10
215.0
 20
-10.0
 30
0.0
 11
214.99999999999989
 21
-1060.1000000238421
 31
0.0
  0
LINE
  5
719
  8
SIZE
  6
CONTINUOUS
 62
    30
 10
145.0
 20
-30.0
 30
0.0
 11
144.9999999999998
 21
-1060.1000000238421
 31
0.0
  0
LINE
  5
71A
  8
SIZE
  6
CONTINUOUS
 62
    30
 10
204.99999999999989
 20
-1047.6000000238421
 30
0.0
 11
154.9999999999998
 21
-1047.6000000238421
 31
0.0
  0
CIRCLE
  5
71B
  8
SIZE
  6
CONTINUOUS
 62
    30
 10
214.99999999999989
 20
-1047.6000000238421
 30
0.0
 40
5.0
  0
LINE
  5
71C
  8
SIZE
  6
CONTINUOUS
 62
    30
 10
214.99999999999989
 20
-1047.6000000238421
 30
0.0
 11
204.99999999999989
 21
-1047.6000000238421
 31
0.0
  0
CIRCLE
  5
71D
  8
SIZE
  6
CONTINUOUS
 62
    30
 10
144.9999999999998
 20
-1047.6000000238421
 30
0.0
 40
5.0
  0
LINE
  5
71E
  8
SIZE
  6
CONTINUOUS
 62
    30
 10
144.9999999999998
 20
-1047.6000000238421
 30
0.0
 11
154.9999999999998
 21
-1047.6000000238421
 31
0.0
  0
TEXT
  5
71F
  8
SIZE
  6
CONTINUOUS
 62
    30
 10
157.49999993880391
 20
-1037.6000000238409
 30
0.0
 40
30.0
  1
70
 72
     1
 11
179.999999938804
 21
-1037.6000000238409
 31
0.0
  0
POINT
  5
720
  8
DEFPOINTS
  6
CONTINUOUS
 62
    30
 10
215.0
 20
0.0
 30
0.0
  0
POINT
  5
721
  8
DEFPOINTS
  6
CONTINUOUS
 62
    30
 10
145.0
 20
-20.0
 30
0.0
  0
POINT
  5
722
  8
DEFPOINTS
  6
CONTINUOUS
 62
    30
 10
144.9999999999998
 20
-1047.6000000238421
 30
0.0
  0
LINE
  5
723
  8
SIZE
  6
CONTINUOUS
 62
    30
 10
-191.5
 20
-0.0000000000000542
 30
0.0
 11
-329.8999999761582
 21
-0.000000000000015
 31
0.0
  0
LINE
  5
724
  8
SIZE
  6
CONTINUOUS
 62
    30
 10
-140.0
 20
122.0
 30
0.0
 11
-329.8999999761582
 21
122.0
 31
0.0
  0
LINE
  5
725
  8
SIZE
  6
CONTINUOUS
 62
    30
 10
-317.3999999761582
 20
9.9999999999999822
 30
0.0
 11
-317.3999999761582
 21
112.0
 31
0.0
  0
CIRCLE
  5
726
  8
SIZE
  6
CONTINUOUS
 62
    30
 10
-317.3999999761582
 20
-0.0000000000000185
 30
0.0
 40
5.0
  0
LINE
  5
727
  8
SIZE
  6
CONTINUOUS
 62
    30
 10
-317.3999999761582
 20
-0.0000000000000185
 30
0.0
 11
-317.3999999761582
 21
9.9999999999999822
 31
0.0
  0
CIRCLE
  5
728
  8
SIZE
  6
CONTINUOUS
 62
    30
 10
-317.3999999761582
 20
122.0
 30
0.0
 40
5.0
  0
LINE
  5
729
  8
SIZE
  6
CONTINUOUS
 62
    30
 10
-317.3999999761582
 20
122.0
 30
0.0
 11
-317.3999999761582
 21
112.0
 31
0.0
  0
TEXT
  5
72A
  8
SIZE
  6
CONTINUOUS
 62
    30
 10
-327.3999999761582
 20
25.999999877608111
 30
0.0
 40
30.0
  1
122
 50
90.0
 72
     1
 11
-327.3999999761582
 21
60.999999877608111
 31
0.0
  0
POINT
  5
72B
  8
DEFPOINTS
  6
CONTINUOUS
 62
    30
 10
-181.5
 20
-0.000000000000057
 30
0.0
  0
POINT
  5
72C
  8
DEFPOINTS
  6
CONTINUOUS
 62
    30
 10
-130.0
 20
122.0
 30
0.0
  0
POINT
  5
72D
  8
DEFPOINTS
  6
CONTINUOUS
 62
    30
 10
-317.3999999761582
 20
122.0
 30
0.0
  0
LINE
  5
72E
  8
SIZE
  6
CONTINUOUS
 62
    30
 10
97.0
 20
110.0
 30
0.0
 11
375.1000000238418
 21
109.9999999999999
 31
0.0
  0
LINE
  5
72F
  8
SIZE
  6
CONTINUOUS
 62
    30
 10
225.0
 20
-0.0000000000000028
 30
0.0
 11
375.1000000238418
 21
-0.0000000000000454
 31
0.0
  0
LINE
  5
730
  8
SIZE
  6
CONTINUOUS
 62
    30
 10
362.6000000238418
 20
99.999999999999915
 30
0.0
 11
362.6000000238418
 21
9.9999999999999591
 31
0.0
  0
CIRCLE
  5
731
  8
SIZE
  6
CONTINUOUS
 62
    30
 10
362.6000000238418
 20
109.9999999999999
 30
0.0
 40
5.0
  0
LINE
  5
732
  8
SIZE
  6
CONTINUOUS
 62
    30
 10
362.6000000238418
 20
109.9999999999999
 30
0.0
 11
362.6000000238418
 21
99.999999999999915
 31
0.0
  0
CIRCLE
  5
733
  8
SIZE
  6
CONTINUOUS
 62
    30
 10
362.6000000238418
 20
-0.0000000000000418
 30
0.0
 40
5.0
  0
LINE
  5
734
  8
SIZE
  6
CONTINUOUS
 62
    30
 10
362.6000000238418
 20
-0.0000000000000418
 30
0.0
 11
362.6000000238418
 21
9.9999999999999556
 31
0.0
  0
TEXT
  5
735
  8
SIZE
  6
CONTINUOUS
 62
    30
 10
352.6000000238418
 20
27.499999877608111
 30
0.0
 40
30.0
  1
110
 50
90.0
 72
     1
 11
352.6000000238418
 21
54.999999877608111
 31
0.0
  0
POINT
  5
736
  8
DEFPOINTS
  6
CONTINUOUS
 62
    30
 10
87.0
 20
110.0
 30
0.0
  0
POINT
  5
737
  8
DEFPOINTS
  6
CONTINUOUS
 62
    30
 10
215.0
 20
0.0
 30
0.0
  0
POINT
  5
738
  8
DEFPOINTS
  6
CONTINUOUS
 62
    30
 10
362.6000000238418
 20
-0.0000000000000418
 30
0.0
  0
LINE
  5
739
  8
SIZE
  6
CONTINUOUS
 62
    30
 10
-185.0
 20
426.0
 30
0.0
 11
-185.0
 21
514.89999997615803
 31
0.0
  0
LINE
  5
73A
  8
SIZE
  6
CONTINUOUS
 62
    30
 10
-14.0
 20
426.0
 30
0.0
 11
-13.999999999999989
 21
514.89999997615803
 31
0.0
  0
LINE
  5
73B
  8
SIZE
  6
CONTINUOUS
 62
    30
 10
-175.0
 20
502.39999997615803
 30
0.0
 11
-23.999999999999989
 21
502.39999997615803
 31
0.0
  0
CIRCLE
  5
73C
  8
SIZE
  6
CONTINUOUS
 62
    30
 10
-185.0
 20
502.39999997615803
 30
0.0
 40
5.0
  0
LINE
  5
73D
  8
SIZE
  6
CONTINUOUS
 62
    30
 10
-185.0
 20
502.39999997615803
 30
0.0
 11
-175.0
 21
502.39999997615803
 31
0.0
  0
CIRCLE
  5
73E
  8
SIZE
  6
CONTINUOUS
 62
    30
 10
-13.999999999999989
 20
502.39999997615803
 30
0.0
 40
5.0
  0
LINE
  5
73F
  8
SIZE
  6
CONTINUOUS
 62
    30
 10
-13.999999999999989
 20
502.39999997615803
 30
0.0
 11
-23.999999999999989
 21
502.39999997615803
 31
0.0
  0
TEXT
  5
740
  8
SIZE
  6
CONTINUOUS
 62
    30
 10
-129.50000006119589
 20
512.39999997615803
 30
0.0
 40
30.0
  1
171
 72
     1
 11
-99.500000061195934
 21
512.39999997615803
 31
0.0
  0
POINT
  5
741
  8
DEFPOINTS
  6
CONTINUOUS
 62
    30
 10
-185.0
 20
416.0
 30
0.0
  0
POINT
  5
742
  8
DEFPOINTS
  6
CONTINUOUS
 62
    30
 10
-14.0
 20
416.0
 30
0.0
  0
POINT
  5
743
  8
DEFPOINTS
  6
CONTINUOUS
 62
    30
 10
-13.999999999999989
 20
502.39999997615803
 30
0.0
  0
LINE
  5
744
  8
SIZE
  6
CONTINUOUS
 62
    30
 10
-187.0
 20
408.0
 30
0.0
 11
-629.89999997615803
 21
408.0
 31
0.0
  0
LINE
  5
745
  8
SIZE
  6
CONTINUOUS
 62
    30
 10
-187.0
 20
628.0
 30
0.0
 11
-629.89999997615803
 21
628.00000000000011
 31
0.0
  0
LINE
  5
746
  8
SIZE
  6
CONTINUOUS
 62
    30
 10
-617.39999997615803
 20
418.0
 30
0.0
 11
-617.39999997615803
 21
618.00000000000011
 31
0.0
  0
CIRCLE
  5
747
  8
SIZE
  6
CONTINUOUS
 62
    30
 10
-617.39999997615803
 20
408.0
 30
0.0
 40
5.0
  0
LINE
  5
748
  8
SIZE
  6
CONTINUOUS
 62
    30
 10
-617.39999997615803
 20
408.0
 30
0.0
 11
-617.39999997615803
 21
418.0
 31
0.0
  0
CIRCLE
  5
749
  8
SIZE
  6
CONTINUOUS
 62
    30
 10
-617.39999997615803
 20
628.00000000000011
 30
0.0
 40
5.0
  0
LINE
  5
74A
  8
SIZE
  6
CONTINUOUS
 62
    30
 10
-617.39999997615803
 20
628.00000000000011
 30
0.0
 11
-617.39999997615803
 21
618.00000000000011
 31
0.0
  0
TEXT
  5
74B
  8
SIZE
  6
CONTINUOUS
 62
    30
 10
-627.39999997615814
 20
480.49999987760799
 30
0.0
 40
30.0
  1
220
 50
90.0
 72
     1
 11
-627.39999997615814
 21
517.99999987760805
 31
0.0
  0
POINT
  5
74C
  8
DEFPOINTS
  6
CONTINUOUS
 62
    30
 10
-177.0
 20
408.0
 30
0.0
  0
POINT
  5
74D
  8
DEFPOINTS
  6
CONTINUOUS
 62
    30
 10
-177.0
 20
628.0
 30
0.0
  0
POINT
  5
74E
  8
DEFPOINTS
  6
CONTINUOUS
 62
    30
 10
-617.39999997615803
 20
628.00000000000011
 30
0.0
  0
LINE
  5
74F
  8
SIZE
  6
CONTINUOUS
 62
    30
 10
215.0
 20
2110.0
 30
0.0
 11
215.0
 21
2264.8999999761581
 31
0.0
  0
LINE
  5
750
  8
SIZE
  6
CONTINUOUS
 62
    30
 10
-215.0
 20
2110.0
 30
0.0
 11
-215.0
 21
2264.8999999761581
 31
0.0
  0
LINE
  5
751
  8
SIZE
  6
CONTINUOUS
 62
    30
 10
205.0
 20
2252.3999999761581
 30
0.0
 11
-205.0
 21
2252.3999999761581
 31
0.0
  0
CIRCLE
  5
752
  8
SIZE
  6
CONTINUOUS
 62
    30
 10
215.0
 20
2252.3999999761581
 30
0.0
 40
5.0
  0
LINE
  5
753
  8
SIZE
  6
CONTINUOUS
 62
    30
 10
215.0
 20
2252.3999999761581
 30
0.0
 11
205.0
 21
2252.3999999761581
 31
0.0
  0
CIRCLE
  5
754
  8
SIZE
  6
CONTINUOUS
 62
    30
 10
-215.0
 20
2252.3999999761581
 30
0.0
 40
5.0
  0
LINE
  5
755
  8
SIZE
  6
CONTINUOUS
 62
    30
 10
-215.0
 20
2252.3999999761581
 30
0.0
 11
-205.0
 21
2252.3999999761581
 31
0.0
  0
TEXT
  5
756
  8
SIZE
  6
CONTINUOUS
 62
    30
 10
-37.500000104907301
 20
2262.3999999761591
 30
0.0
 40
30.0
  1
430
 72
     1
 11
-0.0000001049073006
 21
2262.3999999761591
 31
0.0
  0
POINT
  5
757
  8
DEFPOINTS
  6
CONTINUOUS
 62
    30
 10
215.0
 20
2100.0
 30
0.0
  0
POINT
  5
758
  8
DEFPOINTS
  6
CONTINUOUS
 62
    30
 10
-215.0
 20
2100.0
 30
0.0
  0
POINT
  5
759
  8
DEFPOINTS
  6
CONTINUOUS
 62
    30
 10
-215.0
 20
2252.3999999761581
 30
0.0
  0
LINE
  5
75A
  8
SIZE
  6
CONTINUOUS
 62
    30
 10
-225.0
 20
1900.0
 30
0.0
 11
-829.89999997615757
 21
1900.0
 31
0.0
  0
LINE
  5
75B
  8
SIZE
  6
CONTINUOUS
 62
    30
 10
-225.0
 20
2100.0
 30
0.0
 11
-829.89999997615757
 21
2100.0
 31
0.0
  0
LINE
  5
75C
  8
SIZE
  6
CONTINUOUS
 62
    30
 10
-817.39999997615757
 20
1910.0
 30
0.0
 11
-817.39999997615757
 21
2090.0
 31
0.0
  0
CIRCLE
  5
75D
  8
SIZE
  6
CONTINUOUS
 62
    30
 10
-817.39999997615757
 20
1900.0
 30
0.0
 40
5.0
  0
LINE
  5
75E
  8
SIZE
  6
CONTINUOUS
 62
    30
 10
-817.39999997615757
 20
1900.0
 30
0.0
 11
-817.39999997615757
 21
1910.0
 31
0.0
  0
CIRCLE
  5
75F
  8
SIZE
  6
CONTINUOUS
 62
    30
 10
-817.39999997615757
 20
2100.0
 30
0.0
 40
5.0
  0
LINE
  5
760
  8
SIZE
  6
CONTINUOUS
 62
    30
 10
-817.39999997615757
 20
2100.0
 30
0.0
 11
-817.39999997615757
 21
2090.0
 31
0.0
  0
TEXT
  5
761
  8
SIZE
  6
CONTINUOUS
 62
    30
 10
-827.39999997615814
 20
1964.9999998776079
 30
0.0
 40
30.0
  1
200
 50
90.0
 72
     1
 11
-827.39999997615814
 21
1999.9999998776079
 31
0.0
  0
POINT
  5
762
  8
DEFPOINTS
  6
CONTINUOUS
 62
    30
 10
-215.0
 20
1900.0
 30
0.0
  0
POINT
  5
763
  8
DEFPOINTS
  6
CONTINUOUS
 62
    30
 10
-215.0
 20
2100.0
 30
0.0
  0
POINT
  5
764
  8
DEFPOINTS
  6
CONTINUOUS
 62
    30
 10
-817.39999997615757
 20
2100.0
 30
0.0
  0
LINE
  5
765
  8
SIZE
  6
CONTINUOUS
 62
    30
 10
-191.5
 20
-0.0000000000000542
 30
0.0
 11
-829.89999997615826
 21
0.0000000000001267
 31
0.0
  0
LINE
  5
766
  8
SIZE
  6
CONTINUOUS
 62
    30
 10
-225.0
 20
1900.0
 30
0.0
 11
-829.89999997615757
 21
1900.0
 31
0.0
  0
LINE
  5
767
  8
SIZE
  6
CONTINUOUS
 62
    30
 10
-817.39999997615826
 20
10.000000000000121
 30
0.0
 11
-817.39999997615757
 21
1890.0
 31
0.0
  0
CIRCLE
  5
768
  8
SIZE
  6
CONTINUOUS
 62
    30
 10
-817.39999997615826
 20
0.0000000000001231
 30
0.0
 40
5.0
  0
LINE
  5
769
  8
SIZE
  6
CONTINUOUS
 62
    30
 10
-817.39999997615826
 20
0.0000000000001231
 30
0.0
 11
-817.39999997615826
 21
10.000000000000121
 31
0.0
  0
CIRCLE
  5
76A
  8
SIZE
  6
CONTINUOUS
 62
    30
 10
-817.39999997615757
 20
1900.0
 30
0.0
 40
5.0
  0
LINE
  5
76B
  8
SIZE
  6
CONTINUOUS
 62
    30
 10
-817.39999997615757
 20
1900.0
 30
0.0
 11
-817.39999997615757
 21
1890.0
 31
0.0
  0
TEXT
  5
76C
  8
SIZE
  6
CONTINUOUS
 62
    30
 10
-827.39999997615814
 20
904.99999987760805
 30
0.0
 40
30.0
  1
1900
 50
90.0
 72
     1
 11
-827.39999997615814
 21
949.99999987760805
 31
0.0
  0
POINT
  5
76D
  8
DEFPOINTS
  6
CONTINUOUS
 62
    30
 10
-181.5
 20
-0.000000000000057
 30
0.0
  0
POINT
  5
76E
  8
DEFPOINTS
  6
CONTINUOUS
 62
    30
 10
-215.0
 20
1900.0
 30
0.0
  0
POINT
  5
76F
  8
DEFPOINTS
  6
CONTINUOUS
 62
    30
 10
-817.39999997615757
 20
1900.0
 30
0.0
  0
LINE
  5
770
  8
SIZE
  6
CONTINUOUS
 62
    30
 10
225.0
 20
150.0
 30
0.0
 11
475.10000002384191
 21
149.9999999999998
 31
0.0
  0
LINE
  5
771
  8
SIZE
  6
CONTINUOUS
 62
    30
 10
191.5
 20
-0.0000000000000028
 30
0.0
 11
475.1000000238418
 21
-0.0000000000000832
 31
0.0
  0
LINE
  5
772
  8
SIZE
  6
CONTINUOUS
 62
    30
 10
462.6000000238418
 20
139.9999999999998
 30
0.0
 11
462.6000000238418
 21
9.9999999999999201
 31
0.0
  0
CIRCLE
  5
773
  8
SIZE
  6
CONTINUOUS
 62
    30
 10
462.6000000238418
 20
149.9999999999998
 30
0.0
 40
5.0
  0
LINE
  5
774
  8
SIZE
  6
CONTINUOUS
 62
    30
 10
462.6000000238418
 20
149.9999999999998
 30
0.0
 11
462.6000000238418
 21
139.9999999999998
 31
0.0
  0
CIRCLE
  5
775
  8
SIZE
  6
CONTINUOUS
 62
    30
 10
462.6000000238418
 20
-0.0000000000000796
 30
0.0
 40
5.0
  0
LINE
  5
776
  8
SIZE
  6
CONTINUOUS
 62
    30
 10
462.6000000238418
 20
-0.0000000000000796
 30
0.0
 11
462.6000000238418
 21
9.9999999999999201
 31
0.0
  0
TEXT
  5
777
  8
SIZE
  6
CONTINUOUS
 62
    30
 10
452.60000002384169
 20
42.49999987760809
 30
0.0
 40
30.0
  1
150
 50
90.0
 72
     1
 11
452.60000002384169
 21
74.99999987760809
 31
0.0
  0
POINT
  5
778
  8
DEFPOINTS
  6
CONTINUOUS
 62
    30
 10
215.0
 20
150.0
 30
0.0
  0
POINT
  5
779
  8
DEFPOINTS
  6
CONTINUOUS
 62
    30
 10
181.5
 20
0.0
 30
0.0
  0
POINT
  5
77A
  8
DEFPOINTS
  6
CONTINUOUS
 62
    30
 10
462.6000000238418
 20
-0.0000000000000796
 30
0.0
  0
LINE
  5
77B
  8
SIZE
  6
CONTINUOUS
 62
    30
 10
525.0
 20
-0.0000000000000028
 30
0.0
 11
975.1000000238414
 21
-0.0000000000001303
 31
0.0
  0
LINE
  5
77C
  8
SIZE
  6
CONTINUOUS
 62
    30
 10
525.0
 20
2100.0
 30
0.0
 11
975.10000002384174
 21
2100.0
 31
0.0
  0
LINE
  5
77D
  8
SIZE
  6
CONTINUOUS
 62
    30
 10
962.6000000238414
 20
9.9999999999998739
 30
0.0
 11
962.60000002384174
 21
2090.0
 31
0.0
  0
CIRCLE
  5
77E
  8
SIZE
  6
CONTINUOUS
 62
    30
 10
962.6000000238414
 20
-0.0000000000001268
 30
0.0
 40
5.0
  0
LINE
  5
77F
  8
SIZE
  6
CONTINUOUS
 62
    30
 10
962.6000000238414
 20
-0.0000000000001268
 30
0.0
 11
962.6000000238414
 21
9.9999999999998739
 31
0.0
  0
CIRCLE
  5
780
  8
SIZE
  6
CONTINUOUS
 62
    30
 10
962.60000002384174
 20
2100.0
 30
0.0
 40
5.0
  0
LINE
  5
781
  8
SIZE
  6
CONTINUOUS
 62
    30
 10
962.60000002384174
 20
2100.0
 30
0.0
 11
962.60000002384174
 21
2090.0
 31
0.0
  0
TEXT
  5
782
  8
SIZE
  6
CONTINUOUS
 62
    30
 10
952.60000002384152
 20
1004.999999877608
 30
0.0
 40
30.0
  1
2100
 50
90.0
 72
     1
 11
952.60000002384152
 21
1049.9999998776079
 31
0.0
  0
POINT
  5
783
  8
DEFPOINTS
  6
CONTINUOUS
 62
    30
 10
515.0
 20
0.0
 30
0.0
  0
POINT
  5
784
  8
DEFPOINTS
  6
CONTINUOUS
 62
    30
 10
515.0
 20
2100.0
 30
0.0
  0
POINT
  5
785
  8
DEFPOINTS
  6
CONTINUOUS
 62
    30
 10
962.60000002384174
 20
2100.0
 30
0.0
  0
LINE
  5
786
  8
SIZE
  6
CONTINUOUS
 62
    30
 10
-225.0
 20
350.0
 30
0.0
 11
-629.89999997615803
 21
350.0
 31
0.0
  0
LINE
  5
787
  8
SIZE
  6
CONTINUOUS
 62
    30
 10
-191.5
 20
-0.0000000000000542
 30
0.0
 11
-629.89999997615814
 21
0.00000000000007
 31
0.0
  0
LINE
  5
788
  8
SIZE
  6
CONTINUOUS
 62
    30
 10
-617.39999997615803
 20
340.00000000000011
 30
0.0
 11
-617.39999997615814
 21
10.00000000000006
 31
0.0
  0
CIRCLE
  5
789
  8
SIZE
  6
CONTINUOUS
 62
    30
 10
-617.39999997615803
 20
350.0
 30
0.0
 40
5.0
  0
LINE
  5
78A
  8
SIZE
  6
CONTINUOUS
 62
    30
 10
-617.39999997615803
 20
350.0
 30
0.0
 11
-617.39999997615803
 21
340.0
 31
0.0
  0
CIRCLE
  5
78B
  8
SIZE
  6
CONTINUOUS
 62
    30
 10
-617.39999997615814
 20
0.0000000000000665
 30
0.0
 40
5.0
  0
LINE
  5
78C
  8
SIZE
  6
CONTINUOUS
 62
    30
 10
-617.39999997615814
 20
0.0000000000000665
 30
0.0
 11
-617.39999997615814
 21
10.000000000000069
 31
0.0
  0
TEXT
  5
78D
  8
SIZE
  6
CONTINUOUS
 62
    30
 10
-627.39999997615814
 20
137.4999998776081
 30
0.0
 40
30.0
  1
350
 50
90.0
 72
     1
 11
-627.39999997615814
 21
174.9999998776081
 31
0.0
  0
POINT
  5
78E
  8
DEFPOINTS
  6
CONTINUOUS
 62
    30
 10
-215.0
 20
350.0
 30
0.0
  0
POINT
  5
78F
  8
DEFPOINTS
  6
CONTINUOUS
 62
    30
 10
-181.5
 20
-0.000000000000057
 30
0.0
  0
POINT
  5
790
  8
DEFPOINTS
  6
CONTINUOUS
 62
    30
 10
-617.39999997615814
 20
0.0000000000000665
 30
0.0
  0
LINE
  5
791
  8
SIZE
  6
CONTINUOUS
 62
    30
 10
42.0
 20
1735.0
 30
0.0
 11
41.999999999999993
 21
1578.8999999761579
 31
0.0
  0
LINE
  5
792
  8
SIZE
  6
CONTINUOUS
 62
    30
 10
-42.0
 20
1735.0
 30
0.0
 11
-42.000000000000007
 21
1578.8999999761579
 31
0.0
  0
LINE
  5
793
  8
SIZE
  6
CONTINUOUS
 62
    30
 10
31.999999999999989
 20
1591.3999999761579
 30
0.0
 11
-32.000000000000007
 21
1591.3999999761579
 31
0.0
  0
CIRCLE
  5
794
  8
SIZE
  6
CONTINUOUS
 62
    30
 10
41.999999999999993
 20
1591.3999999761579
 30
0.0
 40
5.0
  0
LINE
  5
795
  8
SIZE
  6
CONTINUOUS
 62
    30
 10
41.999999999999993
 20
1591.3999999761579
 30
0.0
 11
32.0
 21
1591.3999999761579
 31
0.0
  0
CIRCLE
  5
796
  8
SIZE
  6
CONTINUOUS
 62
    30
 10
-42.000000000000007
 20
1591.3999999761579
 30
0.0
 40
5.0
  0
LINE
  5
797
  8
SIZE
  6
CONTINUOUS
 62
    30
 10
-42.000000000000007
 20
1591.3999999761579
 30
0.0
 11
-32.000000000000007
 21
1591.3999999761579
 31
0.0
  0
TEXT
  5
798
  8
SIZE
  6
CONTINUOUS
 62
    30
 10
-25.00000010490734
 20
1601.3999999761579
 30
0.0
 40
30.0
  1
84
 72
     1
 11
-0.0000001049073326
 21
1601.3999999761579
 31
0.0
  0
POINT
  5
799
  8
DEFPOINTS
  6
CONTINUOUS
 62
    30
 10
42.0
 20
1745.0
 30
0.0
  0
POINT
  5
79A
  8
DEFPOINTS
  6
CONTINUOUS
 62
    30
 10
-42.0
 20
1745.0
 30
0.0
  0
POINT
  5
79B
  8
DEFPOINTS
  6
CONTINUOUS
 62
    30
 10
-42.000000000000007
 20
1591.3999999761579
 30
0.0
  0
LINE
  5
79C
  8
SIZE
  6
CONTINUOUS
 62
    30
 10
-215.0
 20
1890.0
 30
0.0
 11
-215.0
 21
1578.8999999761579
 31
0.0
  0
LINE
  5
79D
  8
SIZE
  6
CONTINUOUS
 62
    30
 10
-42.0
 20
1735.0
 30
0.0
 11
-42.000000000000007
 21
1578.8999999761579
 31
0.0
  0
LINE
  5
79E
  8
SIZE
  6
CONTINUOUS
 62
    30
 10
-205.0
 20
1591.3999999761579
 30
0.0
 11
-52.000000000000007
 21
1591.3999999761579
 31
0.0
  0
CIRCLE
  5
79F
  8
SIZE
  6
CONTINUOUS
 62
    30
 10
-215.0
 20
1591.3999999761579
 30
0.0
 40
5.0
  0
LINE
  5
7A0
  8
SIZE
  6
CONTINUOUS
 62
    30
 10
-215.0
 20
1591.3999999761579
 30
0.0
 11
-205.0
 21
1591.3999999761579
 31
0.0
  0
CIRCLE
  5
7A1
  8
SIZE
  6
CONTINUOUS
 62
    30
 10
-42.000000000000007
 20
1591.3999999761579
 30
0.0
 40
5.0
  0
LINE
  5
7A2
  8
SIZE
  6
CONTINUOUS
 62
    30
 10
-42.000000000000007
 20
1591.3999999761579
 30
0.0
 11
-52.000000000000007
 21
1591.3999999761579
 31
0.0
  0
TEXT
  5
7A3
  8
SIZE
  6
CONTINUOUS
 62
    30
 10
-163.50000006119581
 20
1601.3999999761579
 30
0.0
 40
30.0
  1
173
 72
     1
 11
-128.50000006119581
 21
1601.3999999761579
 31
0.0
  0
POINT
  5
7A4
  8
DEFPOINTS
  6
CONTINUOUS
 62
    30
 10
-215.0
 20
1900.0
 30
0.0
  0
POINT
  5
7A5
  8
DEFPOINTS
  6
CONTINUOUS
 62
    30
 10
-42.0
 20
1745.0
 30
0.0
  0
POINT
  5
7A6
  8
DEFPOINTS
  6
CONTINUOUS
 62
    30
 10
-42.000000000000007
 20
1591.3999999761579
 30
0.0
  0
LINE
  5
7A7
  8
SIZE
  6
CONTINUOUS
 62
    30
 10
525.0
 20
-0.0000000000000028
 30
0.0
 11
875.10000002384174
 21
-0.000000000000102
 31
0.0
  0
LINE
  5
7A8
  8
SIZE
  6
CONTINUOUS
 62
    30
 10
47.0
 20
1739.0
 30
0.0
 11
875.10000002384174
 21
1739.0
 31
0.0
  0
LINE
  5
7A9
  8
SIZE
  6
CONTINUOUS
 62
    30
 10
862.60000002384174
 20
9.9999999999999005
 30
0.0
 11
862.60000002384174
 21
1729.0
 31
0.0
  0
CIRCLE
  5
7AA
  8
SIZE
  6
CONTINUOUS
 62
    30
 10
862.60000002384174
 20
-0.0000000000000985
 30
0.0
 40
5.0
  0
LINE
  5
7AB
  8
SIZE
  6
CONTINUOUS
 62
    30
 10
862.60000002384174
 20
-0.0000000000000985
 30
0.0
 11
862.60000002384174
 21
9.9999999999999023
 31
0.0
  0
CIRCLE
  5
7AC
  8
SIZE
  6
CONTINUOUS
 62
    30
 10
862.60000002384174
 20
1739.0
 30
0.0
 40
5.0
  0
LINE
  5
7AD
  8
SIZE
  6
CONTINUOUS
 62
    30
 10
862.60000002384174
 20
1739.0
 30
0.0
 11
862.60000002384174
 21
1729.0
 31
0.0
  0
TEXT
  5
7AE
  8
SIZE
  6
CONTINUOUS
 62
    30
 10
852.60000002384152
 20
819.49999987760793
 30
0.0
 40
30.0
  1
1739
 50
90.0
 72
     1
 11
852.60000002384152
 21
869.49999987760805
 31
0.0
  0
POINT
  5
7AF
  8
DEFPOINTS
  6
CONTINUOUS
 62
    30
 10
515.0
 20
0.0
 30
0.0
  0
POINT
  5
7B0
  8
DEFPOINTS
  6
CONTINUOUS
 62
    30
 10
37.0
 20
1739.0
 30
0.0
  0
POINT
  5
7B1
  8
DEFPOINTS
  6
CONTINUOUS
 62
    30
 10
862.60000002384174
 20
1739.0
 30
0.0
  0
LINE
  5
7B2
  8
SIZE
  6
CONTINUOUS
 62
    30
 10
47.0
 20
1739.0
 30
0.0
 11
875.10000002384174
 21
1739.0
 31
0.0
  0
LINE
  5
7B3
  8
SIZE
  6
CONTINUOUS
 62
    30
 10
10.000000000000011
 20
1857.0
 30
0.0
 11
875.10000002384174
 21
1857.0
 31
0.0
  0
LINE
  5
7B4
  8
SIZE
  6
CONTINUOUS
 62
    30
 10
862.60000002384174
 20
1749.0
 30
0.0
 11
862.60000002384174
 21
1847.0
 31
0.0
  0
CIRCLE
  5
7B5
  8
SIZE
  6
CONTINUOUS
 62
    30
 10
862.60000002384174
 20
1739.0
 30
0.0
 40
5.0
  0
LINE
  5
7B6
  8
SIZE
  6
CONTINUOUS
 62
    30
 10
862.60000002384174
 20
1739.0
 30
0.0
 11
862.60000002384174
 21
1749.0
 31
0.0
  0
CIRCLE
  5
7B7
  8
SIZE
  6
CONTINUOUS
 62
    30
 10
862.60000002384174
 20
1857.0
 30
0.0
 40
5.0
  0
LINE
  5
7B8
  8
SIZE
  6
CONTINUOUS
 62
    30
 10
862.60000002384174
 20
1857.0
 30
0.0
 11
862.60000002384174
 21
1847.0
 31
0.0
  0
TEXT
  5
7B9
  8
SIZE
  6
CONTINUOUS
 62
    30
 10
852.60000002384152
 20
1767.9999998776079
 30
0.0
 40
30.0
  1
118
 50
90.0
 72
     1
 11
852.60000002384152
 21
1797.9999998776079
 31
0.0
  0
POINT
  5
7BA
  8
DEFPOINTS
  6
CONTINUOUS
 62
    30
 10
37.0
 20
1739.0
 30
0.0
  0
POINT
  5
7BB
  8
DEFPOINTS
  6
CONTINUOUS
 62
    30
 10
0.000000000000011
 20
1857.0
 30
0.0
  0
POINT
  5
7BC
  8
DEFPOINTS
  6
CONTINUOUS
 62
    30
 10
862.60000002384174
 20
1857.0
 30
0.0
  0
LINE
  5
7BD
  8
SIZE
  6
CONTINUOUS
 62
    30
 10
-93.0
 20
775.0
 30
0.0
 11
-92.999999999999986
 21
987.89999997615826
 31
0.0
  0
LINE
  5
7BE
  8
SIZE
  6
CONTINUOUS
 62
    30
 10
-188.0
 20
775.0
 30
0.0
 11
-188.0
 21
987.89999997615826
 31
0.0
  0
LINE
  5
7BF
  8
SIZE
  6
CONTINUOUS
 62
    30
 10
-103.0
 20
975.39999997615826
 30
0.0
 11
-178.0
 21
975.39999997615826
 31
0.0
  0
CIRCLE
  5
7C0
  8
SIZE
  6
CONTINUOUS
 62
    30
 10
-92.999999999999986
 20
975.39999997615826
 30
0.0
 40
5.0
  0
LINE
  5
7C1
  8
SIZE
  6
CONTINUOUS
 62
    30
 10
-92.999999999999986
 20
975.39999997615826
 30
0.0
 11
-103.0
 21
975.39999997615826
 31
0.0
  0
CIRCLE
  5
7C2
  8
SIZE
  6
CONTINUOUS
 62
    30
 10
-188.0
 20
975.39999997615826
 30
0.0
 40
5.0
  0
LINE
  5
7C3
  8
SIZE
  6
CONTINUOUS
 62
    30
 10
-188.0
 20
975.39999997615826
 30
0.0
 11
-178.0
 21
975.39999997615826
 31
0.0
  0
TEXT
  5
7C4
  8
SIZE
  6
CONTINUOUS
 62
    30
 10
-165.50000006119581
 20
985.39999997615814
 30
0.0
 40
30.0
  1
95
 72
     1
 11
-140.50000006119581
 21
985.39999997615814
 31
0.0
  0
POINT
  5
7C5
  8
DEFPOINTS
  6
CONTINUOUS
 62
    30
 10
-93.0
 20
765.0
 30
0.0
  0
POINT
  5
7C6
  8
DEFPOINTS
  6
CONTINUOUS
 62
    30
 10
-188.0
 20
765.0
 30
0.0
  0
POINT
  5
7C7
  8
DEFPOINTS
  6
CONTINUOUS
 62
    30
 10
-188.0
 20
975.39999997615826
 30
0.0
  0
LINE
  5
7C8
  8
SIZE
  6
CONTINUOUS
 62
    30
 10
-190.0
 20
641.0
 30
0.0
 11
-729.89999997615814
 21
641.00000000000011
 31
0.0
  0
LINE
  5
7C9
  8
SIZE
  6
CONTINUOUS
 62
    30
 10
-190.0
 20
773.0
 30
0.0
 11
-729.89999997615769
 21
773.00000000000011
 31
0.0
  0
LINE
  5
7CA
  8
SIZE
  6
CONTINUOUS
 62
    30
 10
-717.39999997615803
 20
651.00000000000011
 30
0.0
 11
-717.39999997615803
 21
763.00000000000011
 31
0.0
  0
CIRCLE
  5
7CB
  8
SIZE
  6
CONTINUOUS
 62
    30
 10
-717.39999997615803
 20
641.00000000000011
 30
0.0
 40
5.0
  0
LINE
  5
7CC
  8
SIZE
  6
CONTINUOUS
 62
    30
 10
-717.39999997615803
 20
641.00000000000011
 30
0.0
 11
-717.39999997615803
 21
651.00000000000011
 31
0.0
  0
CIRCLE
  5
7CD
  8
SIZE
  6
CONTINUOUS
 62
    30
 10
-717.39999997615769
 20
773.00000000000011
 30
0.0
 40
5.0
  0
LINE
  5
7CE
  8
SIZE
  6
CONTINUOUS
 62
    30
 10
-717.39999997615769
 20
773.00000000000011
 30
0.0
 11
-717.39999997615769
 21
763.00000000000011
 31
0.0
  0
TEXT
  5
7CF
  8
SIZE
  6
CONTINUOUS
 62
    30
 10
-727.39999997615814
 20
671.99999987760805
 30
0.0
 40
30.0
  1
132
 50
90.0
 72
     1
 11
-727.39999997615814
 21
706.99999987760805
 31
0.0
  0
POINT
  5
7D0
  8
DEFPOINTS
  6
CONTINUOUS
 62
    30
 10
-180.0
 20
641.0
 30
0.0
  0
POINT
  5
7D1
  8
DEFPOINTS
  6
CONTINUOUS
 62
    30
 10
-180.0
 20
773.0
 30
0.0
  0
POINT
  5
7D2
  8
DEFPOINTS
  6
CONTINUOUS
 62
    30
 10
-717.39999997615769
 20
773.00000000000011
 30
0.0
  0
LINE
  5
7D3
  8
SIZE
  6
CONTINUOUS
 62
    30
 10
-191.5
 20
-0.0000000000000542
 30
0.0
 11
-929.89999997615826
 21
0.000000000000155
 31
0.0
  0
LINE
  5
7D4
  8
SIZE
  6
CONTINUOUS
 62
    30
 10
-395.0
 20
1923.0
 30
0.0
 11
-929.89999997615757
 21
1923.0
 31
0.0
  0
LINE
  5
7D5
  8
SIZE
  6
CONTINUOUS
 62
    30
 10
-917.39999997615826
 20
10.000000000000149
 30
0.0
 11
-917.39999997615757
 21
1913.0
 31
0.0
  0
CIRCLE
  5
7D6
  8
SIZE
  6
CONTINUOUS
 62
    30
 10
-917.39999997615826
 20
0.0000000000001515
 30
0.0
 40
5.0
  0
LINE
  5
7D7
  8
SIZE
  6
CONTINUOUS
 62
    30
 10
-917.39999997615826
 20
0.0000000000001515
 30
0.0
 11
-917.39999997615826
 21
10.000000000000149
 31
0.0
  0
CIRCLE
  5
7D8
  8
SIZE
  6
CONTINUOUS
 62
    30
 10
-917.39999997615757
 20
1923.0
 30
0.0
 40
5.0
  0
LINE
  5
7D9
  8
SIZE
  6
CONTINUOUS
 62
    30
 10
-917.39999997615757
 20
1923.0
 30
0.0
 11
-917.39999997615757
 21
1913.0
 31
0.0
  0
TEXT
  5
7DA
  8
SIZE
  6
CONTINUOUS
 62
    30
 10
-927.39999997615826
 20
911.49999987760805
 30
0.0
 40
30.0
  1
1923
 50
90.0
 72
     1
 11
-927.39999997615826
 21
961.49999987760805
 31
0.0
  0
POINT
  5
7DB
  8
DEFPOINTS
  6
CONTINUOUS
 62
    30
 10
-181.5
 20
-0.000000000000057
 30
0.0
  0
POINT
  5
7DC
  8
DEFPOINTS
  6
CONTINUOUS
 62
    30
 10
-385.0
 20
1923.0
 30
0.0
  0
POINT
  5
7DD
  8
DEFPOINTS
  6
CONTINUOUS
 62
    30
 10
-917.39999997615757
 20
1923.0
 30
0.0
  0
LINE
  5
7DE
  8
SIZE
  6
CONTINUOUS
 62
    30
 10
-191.5
 20
-0.0000000000000542
 30
0.0
 11
-1029.8999999761579
 21
0.0000000000001833
 31
0.0
  0
LINE
  5
7DF
  8
SIZE
  6
CONTINUOUS
 62
    30
 10
-375.0
 20
1945.0
 30
0.0
 11
-1029.899999976157
 21
1945.0
 31
0.0
  0
LINE
  5
7E0
  8
SIZE
  6
CONTINUOUS
 62
    30
 10
-1017.399999976158
 20
10.000000000000179
 30
0.0
 11
-1017.399999976158
 21
1935.0
 31
0.0
  0
CIRCLE
  5
7E1
  8
SIZE
  6
CONTINUOUS
 62
    30
 10
-1017.399999976158
 20
0.0000000000001798
 30
0.0
 40
5.0
  0
LINE
  5
7E2
  8
SIZE
  6
CONTINUOUS
 62
    30
 10
-1017.399999976158
 20
0.0000000000001798
 30
0.0
 11
-1017.399999976158
 21
10.000000000000179
 31
0.0
  0
CIRCLE
  5
7E3
  8
SIZE
  6
CONTINUOUS
 62
    30
 10
-1017.399999976158
 20
1945.0
 30
0.0
 40
5.0
  0
LINE
  5
7E4
  8
SIZE
  6
CONTINUOUS
 62
    30
 10
-1017.399999976158
 20
1945.0
 30
0.0
 11
-1017.399999976158
 21
1935.0
 31
0.0
  0
TEXT
  5
7E5
  8
SIZE
  6
CONTINUOUS
 62
    30
 10
-1027.3999999761579
 20
922.49999987760805
 30
0.0
 40
30.0
  1
1945
 50
90.0
 72
     1
 11
-1027.3999999761579
 21
972.49999987760805
 31
0.0
  0
POINT
  5
7E6
  8
DEFPOINTS
  6
CONTINUOUS
 62
    30
 10
-181.5
 20
-0.000000000000057
 30
0.0
  0
POINT
  5
7E7
  8
DEFPOINTS
  6
CONTINUOUS
 62
    30
 10
-365.0
 20
1945.0
 30
0.0
  0
POINT
  5
7E8
  8
DEFPOINTS
  6
CONTINUOUS
 62
    30
 10
-1017.399999976158
 20
1945.0
 30
0.0
  0
LINE
  5
7E9
  8
SIZE
  6
CONTINUOUS
 62
    30
 10
-215.0
 20
160.0
 30
0.0
 11
-214.99999999999989
 21
987.89999997615826
 31
0.0
  0
LINE
  5
7EA
  8
SIZE
  6
CONTINUOUS
 62
    30
 10
-188.0
 20
775.0
 30
0.0
 11
-188.0
 21
987.89999997615826
 31
0.0
  0
LINE
  5
7EB
  8
SIZE
  6
CONTINUOUS
 62
    30
 10
-178.0
 20
975.39999997615826
 30
0.0
 11
-168.0
 21
975.39999997615826
 31
0.0
  0
LINE
  5
7EC
  8
SIZE
  6
CONTINUOUS
 62
    30
 10
-225.0
 20
975.39999997615826
 30
0.0
 11
-304.99999999999989
 21
975.39999997615826
 31
0.0
  0
LINE
  5
7ED
  8
SIZE
  6
CONTINUOUS
 62
    30
 10
-188.0
 20
975.39999997615826
 30
0.0
 11
-214.99999999999989
 21
975.39999997615826
 31
0.0
  0
CIRCLE
  5
7EE
  8
SIZE
  6
CONTINUOUS
 62
    30
 10
-188.0
 20
975.39999997615826
 30
0.0
 40
5.0
  0
LINE
  5
7EF
  8
SIZE
  6
CONTINUOUS
 62
    30
 10
-188.0
 20
975.39999997615826
 30
0.0
 11
-178.0
 21
975.39999997615826
 31
0.0
  0
CIRCLE
  5
7F0
  8
SIZE
  6
CONTINUOUS
 62
    30
 10
-214.99999999999989
 20
975.39999997615826
 30
0.0
 40
5.0
  0
LINE
  5
7F1
  8
SIZE
  6
CONTINUOUS
 62
    30
 10
-214.99999999999989
 20
975.39999997615826
 30
0.0
 11
-224.99999999999989
 21
975.39999997615826
 31
0.0
  0
TEXT
  5
7F2
  8
SIZE
  6
CONTINUOUS
 62
    30
 10
-294.99999999999989
 20
985.39999997615814
 30
0.0
 40
30.0
  1
27
 72
     1
 11
-269.99999999999989
 21
985.39999997615814
 31
0.0
  0
POINT
  5
7F3
  8
DEFPOINTS
  6
CONTINUOUS
 62
    30
 10
-215.0
 20
150.0
 30
0.0
  0
POINT
  5
7F4
  8
DEFPOINTS
  6
CONTINUOUS
 62
    30
 10
-188.0
 20
765.0
 30
0.0
  0
POINT
  5
7F5
  8
DEFPOINTS
  6
CONTINUOUS
 62
    30
 10
-188.0
 20
975.39999997615826
 30
0.0
  0
LINE
  5
7F6
  8
SIZE
  6
CONTINUOUS
 62
    30
 10
-215.0
 20
160.0
 30
0.0
 11
-215.0
 21
514.89999997615803
 31
0.0
  0
LINE
  5
7F7
  8
SIZE
  6
CONTINUOUS
 62
    30
 10
-185.0
 20
610.0
 30
0.0
 11
-185.0
 21
489.89999997615803
 31
0.0
  0
LINE
  5
7F8
  8
SIZE
  6
CONTINUOUS
 62
    30
 10
-175.0
 20
502.39999997615803
 30
0.0
 11
-165.0
 21
502.39999997615803
 31
0.0
  0
LINE
  5
7F9
  8
SIZE
  6
CONTINUOUS
 62
    30
 10
-225.0
 20
502.39999997615803
 30
0.0
 11
-319.14709478775842
 21
502.39999997615803
 31
0.0
  0
LINE
  5
7FA
  8
SIZE
  6
CONTINUOUS
 62
    30
 10
-185.0
 20
502.39999997615803
 30
0.0
 11
-215.0
 21
502.39999997615803
 31
0.0
  0
CIRCLE
  5
7FB
  8
SIZE
  6
CONTINUOUS
 62
    30
 10
-185.0
 20
502.39999997615803
 30
0.0
 40
5.0
  0
LINE
  5
7FC
  8
SIZE
  6
CONTINUOUS
 62
    30
 10
-185.0
 20
502.39999997615803
 30
0.0
 11
-175.0
 21
502.39999997615803
 31
0.0
  0
CIRCLE
  5
7FD
  8
SIZE
  6
CONTINUOUS
 62
    30
 10
-215.0
 20
502.39999997615803
 30
0.0
 40
5.0
  0
LINE
  5
7FE
  8
SIZE
  6
CONTINUOUS
 62
    30
 10
-215.0
 20
502.39999997615803
 30
0.0
 11
-225.0
 21
502.39999997615803
 31
0.0
  0
TEXT
  5
7FF
  8
SIZE
  6
CONTINUOUS
 62
    30
 10
-309.14709478775842
 20
512.39999997615803
 30
0.0
 40
30.0
  1
30
 72
     1
 11
-286.64709478775842
 21
512.39999997615803
 31
0.0
  0
POINT
  5
800
  8
DEFPOINTS
  6
CONTINUOUS
 62
    30
 10
-215.0
 20
150.0
 30
0.0
  0
POINT
  5
801
  8
DEFPOINTS
  6
CONTINUOUS
 62
    30
 10
-185.0
 20
620.0
 30
0.0
  0
POINT
  5
802
  8
DEFPOINTS
  6
CONTINUOUS
 62
    30
 10
-185.0
 20
502.39999997615803
 30
0.0
  0
LINE
  5
803
  8
SIZE
  6
CONTINUOUS
 62
    30
 10
-187.0
 20
408.0
 30
0.0
 11
-729.89999997615814
 21
408.0
 31
0.0
  0
LINE
  5
804
  8
SIZE
  6
CONTINUOUS
 62
    30
 10
-190.0
 20
641.0
 30
0.0
 11
-729.89999997615814
 21
641.00000000000011
 31
0.0
  0
LINE
  5
805
  8
SIZE
  6
CONTINUOUS
 62
    30
 10
-717.39999997615803
 20
418.0
 30
0.0
 11
-717.39999997615803
 21
631.00000000000011
 31
0.0
  0
CIRCLE
  5
806
  8
SIZE
  6
CONTINUOUS
 62
    30
 10
-717.39999997615803
 20
408.0
 30
0.0
 40
5.0
  0
LINE
  5
807
  8
SIZE
  6
CONTINUOUS
 62
    30
 10
-717.39999997615803
 20
408.0
 30
0.0
 11
-717.39999997615803
 21
418.0
 31
0.0
  0
CIRCLE
  5
808
  8
SIZE
  6
CONTINUOUS
 62
    30
 10
-717.39999997615803
 20
641.00000000000011
 30
0.0
 40
5.0
  0
LINE
  5
809
  8
SIZE
  6
CONTINUOUS
 62
    30
 10
-717.39999997615803
 20
641.00000000000011
 30
0.0
 11
-717.39999997615803
 21
631.00000000000011
 31
0.0
  0
TEXT
  5
80A
  8
SIZE
  6
CONTINUOUS
 62
    30
 10
-727.39999997615814
 20
484.4999998776081
 30
0.0
 40
30.0
  1
233
 50
90.0
 72
     1
 11
-727.39999997615814
 21
524.49999987760805
 31
0.0
  0
POINT
  5
80B
  8
DEFPOINTS
  6
CONTINUOUS
 62
    30
 10
-177.0
 20
408.0
 30
0.0
  0
POINT
  5
80C
  8
DEFPOINTS
  6
CONTINUOUS
 62
    30
 10
-180.0
 20
641.0
 30
0.0
  0
POINT
  5
80D
  8
DEFPOINTS
  6
CONTINUOUS
 62
    30
 10
-717.39999997615803
 20
641.00000000000011
 30
0.0
  0
LINE
  5
80E
  8
SIZE
  6
CONTINUOUS
 62
    30
 10
-191.5
 20
-0.0000000000000542
 30
0.0
 11
-729.89999997615814
 21
0.0000000000000983
 31
0.0
  0
LINE
  5
80F
  8
SIZE
  6
CONTINUOUS
 62
    30
 10
-187.0
 20
408.0
 30
0.0
 11
-729.89999997615814
 21
408.0
 31
0.0
  0
LINE
  5
810
  8
SIZE
  6
CONTINUOUS
 62
    30
 10
-717.39999997615814
 20
10.000000000000091
 30
0.0
 11
-717.39999997615803
 21
398.00000000000023
 31
0.0
  0
CIRCLE
  5
811
  8
SIZE
  6
CONTINUOUS
 62
    30
 10
-717.39999997615814
 20
0.0000000000000948
 30
0.0
 40
5.0
  0
LINE
  5
812
  8
SIZE
  6
CONTINUOUS
 62
    30
 10
-717.39999997615814
 20
0.0000000000000948
 30
0.0
 11
-717.39999997615814
 21
10.000000000000091
 31
0.0
  0
CIRCLE
  5
813
  8
SIZE
  6
CONTINUOUS
 62
    30
 10
-717.39999997615803
 20
408.0
 30
0.0
 40
5.0
  0
LINE
  5
814
  8
SIZE
  6
CONTINUOUS
 62
    30
 10
-717.39999997615803
 20
408.0
 30
0.0
 11
-717.39999997615803
 21
398.00000000000011
 31
0.0
  0
TEXT
  5
815
  8
SIZE
  6
CONTINUOUS
 62
    30
 10
-727.39999997615814
 20
166.4999998776081
 30
0.0
 40
30.0
  1
408
 50
90.0
 72
     1
 11
-727.39999997615814
 21
203.9999998776081
 31
0.0
  0
POINT
  5
816
  8
DEFPOINTS
  6
CONTINUOUS
 62
    30
 10
-181.5
 20
-0.000000000000057
 30
0.0
  0
POINT
  5
817
  8
DEFPOINTS
  6
CONTINUOUS
 62
    30
 10
-177.0
 20
408.0
 30
0.0
  0
POINT
  5
818
  8
DEFPOINTS
  6
CONTINUOUS
 62
    30
 10
-717.39999997615803
 20
408.0
 30
0.0
  0
TEXT
  5
819
  8
NOTE
  6
CONTINUOUS
 10
363.92095947265619
 20
-403.0955505371092
 30
0.0
 40
40.0
  1
[4-L型座金(同梱部品)]
 50
359.99999567428893
 41
0.7386363744735723
  7
STANDARD1
  0
TEXT
  5
81A
  8
NOTE
  6
CONTINUOUS
 10
-162.2554626464844
 20
2350.429931640625
 30
0.0
 40
40.0
  1
(別売部品)
 50
359.99999567428893
 41
0.775735301129958
  7
STANDARD1
  0
LINE
  5
81B
  8
NOTE
  6
CONTINUOUS
 10
48.0
 20
254.0
 30
0.0
 11
48.0
 21
294.0
 31
0.0
  0
LINE
  5
81C
  8
NOTE
  6
CONTINUOUS
 10
28.0
 20
276.0
 30
0.0
 11
68.0
 21
276.0
 31
0.0
  0
LINE
  5
81D
  8
NOTE
  6
CONTINUOUS
 10
87.0
 20
301.0
 30
0.0
 11
127.0
 21
301.0
 31
0.0
  0
LINE
  5
81E
  8
NOTE
  6
CONTINUOUS
 10
107.0
 20
281.0
 30
0.0
 11
107.0
 21
321.0
 31
0.0
  0
LINE
  5
81F
  8
NOTE
  6
CONTINUOUS
 10
734.25
 20
-501.0
 30
0.0
 11
315.0
 21
-501.0
 31
0.0
  0
LINE
  5
820
  8
NOTE
  6
CONTINUOUS
 10
315.0
 20
-501.0
 30
0.0
 11
48.0
 21
276.0
 31
0.0
  0
LINE
  5
821
  8
NOTE
  6
CONTINUOUS
 10
48.0
 20
276.0
 30
0.0
 11
49.11735031394953
 21
274.3412268762977
 31
0.0
  0
LINE
  5
822
  8
NOTE
  6
CONTINUOUS
 10
48.0
 20
276.0
 30
0.0
 11
48.138267165884457
 21
274.00478517676959
 31
0.0
  0
TEXT
  5
823
  8
NOTE
  6
CONTINUOUS
 10
375.75
 20
-500.0
 30
0.0
 40
40.0
  1
CW R3/4(\U+03C627.2)
 50
0.000002504478167
 41
0.6503623413003012
  7
STANDARD1
  0
LINE
  5
824
  8
NOTE
  6
CONTINUOUS
 10
-652.24999999999989
 20
973.0
 30
0.0
 11
-315.0
 21
973.0
 31
0.0
  0
LINE
  5
825
  8
NOTE
  6
CONTINUOUS
 10
-315.0
 20
973.0
 30
0.0
 11
-111.0
 21
350.0
 31
0.0
  0
LINE
  5
826
  8
NOTE
  6
CONTINUOUS
 10
-111.0
 20
350.0
 30
0.0
 11
-112.0931079923635
 21
351.67484772950593
 31
0.0
  0
LINE
  5
827
  8
NOTE
  6
CONTINUOUS
 10
-111.0
 20
350.0
 30
0.0
 11
-111.1092353966163
 21
351.99701467899598
 31
0.0
  0
TEXT
  5
828
  8
NOTE
  6
CONTINUOUS
 10
-652.24999999999989
 20
974.0
 30
0.0
 40
40.0
  1
EL \U+03C626,\U+03C632
 50
0.000002504478167
 41
0.692500019073486
  7
STANDARD1
  0
LINE
  5
829
  8
NOTE
  6
CONTINUOUS
 10
-668.25
 20
873.0
 30
0.0
 11
-315.0
 21
873.0
 31
0.0
  0
LINE
  5
82A
  8
NOTE
  6
CONTINUOUS
 10
-315.0
 20
873.0
 30
0.0
 11
-178.0
 21
350.0
 31
0.0
  0
LINE
  5
82B
  8
NOTE
  6
CONTINUOUS
 10
-178.0
 20
350.0
 30
0.0
 11
-178.99027551031361
 21
351.73762896317749
 31
0.0
  0
LINE
  5
82C
  8
NOTE
  6
CONTINUOUS
 10
-178.0
 20
350.0
 30
0.0
 11
-177.988789237948
 21
351.99996857945678
 31
0.0
  0
TEXT
  5
82D
  8
NOTE
  6
CONTINUOUS
 10
-668.25
 20
874.0
 30
0.0
 40
40.0
  1
CL 24\U+00D747長円
 50
0.000002504478167
 41
0.7181372712640201
  7
STANDARD1
  0
LINE
  5
82E
  8
NOTE
  6
CONTINUOUS
 10
-734.25
 20
-450.0
 30
0.0
 11
-315.0
 21
-450.0
 31
0.0
  0
LINE
  5
82F
  8
NOTE
  6
CONTINUOUS
 10
-315.0
 20
-450.0
 30
0.0
 11
-27.0
 21
301.0
 31
0.0
  0
LINE
  5
830
  8
NOTE
  6
CONTINUOUS
 10
-27.0
 20
301.0
 30
0.0
 11
-27.20840610833563
 21
299.01088791316118
 31
0.0
  0
LINE
  5
831
  8
NOTE
  6
CONTINUOUS
 10
-27.0
 20
301.0
 30
0.0
 11
-28.175041051123038
 21
299.38158147311162
 31
0.0
  0
TEXT
  5
832
  8
NOTE
  6
CONTINUOUS
 10
-734.25
 20
-449.0000305175779
 30
0.0
 40
40.0
  1
HW R3/4(\U+03C627.2)
 50
0.000002504478167
 41
0.6503623413003012
  7
STANDARD1
  0
LINE
  5
833
  8
NOTE
  6
CONTINUOUS
 10
-27.0
 20
281.0
 30
0.0
 11
-27.0
 21
321.0
 31
0.0
  0
LINE
  5
834
  8
NOTE
  6
CONTINUOUS
 10
-47.0
 20
301.0
 30
0.0
 11
-7.0
 21
301.0
 31
0.0
  0
LINE
  5
835
  8
NOTE
  6
CONTINUOUS
 10
-178.0
 20
330.0
 30
0.0
 11
-178.0
 21
370.0
 31
0.0
  0
LINE
  5
836
  8
NOTE
  6
CONTINUOUS
 10
-198.0
 20
350.0
 30
0.0
 11
-158.0
 21
350.0
 31
0.0
  0
LINE
  5
837
  8
NOTE
  6
CONTINUOUS
 10
-111.0
 20
330.0
 30
0.0
 11
-111.0
 21
370.0
 31
0.0
  0
LINE
  5
838
  8
NOTE
  6
CONTINUOUS
 10
-131.0
 20
350.0
 30
0.0
 11
-91.0
 21
350.0
 31
0.0
  0
LINE
  5
839
  8
NOTE
  6
CONTINUOUS
 10
-144.99999999999969
 20
-20.000000000000028
 30
0.0
 11
-144.99999999999969
 21
19.999999999999972
 31
0.0
  0
LINE
  5
83A
  8
NOTE
  6
CONTINUOUS
 10
-164.9999999999996
 20
-0.000000000000026
 30
0.0
 11
-124.9999999999998
 21
-0.000000000000031
 31
0.0
  0
LINE
  5
83B
  8
NOTE
  6
CONTINUOUS
 10
165.0
 20
0.0
 30
0.0
 11
125.0
 21
0.0
 31
0.0
  0
LINE
  5
83C
  8
NOTE
  6
CONTINUOUS
 10
145.0
 20
-20.0
 30
0.0
 11
145.0
 21
20.0
 31
0.0
  0
LINE
  5
83D
  8
NOTE
  6
CONTINUOUS
 10
571.25
 20
-350.0
 30
0.0
 11
315.0
 21
-350.0
 31
0.0
  0
LINE
  5
83E
  8
NOTE
  6
CONTINUOUS
 10
315.0
 20
-350.0
 30
0.0
 11
145.0
 21
0.0
 31
0.0
  0
LINE
  5
83F
  8
NOTE
  6
CONTINUOUS
 10
145.0
 20
0.0
 30
0.0
 11
146.30965333877239
 21
-1.5115581802372771
 31
0.0
  0
LINE
  5
840
  8
NOTE
  6
CONTINUOUS
 10
145.0
 20
0.0
 30
0.0
 11
145.37841394279479
 21
-1.963874458283541
 31
0.0
  0
TEXT
  5
841
  8
NOTE
  6
CONTINUOUS
 10
375.75
 20
-349.0
 30
0.0
 40
40.0
  1
AH 4-M12
 50
0.000002504478167
 41
0.6447368672019561
  7
STANDARD1
  0
LINE
  5
842
  8
NOTE
  6
CONTINUOUS
 10
87.0
 20
110.0
 30
0.0
 11
47.0
 21
110.0
 31
0.0
  0
LINE
  5
843
  8
NOTE
  6
CONTINUOUS
 10
67.0
 20
90.0
 30
0.0
 11
67.0
 21
130.0
 31
0.0
  0
TEXT
  5
844
  8
NOTE
  6
CONTINUOUS
 10
1012.588256835937
 20
848.2142333984375
 30
0.0
 40
40.0
  1
メンテナンススペース
 50
89.999991348577979
 41
0.84375
  7
STANDARD1
  0
LINE
  5
845
  8
NOTE
  6
CONTINUOUS
 10
-365.0
 20
1903.0
 30
0.0
 11
-365.0
 21
1943.0
 31
0.0
  0
LINE
  5
846
  8
NOTE
  6
CONTINUOUS
 10
-385.0
 20
1923.0
 30
0.0
 11
-345.0
 21
1923.0
 31
0.0
  0
LINE
  5
847
  8
NOTE
  6
CONTINUOUS
 10
-671.25
 20
2249.92041015625
 30
0.0
 11
-415.0
 21
2249.92041015625
 31
0.0
  0
LINE
  5
848
  8
NOTE
  6
CONTINUOUS
 10
-415.0
 20
2249.92041015625
 30
0.0
 11
-364.9999694824217
 21
1923.0
 31
0.0
  0
LINE
  5
849
  8
NOTE
  6
CONTINUOUS
 10
-364.9999694824217
 20
1923.0
 30
0.0
 11
-365.80372370625122
 21
1924.831387219481
 31
0.0
  0
LINE
  5
84A
  8
NOTE
  6
CONTINUOUS
 10
-364.9999694824217
 20
1923.0
 30
0.0
 11
-364.78034741995219
 21
1924.9879049649501
 31
0.0
  0
TEXT
  5
84B
  8
NOTE
  6
CONTINUOUS
 10
-671.25
 20
2250.92041015625
 30
0.0
 40
40.0
  1
AH 2-M10
 50
359.99999567428893
 41
0.6447368672019561
  7
STANDARD1
  0
TEXT
  5
84C
  8
NOTE
  6
CONTINUOUS
 10
-203.49003601074219
 20
2197.669677734375
 30
0.0
 40
40.0
  1
メンテナンススペース
 50
0.000002504478167
 41
0.84375
  7
STANDARD1
  0
LINE
  5
84D
  8
NOTE
  6
CONTINUOUS
 10
169.25
 20
2400.0
 30
0.0
 11
-215.0
 21
2400.0
 31
0.0
  0
LINE
  5
84E
  8
NOTE
  6
CONTINUOUS
 10
-215.0
 20
2400.0
 30
0.0
 11
-263.79998779296869
 21
1901.199951171875
 31
0.0
  0
LINE
  5
84F
  8
NOTE
  6
CONTINUOUS
 10
-263.79998779296869
 20
1901.199951171875
 30
0.0
 11
-264.12706204552262
 21
1903.1730255326929
 31
0.0
  0
LINE
  5
850
  8
NOTE
  6
CONTINUOUS
 10
-263.79998779296869
 20
1901.199951171875
 30
0.0
 11
-263.09670519691548
 21
1903.072220807928
 31
0.0
  0
TEXT
  5
851
  8
NOTE
  6
CONTINUOUS
 10
-154.25
 20
2401.0
 30
0.0
 40
40.0
  1
上部振れ止め金具
 50
359.99999567428893
 41
0.84375
  7
STANDARD1
  0
LINE
  5
852
  8
NOTE
  6
CONTINUOUS
 10
734.25
 20
-600.0
 30
0.0
 11
315.0
 21
-600.0
 31
0.0
  0
LINE
  5
853
  8
NOTE
  6
CONTINUOUS
 10
315.0
 20
-600.0
 30
0.0
 11
67.0
 21
110.0
 31
0.0
  0
LINE
  5
854
  8
NOTE
  6
CONTINUOUS
 10
67.0
 20
110.0
 30
0.0
 11
68.125727948561391
 21
108.3469009146975
 31
0.0
  0
LINE
  5
855
  8
NOTE
  6
CONTINUOUS
 10
67.0
 20
110.0
 30
0.0
 11
67.14835942949243
 21
108.00551022071291
 31
0.0
  0
TEXT
  5
856
  8
NOTE
  6
CONTINUOUS
 10
375.75
 20
-599.0
 30
0.0
 40
40.0
  1
WD R3/4(\U+03C627.2)
 50
359.99999567428893
 41
0.6503623413003012
  7
STANDARD1
  0
LINE
  5
857
  8
NOTE
  6
CONTINUOUS
 10
167.0
 20
281.0
 30
0.0
 11
167.0
 21
321.0
 31
0.0
  0
LINE
  5
858
  8
NOTE
  6
CONTINUOUS
 10
147.0
 20
301.0
 30
0.0
 11
187.0
 21
301.0
 31
0.0
  0
LINE
  5
859
  8
NOTE
  6
CONTINUOUS
 10
734.25
 20
-250.0
 30
0.0
 11
315.0
 21
-250.0
 31
0.0
  0
LINE
  5
85A
  8
NOTE
  6
CONTINUOUS
 10
315.0
 20
-250.0
 30
0.0
 11
107.0
 21
301.0
 31
0.0
  0
LINE
  5
85B
  8
NOTE
  6
CONTINUOUS
 10
107.0
 20
301.0
 30
0.0
 11
108.16655211619
 21
299.37545201357051
 31
0.0
  0
LINE
  5
85C
  8
NOTE
  6
CONTINUOUS
 10
107.0
 20
301.0
 30
0.0
 11
107.1979897452464
 21
299.0098241131052
 31
0.0
  0
TEXT
  5
85D
  8
NOTE
  6
CONTINUOUS
 10
375.75
 20
-249.0
 30
0.0
 40
40.0
  1
BH R1/2(\U+03C621.7)
 50
359.99998884409979
 41
0.6503623413003012
  7
STANDARD1
  0
LINE
  5
85E
  8
NOTE
  6
CONTINUOUS
 10
758.75
 20
-150.0
 30
0.0
 11
315.0
 21
-150.0
 31
0.0
  0
LINE
  5
85F
  8
NOTE
  6
CONTINUOUS
 10
315.0
 20
-150.0
 30
0.0
 11
167.0
 21
301.0
 31
0.0
  0
LINE
  5
860
  8
NOTE
  6
CONTINUOUS
 10
167.0
 20
301.0
 30
0.0
 11
168.09418426770841
 21
299.3258552068894
 31
0.0
  0
LINE
  5
861
  8
NOTE
  6
CONTINUOUS
 10
167.0
 20
301.0
 30
0.0
 11
167.11051894660491
 21
299.0030559440882
 31
0.0
  0
TEXT
  5
862
  8
NOTE
  6
CONTINUOUS
 10
375.75
 20
-149.0
 30
0.0
 40
40.0
  1
BHR R1/2(\U+03C621.7)
 50
359.99998884409979
 41
0.6478040766071631
  7
STANDARD1
  0
LINE
  5
863
  8
NOTE
  6
CONTINUOUS
 10
-53.0
 20
281.0
 30
0.0
 11
-53.0
 21
321.0
 31
0.0
  0
LINE
  5
864
  8
NOTE
  6
CONTINUOUS
 10
-73.0
 20
301.0
 30
0.0
 11
-33.0
 21
301.0
 31
0.0
  0
LINE
  5
865
  8
NOTE
  6
CONTINUOUS
 10
-165.0
 20
311.0
 30
0.0
 11
-125.0
 21
311.0
 31
0.0
  0
LINE
  5
866
  8
NOTE
  6
CONTINUOUS
 10
-145.0
 20
291.0
 30
0.0
 11
-145.0
 21
331.0
 31
0.0
  0
LINE
  5
867
  8
NOTE
  6
CONTINUOUS
 10
-1123.25
 20
-152.0
 30
0.0
 11
-315.0
 21
-152.0
 31
0.0
  0
LINE
  5
868
  8
NOTE
  6
CONTINUOUS
 10
-315.0
 20
-152.0
 30
0.0
 11
-145.0
 21
311.0
 31
0.0
  0
LINE
  5
869
  8
NOTE
  6
CONTINUOUS
 10
-145.0
 20
311.0
 30
0.0
 11
-145.17993549537059
 21
309.00811064124889
 31
0.0
  0
LINE
  5
86A
  8
NOTE
  6
CONTINUOUS
 10
-145.0
 20
311.0
 30
0.0
 11
-146.1517734132326
 21
309.3649409782609
 31
0.0
  0
TEXT
  5
86B
  8
NOTE
  6
CONTINUOUS
 10
-1123.25
 20
-151.0000305175781
 30
0.0
 40
40.0
  1
ヒートポンプ配管口(B) R1/2(\U+03C621.7)
 50
0.000002504478167
 41
0.730468763038516
  7
STANDARD1
  0
LINE
  5
86C
  8
NOTE
  6
CONTINUOUS
 10
-1123.25
 20
-250.0
 30
0.0
 11
-315.0
 21
-250.0
 31
0.0
  0
LINE
  5
86D
  8
NOTE
  6
CONTINUOUS
 10
-315.0
 20
-250.0
 30
0.0
 11
-53.0
 21
301.0
 31
0.0
  0
LINE
  5
86E
  8
NOTE
  6
CONTINUOUS
 10
-53.0
 20
301.0
 30
0.0
 11
-53.362104104521812
 21
299.0330529703399
 31
0.0
  0
LINE
  5
86F
  8
NOTE
  6
CONTINUOUS
 10
-53.0
 20
301.0
 30
0.0
 11
-54.297064890342199
 21
299.47762597557568
 31
0.0
  0
TEXT
  5
870
  8
NOTE
  6
CONTINUOUS
 10
-1123.25
 20
-249.0000305175781
 30
0.0
 40
40.0
  1
ヒートポンプ配管口(A) R1/2(\U+03C621.7)
 50
0.000002504478167
 41
0.730468763038516
  7
STANDARD1
  0
LINE
  5
871
  8
NOTE
  6
CONTINUOUS
 10
-513.75
 20
-350.0
 30
0.0
 11
-315.0
 21
-350.0
 31
0.0
  0
LINE
  5
872
  8
NOTE
  6
CONTINUOUS
 10
-315.0
 20
-350.0
 30
0.0
 11
-110.0
 21
121.9999847412108
 31
0.0
  0
LINE
  5
873
  8
NOTE
  6
CONTINUOUS
 10
-110.0
 20
121.9999847412108
 30
0.0
 11
-110.2948029661892
 21
120.0218312559813
 31
0.0
  0
LINE
  5
874
  8
NOTE
  6
CONTINUOUS
 10
-110.0
 20
121.9999847412108
 30
0.0
 11
-111.2443836232591
 21
120.43425507164319
 31
0.0
  0
TEXT
  5
875
  8
NOTE
  6
CONTINUOUS
 10
-513.75
 20
-348.99993896484381
 30
0.0
 40
40.0
  1
D \U+03C618
 50
359.99997518372152
 41
0.7213541865348822
  7
STANDARD1
  0
LINE
  5
876
  8
NOTE
  6
CONTINUOUS
 10
-130.0
 20
121.9999999999999
 30
0.0
 11
-90.0
 21
121.9999999999999
 31
0.0
  0
LINE
  5
877
  8
NOTE
  6
CONTINUOUS
 10
-110.0
 20
141.9999999999998
 30
0.0
 11
-110.0
 21
101.9999999999999
 31
0.0
  0
TEXT
  5
878
  8
NOTE
  6
CONTINUOUS
 10
-765.75335693359375
 20
1978.941650390625
 30
0.0
 40
40.0
  1
メンテナンススペース
 50
89.999991348577979
 41
0.84375
  7
STANDARD1
  0
CIRCLE
  5
879
  8
ARRANGE
  6
CONTINUOUS
 10
0.0
 20
0.0
 30
0.0
 40
15.0
  0
CIRCLE
  5
87A
  8
FIX
  6
CONTINUOUS
 10
145.0000000000002
 20
0.00000000000004
 30
0.0
 40
6.0
  0
CIRCLE
  5
87B
  8
FIX
  6
CONTINUOUS
 10
-145.0
 20
-0.000000000000002
 30
0.0
 40
6.0
  0
CIRCLE
  5
87C
  8
FIX
  6
CONTINUOUS
 10
-365.0
 20
1923.0
 30
0.0
 40
5.0
  0
LINE
  5
87D
  8
SERVICESPACE
  6
DASHDOT
 10
-215.00000000000011
 20
2100.0
 30
0.0
 11
515.00000000000011
 21
2100.0
 31
0.0
  0
LINE
  5
87E
  8
SERVICESPACE
  6
DASHDOT
 10
215.0000000000002
 20
0.0
 30
0.0
 11
215.0000000000002
 21
2100.0
 31
0.0
  0
LINE
  5
87F
  8
SERVICESPACE
  6
DASHDOT
 10
-215.00000000000011
 20
1900.0
 30
0.0
 11
215.0000000000002
 21
1900.0
 31
0.0
  0
LINE
  5
880
  8
SERVICESPACE
  6
DASHDOT
 10
-215.00000000000011
 20
1900.0
 30
0.0
 11
-215.00000000000011
 21
2100.0
 31
0.0
  0
LINE
  5
881
  8
SERVICESPACE
  6
DASHDOT
 10
215.0000000000002
 20
2100.0
 30
0.0
 11
-215.00000000000011
 21
1900.0
 31
0.0
  0
LINE
  5
882
  8
SERVICESPACE
  6
DASHDOT
 10
-215.00000000000011
 20
2100.0
 30
0.0
 11
215.0000000000002
 21
1900.0
 31
0.0
  0
LINE
  5
883
  8
SERVICESPACE
  6
DASHDOT
 10
515.00000000000011
 20
0.0
 30
0.0
 11
515.00000000000011
 21
2100.0
 31
0.0
  0
LINE
  5
884
  8
SERVICESPACE
  6
DASHDOT
 10
515.00000000000011
 20
0.0
 30
0.0
 11
215.0000000000002
 21
0.0
 31
0.0
  0
LINE
  5
885
  8
SERVICESPACE
  6
DASHDOT
 10
515.00000000000011
 20
2100.0
 30
0.0
 11
215.0000000000002
 21
0.0
 31
0.0
  0
LINE
  5
886
  8
SERVICESPACE
  6
DASHDOT
 10
515.00000000000011
 20
0.0
 30
0.0
 11
215.0000000000002
 21
2100.0
 31
0.0
  0
TEXT
  5
887
  8
ETC
  6
CONTINUOUS
 10
678.02276611328125
 20
2390.557373046875
 30
0.0
 40
40.0
  1
TST37Z2
 50
0.000002504478167
 41
0.6125000238418579
  7
STANDARD1
  0
TEXT
  5
888
  8
ETC
  6
CONTINUOUS
 10
678.02276611328125
 20
2320.557373046875
 30
0.0
 40
40.0
  1
貯湯ユニット
 50
0.000002504478167
 41
0.84375
  7
STANDARD1
  0
ENDSEC
  0
EOF
