  0
SECTION
  2
HEADER
  9
$ACADVER
  1
AC1009
  9
$DWGCODEPAGE
  3
dos932
  9
$INSBASE
 10
0.0
 20
0.0
 30
0.0
  9
$EXTMIN
 10
-1192.480902658099
 20
-360.1844034883602
 30
-0.0015258207003583
  9
$EXTMAX
 10
1138.858317623196
 20
1068.744541740614
 30
0.0000000349246037
  9
$LIMMIN
 10
0.0
 20
0.0
  9
$LIMMAX
 10
12.0
 20
9.0
  9
$ORTHOMODE
 70
     0
  9
$REGENMODE
 70
     1
  9
$FILLMODE
 70
     1
  9
$QTEXTMODE
 70
     0
  9
$MIRRTEXT
 70
     0
  9
$DRAGMODE
 70
     2
  9
$LTSCALE
 40
1.0
  9
$OSMODE
 70
    37
  9
$ATTMODE
 70
     1
  9
$TEXTSIZE
 40
2.799999952316284
  9
$TRACEWID
 40
0.05
  9
$TEXTSTYLE
  7
STANDARD1
  9
$CLAYER
  8
0
  9
$CELTYPE
  6
CONTINUOUS
  9
$CECOLOR
 62
   256
  9
$DIMSCALE
 40
1.0
  9
$DIMASZ
 40
10.0
  9
$DIMEXO
 40
10.0
  9
$DIMDLI
 40
8.0
  9
$DIMRND
 40
0.0
  9
$DIMDLE
 40
0.0
  9
$DIMEXE
 40
12.5
  9
$DIMTP
 40
0.0
  9
$DIMTM
 40
0.0
  9
$DIMTXT
 40
30.0
  9
$DIMCEN
 40
2.5
  9
$DIMTSZ
 40
0.0
  9
$DIMTOL
 70
     0
  9
$DIMLIM
 70
     0
  9
$DIMTIH
 70
     0
  9
$DIMTOH
 70
     0
  9
$DIMSE1
 70
     0
  9
$DIMSE2
 70
     0
  9
$DIMTAD
 70
     3
  9
$DIMZIN
 70
    12
  9
$DIMBLK
  1

  9
$DIMASO
 70
     1
  9
$DIMSHO
 70
     1
  9
$DIMPOST
  1

  9
$DIMAPOST
  1

  9
$DIMALT
 70
     0
  9
$DIMALTD
 70
     4
  9
$DIMALTF
 40
25.4
  9
$DIMLFAC
 40
1.0
  9
$DIMTOFL
 70
     1
  9
$DIMTVP
 40
0.0
  9
$DIMTIX
 70
     0
  9
$DIMSOXD
 70
     0
  9
$DIMSAH
 70
     1
  9
$DIMBLK1
  1
ORIGIN
  9
$DIMBLK2
  1
ORIGIN
  9
$DIMSTYLE
  2
STANDARD
  9
$DIMCLRD
 70
     0
  9
$DIMCLRE
 70
     0
  9
$DIMCLRT
 70
     0
  9
$DIMTFAC
 40
0.7142857313156129
  9
$DIMGAP
 40
10.0
  9
$LUNITS
 70
     2
  9
$LUPREC
 70
     3
  9
$SKETCHINC
 40
0.1
  9
$FILLETRAD
 40
0.0
  9
$AUNITS
 70
     0
  9
$AUPREC
 70
     0
  9
$MENU
  1
.
  9
$ELEVATION
 40
0.0
  9
$PELEVATION
 40
0.0
  9
$THICKNESS
 40
0.0
  9
$LIMCHECK
 70
     0
  9
$CHAMFERA
 40
0.0
  9
$CHAMFERB
 40
0.0
  9
$SKPOLY
 70
     0
  9
$TDCREATE
 40
2456808.663240556
  9
$TDUPDATE
 40
2457459.559375335
  9
$TDINDWG
 40
0.0020242014
  9
$TDUSRTIMER
 40
0.0020242014
  9
$USRTIMER
 70
     1
  9
$ANGBASE
 50
0.0
  9
$ANGDIR
 70
     0
  9
$PDMODE
 70
     0
  9
$PDSIZE
 40
0.0
  9
$PLINEWID
 40
0.0
  9
$COORDS
 70
     1
  9
$SPLFRAME
 70
     0
  9
$SPLINETYPE
 70
     6
  9
$SPLINESEGS
 70
     8
  9
$ATTDIA
 70
     0
  9
$ATTREQ
 70
     1
  9
$HANDLING
 70
     1
  9
$HANDSEED
  5
78C
  9
$SURFTAB1
 70
     6
  9
$SURFTAB2
 70
     6
  9
$SURFTYPE
 70
     6
  9
$SURFU
 70
     6
  9
$SURFV
 70
     6
  9
$UCSNAME
  2

  9
$UCSORG
 10
0.0
 20
0.0
 30
0.0
  9
$UCSXDIR
 10
1.0
 20
0.0
 30
0.0
  9
$UCSYDIR
 10
0.0
 20
1.0
 30
0.0
  9
$PUCSNAME
  2

  9
$PUCSORG
 10
0.0
 20
0.0
 30
0.0
  9
$PUCSXDIR
 10
1.0
 20
0.0
 30
0.0
  9
$PUCSYDIR
 10
0.0
 20
1.0
 30
0.0
  9
$USERI1
 70
     0
  9
$USERI2
 70
     0
  9
$USERI3
 70
     0
  9
$USERI4
 70
     0
  9
$USERI5
 70
     0
  9
$USERR1
 40
0.0
  9
$USERR2
 40
0.0
  9
$USERR3
 40
0.0
  9
$USERR4
 40
0.0
  9
$USERR5
 40
0.0
  9
$WORLDVIEW
 70
     1
  9
$SHADEDGE
 70
     3
  9
$SHADEDIF
 70
    70
  9
$TILEMODE
 70
     1
  9
$MAXACTVP
 70
    64
  9
$PLIMCHECK
 70
     0
  9
$PEXTMIN
 10
1.000000000000000E+20
 20
1.000000000000000E+20
 30
1.000000000000000E+20
  9
$PEXTMAX
 10
-1.000000000000000E+20
 20
-1.000000000000000E+20
 30
-1.000000000000000E+20
  9
$PLIMMIN
 10
0.0
 20
0.0
  9
$PLIMMAX
 10
12.0
 20
9.0
  9
$UNITMODE
 70
     0
  9
$VISRETAIN
 70
     1
  9
$PLINEGEN
 70
     0
  9
$PSLTSCALE
 70
     1
  0
ENDSEC
  0
SECTION
  2
TABLES
  0
TABLE
  2
VPORT
 70
     1
  0
VPORT
  2
*ACTIVE
 70
     0
 10
0.0
 20
0.0
 11
1.0
 21
1.0
 12
-26.81129251745142
 22
354.2800691261268
 13
0.0
 23
0.0
 14
1.0
 24
1.0
 15
0.0
 25
0.0
 16
0.0
 26
0.0
 36
1.0
 17
0.0
 27
0.0
 37
0.0
 40
2357.672747386704
 41
0.9971870604781996
 42
50.0
 43
0.0
 44
0.0
 50
0.0
 51
0.0
 71
     0
 72
   100
 73
     1
 74
     1
 75
     0
 76
     0
 77
     0
 78
     0
  0
ENDTAB
  0
TABLE
  2
LTYPE
 70
     4
  0
LTYPE
  2
CONTINUOUS
 70
     0
  3
Solid line
 72
    65
 73
     0
 40
0.0
  0
LTYPE
  2
DASHED
 70
     0
  3
-- -- -- -- -- -- -- -- -- -- -- -- -- -- --
 72
    65
 73
     2
 40
0.75
 49
0.5
 49
-0.25
  0
LTYPE
  2
DASHDOT
 70
     0
  3
__ . __ . __ . __ . __ . __ . __ . __ . __ . __
 72
    65
 73
     4
 40
125.0
 49
80.0
 49
-20.0
 49
5.0
 49
-20.0
  0
LTYPE
  2
DIVIDE
 70
     0
  3
__ . . __ . . __ . . __ . . __ . . __ . . __
 72
    65
 73
     6
 40
1.25
 49
0.5
 49
-0.25
 49
0.0
 49
-0.25
 49
0.0
 49
-0.25
  0
ENDTAB
  0
TABLE
  2
LAYER
 70
    12
  0
LAYER
  2
0
 70
     0
 62
     3
  6
CONTINUOUS
  0
LAYER
  2
OUTLINE
 70
     0
 62
     3
  6
CONTINUOUS
  0
LAYER
  2
DETAIL
 70
     0
 62
     5
  6
CONTINUOUS
  0
LAYER
  2
BASIS
 70
     0
 62
     6
  6
CONTINUOUS
  0
LAYER
  2
SIZE
 70
     0
 62
    30
  6
CONTINUOUS
  0
LAYER
  2
NOTE
 70
     0
 62
     4
  6
CONTINUOUS
  0
LAYER
  2
ARRANGE
 70
     0
 62
     1
  6
CONTINUOUS
  0
LAYER
  2
FIX
 70
     0
 62
    11
  6
CONTINUOUS
  0
LAYER
  2
SERVICESPACE
 70
     0
 62
     2
  6
CONTINUOUS
  0
LAYER
  2
ETC
 70
     0
 62
    61
  6
CONTINUOUS
  0
LAYER
  2
SYMBOLLINE
 70
     0
 62
     7
  6
CONTINUOUS
  0
LAYER
  2
DEFPOINTS
 70
     0
 62
     7
  6
CONTINUOUS
  0
ENDTAB
  0
TABLE
  2
STYLE
 70
     5
  0
STYLE
  2
STANDARD
 70
     0
 40
0.0
 41
1.0
 50
0.0
 71
     0
 42
0.2
  3
txt
  4

  0
STYLE
  2
STANDARD1
 70
     0
 40
0.0
 41
1.0
 50
0.0
 71
     0
 42
2.799999952316284
  3
MONOTXT
  4
BIGFONT
  0
STYLE
  2
STANDARD2
 70
     4
 40
0.0
 41
1.0
 50
0.0
 71
     0
 42
2.799999952316284
  3
MONOTXT
  4
BIGFONT
  0
STYLE
  2
STANDARD3
 70
     0
 40
0.0
 41
1.0
 50
0.0
 71
     0
 42
2.799999952316284
  3
MONOTXT
  4

  0
STYLE
  2
STANDARD4
 70
     4
 40
0.0
 41
1.0
 50
0.0
 71
     0
 42
2.799999952316284
  3
MONOTXT
  4

  0
ENDTAB
  0
TABLE
  2
VIEW
 70
     0
  0
ENDTAB
  0
TABLE
  2
UCS
 70
     0
  0
ENDTAB
  0
TABLE
  2
APPID
 70
     1
  0
APPID
  2
ACAD
 70
     0
  0
ENDTAB
  0
TABLE
  2
DIMSTYLE
 70
     1
  0
DIMSTYLE
  2
STANDARD
 70
     0
  3

  4

  5

  6

  7

 40
1.0
 41
0.18
 42
0.0625
 43
0.38
 44
0.18
 45
0.0
 46
0.0
 47
0.0
 48
0.0
140
0.18
141
0.09
142
0.0
143
25.4
144
1.0
145
0.0
146
1.0
147
0.09
 71
     0
 72
     0
 73
     1
 74
     1
 75
     0
 76
     0
 77
     0
 78
     0
170
     0
171
     2
172
     0
173
     0
174
     0
175
     0
176
     0
177
     0
178
     0
  0
ENDTAB
  0
ENDSEC
  0
SECTION
  2
BLOCKS
  0
BLOCK
  8
0
  2
$MODEL_SPACE
 70
     0
 10
0.0
 20
0.0
 30
0.0
  3
$MODEL_SPACE
  1

  0
ENDBLK
  5
764
  8
0
  0
BLOCK
 67
     1
  8
0
  2
$PAPER_SPACE
 70
     0
 10
0.0
 20
0.0
 30
0.0
  3
$PAPER_SPACE
  1

  0
ENDBLK
  5
766
 67
     1
  8
0
  0
BLOCK
  8
SIZE
  2
*D0
 70
     1
 10
0.0
 20
0.0
 30
0.0
  3
*D0
  1

  0
TEXT
  5
380
  8
SIZE
  6
CONTINUOUS
 10
567.3739014283833
 20
-349.0408080816269
 30
0.0
 40
2.799999952316284
  1
21
 50
0.000002504478167
 41
0.6999999829701011
  7
STANDARD1
  0
LINE
  5
381
  8
SIZE
  6
CONTINUOUS
 10
420.990234375
 20
611.9591674804688
 30
0.0
 11
420.990234375
 21
-352.0408020019532
 31
0.0
  0
LINE
  5
382
  8
SIZE
  6
CONTINUOUS
 10
399.990234375
 20
631.9591674804688
 30
0.0
 11
399.990234375
 21
-352.0408020019532
 31
0.0
  0
LINE
  5
383
  8
SIZE
  6
CONTINUOUS
 10
572.6939086914064
 20
-350.0408020019532
 30
0.0
 11
394.990234375
 21
-350.0408020019532
 31
0.0
  0
CIRCLE
  5
384
  8
SIZE
  6
CONTINUOUS
 10
420.990234375
 20
-350.0408020019532
 30
0.0
 40
0.5
  0
CIRCLE
  5
385
  8
SIZE
  6
CONTINUOUS
 10
420.990234375
 20
-350.0408020019532
 30
0.0
 40
0.4
  0
CIRCLE
  5
386
  8
SIZE
  6
CONTINUOUS
 10
420.990234375
 20
-350.0408020019532
 30
0.0
 40
0.3
  0
CIRCLE
  5
387
  8
SIZE
  6
CONTINUOUS
 10
420.990234375
 20
-350.0408020019532
 30
0.0
 40
0.2
  0
CIRCLE
  5
388
  8
SIZE
  6
CONTINUOUS
 10
420.990234375
 20
-350.0408020019532
 30
0.0
 40
0.1
  0
CIRCLE
  5
389
  8
SIZE
  6
CONTINUOUS
 10
399.990234375
 20
-350.0408020019532
 30
0.0
 40
0.5
  0
CIRCLE
  5
38A
  8
SIZE
  6
CONTINUOUS
 10
399.990234375
 20
-350.0408020019532
 30
0.0
 40
0.4
  0
CIRCLE
  5
38B
  8
SIZE
  6
CONTINUOUS
 10
399.990234375
 20
-350.0408020019532
 30
0.0
 40
0.3
  0
CIRCLE
  5
38C
  8
SIZE
  6
CONTINUOUS
 10
399.990234375
 20
-350.0408020019532
 30
0.0
 40
0.2
  0
CIRCLE
  5
38D
  8
SIZE
  6
CONTINUOUS
 10
399.990234375
 20
-350.0408020019532
 30
0.0
 40
0.1
  0
POINT
  5
38E
  8
DEFPOINTS
  6
BYBLOCK
 10
399.990234375
 20
632.9591674804688
 30
0.0
  0
POINT
  5
38F
  8
DEFPOINTS
  6
BYBLOCK
 10
420.990234375
 20
612.9591674804688
 30
0.0
  0
POINT
  5
390
  8
DEFPOINTS
  6
BYBLOCK
 10
420.990234375
 20
-350.0408020019532
 30
0.0
  0
ENDBLK
  5
391
  8
SIZE
  0
BLOCK
  8
SIZE
  2
*D1
 70
     1
 10
0.0
 20
0.0
 30
0.0
  3
*D1
  1

  0
TEXT
  5
394
  8
SIZE
  6
CONTINUOUS
 10
-436.9697570188821
 20
-349.0408080816269
 30
0.0
 40
2.799999952316284
  1
70
 50
0.000002504478167
 41
0.6999999829701011
  7
STANDARD1
  0
LINE
  5
395
  8
SIZE
  6
CONTINUOUS
 10
-470.009765625
 20
53.83419036865234
 30
0.0
 11
-470.009765625
 21
-352.0408020019532
 31
0.0
  0
LINE
  5
396
  8
SIZE
  6
CONTINUOUS
 10
-400.009765625
 20
-1.040810670703649
 30
0.0
 11
-400.009765625
 21
-352.0408020019532
 31
0.0
  0
LINE
  5
397
  8
SIZE
  6
CONTINUOUS
 10
-470.009765625
 20
-350.0408020019532
 30
0.0
 11
-400.009765625
 21
-350.0408020019532
 31
0.0
  0
CIRCLE
  5
398
  8
SIZE
  6
CONTINUOUS
 10
-470.009765625
 20
-350.0408020019532
 30
0.0
 40
0.5
  0
CIRCLE
  5
399
  8
SIZE
  6
CONTINUOUS
 10
-470.009765625
 20
-350.0408020019532
 30
0.0
 40
0.4
  0
CIRCLE
  5
39A
  8
SIZE
  6
CONTINUOUS
 10
-470.009765625
 20
-350.0408020019532
 30
0.0
 40
0.3
  0
CIRCLE
  5
39B
  8
SIZE
  6
CONTINUOUS
 10
-470.009765625
 20
-350.0408020019532
 30
0.0
 40
0.2
  0
CIRCLE
  5
39C
  8
SIZE
  6
CONTINUOUS
 10
-470.009765625
 20
-350.0408020019532
 30
0.0
 40
0.1
  0
CIRCLE
  5
39D
  8
SIZE
  6
CONTINUOUS
 10
-400.009765625
 20
-350.0408020019532
 30
0.0
 40
0.5
  0
CIRCLE
  5
39E
  8
SIZE
  6
CONTINUOUS
 10
-400.009765625
 20
-350.0408020019532
 30
0.0
 40
0.4
  0
CIRCLE
  5
39F
  8
SIZE
  6
CONTINUOUS
 10
-400.009765625
 20
-350.0408020019532
 30
0.0
 40
0.3
  0
CIRCLE
  5
3A0
  8
SIZE
  6
CONTINUOUS
 10
-400.009765625
 20
-350.0408020019532
 30
0.0
 40
0.2
  0
CIRCLE
  5
3A1
  8
SIZE
  6
CONTINUOUS
 10
-400.009765625
 20
-350.0408020019532
 30
0.0
 40
0.1
  0
POINT
  5
3A2
  8
DEFPOINTS
  6
BYBLOCK
 10
-400.009765625
 20
-0.04081067070365
 30
0.0
  0
POINT
  5
3A3
  8
DEFPOINTS
  6
BYBLOCK
 10
-470.009765625
 20
54.83419036865234
 30
0.0
  0
POINT
  5
3A4
  8
DEFPOINTS
  6
BYBLOCK
 10
-470.009765625
 20
-350.0408020019532
 30
0.0
  0
ENDBLK
  5
3A5
  8
SIZE
  0
BLOCK
  8
SIZE
  2
*D2
 70
     1
 10
0.0
 20
0.0
 30
0.0
  3
*D2
  1

  0
TEXT
  5
3A8
  8
SIZE
  6
CONTINUOUS
 10
-206.6117553098978
 20
-149.0408080816268
 30
0.0
 40
2.799999952316284
  1
40
 50
0.000002504478167
 41
0.6999999829701011
  7
STANDARD1
  0
LINE
  5
3A9
  8
SIZE
  6
CONTINUOUS
 10
-230.0097503662109
 20
-1.040809631347656
 30
0.0
 11
-230.0097503662109
 21
-152.0408020019531
 31
0.0
  0
LINE
  5
3AA
  8
SIZE
  6
CONTINUOUS
 10
-270.009765625
 20
-1.040809631347656
 30
0.0
 11
-270.009765625
 21
-152.0408020019531
 31
0.0
  0
LINE
  5
3AB
  8
SIZE
  6
CONTINUOUS
 10
-201.291748046875
 20
-150.0408020019531
 30
0.0
 11
-275.009765625
 21
-150.0408020019531
 31
0.0
  0
CIRCLE
  5
3AC
  8
SIZE
  6
CONTINUOUS
 10
-230.0097503662109
 20
-150.0408020019531
 30
0.0
 40
0.5
  0
CIRCLE
  5
3AD
  8
SIZE
  6
CONTINUOUS
 10
-230.0097503662109
 20
-150.0408020019531
 30
0.0
 40
0.4
  0
CIRCLE
  5
3AE
  8
SIZE
  6
CONTINUOUS
 10
-230.0097503662109
 20
-150.0408020019531
 30
0.0
 40
0.3
  0
CIRCLE
  5
3AF
  8
SIZE
  6
CONTINUOUS
 10
-230.0097503662109
 20
-150.0408020019531
 30
0.0
 40
0.2
  0
CIRCLE
  5
3B0
  8
SIZE
  6
CONTINUOUS
 10
-230.0097503662109
 20
-150.0408020019531
 30
0.0
 40
0.1
  0
CIRCLE
  5
3B1
  8
SIZE
  6
CONTINUOUS
 10
-270.009765625
 20
-150.0408020019531
 30
0.0
 40
0.5
  0
CIRCLE
  5
3B2
  8
SIZE
  6
CONTINUOUS
 10
-270.009765625
 20
-150.0408020019531
 30
0.0
 40
0.4
  0
CIRCLE
  5
3B3
  8
SIZE
  6
CONTINUOUS
 10
-270.009765625
 20
-150.0408020019531
 30
0.0
 40
0.3
  0
CIRCLE
  5
3B4
  8
SIZE
  6
CONTINUOUS
 10
-270.009765625
 20
-150.0408020019531
 30
0.0
 40
0.2
  0
CIRCLE
  5
3B5
  8
SIZE
  6
CONTINUOUS
 10
-270.009765625
 20
-150.0408020019531
 30
0.0
 40
0.1
  0
POINT
  5
3B6
  8
DEFPOINTS
  6
BYBLOCK
 10
-270.009765625
 20
-0.040809631347656
 30
0.0
  0
POINT
  5
3B7
  8
DEFPOINTS
  6
BYBLOCK
 10
-230.0097503662109
 20
-0.040809631347656
 30
0.0
  0
POINT
  5
3B8
  8
DEFPOINTS
  6
BYBLOCK
 10
-230.0097503662109
 20
-150.0408020019531
 30
0.0
  0
ENDBLK
  5
3B9
  8
SIZE
  0
BLOCK
  8
SIZE
  2
*D3
 70
     1
 10
0.0
 20
0.0
 30
0.0
  3
*D3
  1

  0
TEXT
  5
3BC
  8
SIZE
  6
CONTINUOUS
 10
-2.949752746421241
 20
-249.0408080816269
 30
0.0
 40
2.799999952316284
  1
500
 50
0.000002504478167
 41
0.6999999829701011
  7
STANDARD1
  0
LINE
  5
3BD
  8
SIZE
  6
CONTINUOUS
 10
-250.0097503662109
 20
-21.04080963134766
 30
0.0
 11
-250.0097503662109
 21
-252.0408020019531
 31
0.0
  0
LINE
  5
3BE
  8
SIZE
  6
CONTINUOUS
 10
249.990249633789
 20
-21.04080963134766
 30
0.0
 11
249.990249633789
 21
-252.0408020019531
 31
0.0
  0
LINE
  5
3BF
  8
SIZE
  6
CONTINUOUS
 10
-250.0097503662109
 20
-250.0408020019531
 30
0.0
 11
249.990249633789
 21
-250.0408020019531
 31
0.0
  0
CIRCLE
  5
3C0
  8
SIZE
  6
CONTINUOUS
 10
-250.0097503662109
 20
-250.0408020019531
 30
0.0
 40
0.5
  0
CIRCLE
  5
3C1
  8
SIZE
  6
CONTINUOUS
 10
-250.0097503662109
 20
-250.0408020019531
 30
0.0
 40
0.4
  0
CIRCLE
  5
3C2
  8
SIZE
  6
CONTINUOUS
 10
-250.0097503662109
 20
-250.0408020019531
 30
0.0
 40
0.3
  0
CIRCLE
  5
3C3
  8
SIZE
  6
CONTINUOUS
 10
-250.0097503662109
 20
-250.0408020019531
 30
0.0
 40
0.2
  0
CIRCLE
  5
3C4
  8
SIZE
  6
CONTINUOUS
 10
-250.0097503662109
 20
-250.0408020019531
 30
0.0
 40
0.1
  0
CIRCLE
  5
3C5
  8
SIZE
  6
CONTINUOUS
 10
249.990249633789
 20
-250.0408020019531
 30
0.0
 40
0.5
  0
CIRCLE
  5
3C6
  8
SIZE
  6
CONTINUOUS
 10
249.990249633789
 20
-250.0408020019531
 30
0.0
 40
0.4
  0
CIRCLE
  5
3C7
  8
SIZE
  6
CONTINUOUS
 10
249.990249633789
 20
-250.0408020019531
 30
0.0
 40
0.3
  0
CIRCLE
  5
3C8
  8
SIZE
  6
CONTINUOUS
 10
249.990249633789
 20
-250.0408020019531
 30
0.0
 40
0.2
  0
CIRCLE
  5
3C9
  8
SIZE
  6
CONTINUOUS
 10
249.990249633789
 20
-250.0408020019531
 30
0.0
 40
0.1
  0
POINT
  5
3CA
  8
DEFPOINTS
  6
BYBLOCK
 10
249.990249633789
 20
-20.04080963134766
 30
0.0
  0
POINT
  5
3CB
  8
DEFPOINTS
  6
BYBLOCK
 10
-250.0097503662109
 20
-20.04080963134766
 30
0.0
  0
POINT
  5
3CC
  8
DEFPOINTS
  6
BYBLOCK
 10
-250.0097503662109
 20
-250.0408020019531
 30
0.0
  0
ENDBLK
  5
3CD
  8
SIZE
  0
BLOCK
  8
SIZE
  2
*D4
 70
     1
 10
0.0
 20
0.0
 30
0.0
  3
*D4
  1

  0
TEXT
  5
3D0
  8
SIZE
  6
CONTINUOUS
 10
322.0502319947897
 20
-249.0408233404159
 30
0.0
 40
2.799999952316284
  1
150
 50
0.000002504478167
 41
0.6999999829701011
  7
STANDARD1
  0
LINE
  5
3D1
  8
SIZE
  6
CONTINUOUS
 10
249.990249633789
 20
-21.04080963134766
 30
0.0
 11
249.990249633789
 21
-252.0408172607421
 31
0.0
  0
LINE
  5
3D2
  8
SIZE
  6
CONTINUOUS
 10
399.990234375
 20
18.95919036865234
 30
0.0
 11
399.990234375
 21
-252.0408172607421
 31
0.0
  0
LINE
  5
3D3
  8
SIZE
  6
CONTINUOUS
 10
249.990249633789
 20
-250.0408172607421
 30
0.0
 11
399.990234375
 21
-250.0408172607421
 31
0.0
  0
CIRCLE
  5
3D4
  8
SIZE
  6
CONTINUOUS
 10
249.990249633789
 20
-250.0408172607421
 30
0.0
 40
0.5
  0
CIRCLE
  5
3D5
  8
SIZE
  6
CONTINUOUS
 10
249.990249633789
 20
-250.0408172607421
 30
0.0
 40
0.4
  0
CIRCLE
  5
3D6
  8
SIZE
  6
CONTINUOUS
 10
249.990249633789
 20
-250.0408172607421
 30
0.0
 40
0.3
  0
CIRCLE
  5
3D7
  8
SIZE
  6
CONTINUOUS
 10
249.990249633789
 20
-250.0408172607421
 30
0.0
 40
0.2
  0
CIRCLE
  5
3D8
  8
SIZE
  6
CONTINUOUS
 10
249.990249633789
 20
-250.0408172607421
 30
0.0
 40
0.1
  0
CIRCLE
  5
3D9
  8
SIZE
  6
CONTINUOUS
 10
399.990234375
 20
-250.0408172607421
 30
0.0
 40
0.5
  0
CIRCLE
  5
3DA
  8
SIZE
  6
CONTINUOUS
 10
399.990234375
 20
-250.0408172607421
 30
0.0
 40
0.4
  0
CIRCLE
  5
3DB
  8
SIZE
  6
CONTINUOUS
 10
399.990234375
 20
-250.0408172607421
 30
0.0
 40
0.3
  0
CIRCLE
  5
3DC
  8
SIZE
  6
CONTINUOUS
 10
399.990234375
 20
-250.0408172607421
 30
0.0
 40
0.2
  0
CIRCLE
  5
3DD
  8
SIZE
  6
CONTINUOUS
 10
399.990234375
 20
-250.0408172607421
 30
0.0
 40
0.1
  0
POINT
  5
3DE
  8
DEFPOINTS
  6
BYBLOCK
 10
399.990234375
 20
19.95919036865234
 30
0.0
  0
POINT
  5
3DF
  8
DEFPOINTS
  6
BYBLOCK
 10
249.990249633789
 20
-20.04080963134766
 30
0.0
  0
POINT
  5
3E0
  8
DEFPOINTS
  6
BYBLOCK
 10
249.990249633789
 20
-250.0408172607421
 30
0.0
  0
ENDBLK
  5
3E1
  8
SIZE
  0
BLOCK
  8
SIZE
  2
*D5
 70
     1
 10
0.0
 20
0.0
 30
0.0
  3
*D5
  1

  0
TEXT
  5
3E4
  8
SIZE
  6
CONTINUOUS
 10
-1001.009790062904
 20
316.0191956790324
 30
0.0
 40
2.799999952316284
  1
638
 50
90.00000500895634
 41
0.6999999829701011
  7
STANDARD1
  0
LINE
  5
3E5
  8
SIZE
  6
CONTINUOUS
 10
-401.009765625
 20
637.9591674804688
 30
0.0
 11
-1002.009765625
 21
637.9591674804688
 31
0.0
  0
LINE
  5
3E6
  8
SIZE
  6
CONTINUOUS
 10
-271.009765625
 20
-0.04081067070365
 30
0.0
 11
-1002.009765625
 21
-0.04081067070365
 31
0.0
  0
LINE
  5
3E7
  8
SIZE
  6
CONTINUOUS
 10
-1000.009765625
 20
637.9591674804688
 30
0.0
 11
-1000.009765625
 21
-0.04081067070365
 31
0.0
  0
CIRCLE
  5
3E8
  8
SIZE
  6
CONTINUOUS
 10
-1000.009765625
 20
637.9591674804688
 30
0.0
 40
0.5
  0
CIRCLE
  5
3E9
  8
SIZE
  6
CONTINUOUS
 10
-1000.009765625
 20
637.9591674804688
 30
0.0
 40
0.4
  0
CIRCLE
  5
3EA
  8
SIZE
  6
CONTINUOUS
 10
-1000.009765625
 20
637.9591674804688
 30
0.0
 40
0.3
  0
CIRCLE
  5
3EB
  8
SIZE
  6
CONTINUOUS
 10
-1000.009765625
 20
637.9591674804688
 30
0.0
 40
0.2
  0
CIRCLE
  5
3EC
  8
SIZE
  6
CONTINUOUS
 10
-1000.009765625
 20
637.9591674804688
 30
0.0
 40
0.1
  0
CIRCLE
  5
3ED
  8
SIZE
  6
CONTINUOUS
 10
-1000.009765625
 20
-0.04081067070365
 30
0.0
 40
0.5
  0
CIRCLE
  5
3EE
  8
SIZE
  6
CONTINUOUS
 10
-1000.009765625
 20
-0.04081067070365
 30
0.0
 40
0.4
  0
CIRCLE
  5
3EF
  8
SIZE
  6
CONTINUOUS
 10
-1000.009765625
 20
-0.04081067070365
 30
0.0
 40
0.3
  0
CIRCLE
  5
3F0
  8
SIZE
  6
CONTINUOUS
 10
-1000.009765625
 20
-0.04081067070365
 30
0.0
 40
0.2
  0
CIRCLE
  5
3F1
  8
SIZE
  6
CONTINUOUS
 10
-1000.009765625
 20
-0.04081067070365
 30
0.0
 40
0.1
  0
POINT
  5
3F2
  8
DEFPOINTS
  6
BYBLOCK
 10
-270.009765625
 20
-0.04081067070365
 30
0.0
  0
POINT
  5
3F3
  8
DEFPOINTS
  6
BYBLOCK
 10
-400.009765625
 20
637.9591674804688
 30
0.0
  0
POINT
  5
3F4
  8
DEFPOINTS
  6
BYBLOCK
 10
-1000.009765625
 20
637.9591674804688
 30
0.0
  0
ENDBLK
  5
3F5
  8
SIZE
  0
BLOCK
  8
SIZE
  2
*D6
 70
     1
 10
0.0
 20
0.0
 30
0.0
  3
*D6
  1

  0
TEXT
  5
3F8
  8
SIZE
  6
CONTINUOUS
 10
-327.9497680052104
 20
-249.0408080816269
 30
0.0
 40
2.799999952316284
  1
150
 50
0.000002504478167
 41
0.6999999829701011
  7
STANDARD1
  0
LINE
  5
3F9
  8
SIZE
  6
CONTINUOUS
 10
-250.0097503662109
 20
-21.04081153869629
 30
0.0
 11
-250.0097503662109
 21
-252.0408020019531
 31
0.0
  0
LINE
  5
3FA
  8
SIZE
  6
CONTINUOUS
 10
-400.009765625
 20
-1.040810670703649
 30
0.0
 11
-400.009765625
 21
-252.0408020019531
 31
0.0
  0
LINE
  5
3FB
  8
SIZE
  6
CONTINUOUS
 10
-250.0097503662109
 20
-250.0408020019531
 30
0.0
 11
-400.009765625
 21
-250.0408020019531
 31
0.0
  0
CIRCLE
  5
3FC
  8
SIZE
  6
CONTINUOUS
 10
-250.0097503662109
 20
-250.0408020019531
 30
0.0
 40
0.5
  0
CIRCLE
  5
3FD
  8
SIZE
  6
CONTINUOUS
 10
-250.0097503662109
 20
-250.0408020019531
 30
0.0
 40
0.4
  0
CIRCLE
  5
3FE
  8
SIZE
  6
CONTINUOUS
 10
-250.0097503662109
 20
-250.0408020019531
 30
0.0
 40
0.3
  0
CIRCLE
  5
3FF
  8
SIZE
  6
CONTINUOUS
 10
-250.0097503662109
 20
-250.0408020019531
 30
0.0
 40
0.2
  0
CIRCLE
  5
400
  8
SIZE
  6
CONTINUOUS
 10
-250.0097503662109
 20
-250.0408020019531
 30
0.0
 40
0.1
  0
CIRCLE
  5
401
  8
SIZE
  6
CONTINUOUS
 10
-400.009765625
 20
-250.0408020019531
 30
0.0
 40
0.5
  0
CIRCLE
  5
402
  8
SIZE
  6
CONTINUOUS
 10
-400.009765625
 20
-250.0408020019531
 30
0.0
 40
0.4
  0
CIRCLE
  5
403
  8
SIZE
  6
CONTINUOUS
 10
-400.009765625
 20
-250.0408020019531
 30
0.0
 40
0.3
  0
CIRCLE
  5
404
  8
SIZE
  6
CONTINUOUS
 10
-400.009765625
 20
-250.0408020019531
 30
0.0
 40
0.2
  0
CIRCLE
  5
405
  8
SIZE
  6
CONTINUOUS
 10
-400.009765625
 20
-250.0408020019531
 30
0.0
 40
0.1
  0
POINT
  5
406
  8
DEFPOINTS
  6
BYBLOCK
 10
-400.009765625
 20
-0.04081067070365
 30
0.0
  0
POINT
  5
407
  8
DEFPOINTS
  6
BYBLOCK
 10
-250.0097503662109
 20
-20.04081153869629
 30
0.0
  0
POINT
  5
408
  8
DEFPOINTS
  6
BYBLOCK
 10
-250.0097503662109
 20
-250.0408020019531
 30
0.0
  0
ENDBLK
  5
409
  8
SIZE
  0
BLOCK
  8
SIZE
  2
*D7
 70
     1
 10
0.0
 20
0.0
 30
0.0
  3
*D7
  1

  0
TEXT
  5
40C
  8
SIZE
  6
CONTINUOUS
 10
-2.949752746421241
 20
-349.0408080816269
 30
0.0
 40
2.799999952316284
  1
800
 50
0.000002504478167
 41
0.6999999829701011
  7
STANDARD1
  0
LINE
  5
40D
  8
SIZE
  6
CONTINUOUS
 10
399.990234375
 20
18.95918846130371
 30
0.0
 11
399.990234375
 21
-352.0408020019532
 31
0.0
  0
LINE
  5
40E
  8
SIZE
  6
CONTINUOUS
 10
-400.009765625
 20
-1.040810670703649
 30
0.0
 11
-400.009765625
 21
-352.0408020019532
 31
0.0
  0
LINE
  5
40F
  8
SIZE
  6
CONTINUOUS
 10
399.990234375
 20
-350.0408020019532
 30
0.0
 11
-400.009765625
 21
-350.0408020019532
 31
0.0
  0
CIRCLE
  5
410
  8
SIZE
  6
CONTINUOUS
 10
399.990234375
 20
-350.0408020019532
 30
0.0
 40
0.5
  0
CIRCLE
  5
411
  8
SIZE
  6
CONTINUOUS
 10
399.990234375
 20
-350.0408020019532
 30
0.0
 40
0.4
  0
CIRCLE
  5
412
  8
SIZE
  6
CONTINUOUS
 10
399.990234375
 20
-350.0408020019532
 30
0.0
 40
0.3
  0
CIRCLE
  5
413
  8
SIZE
  6
CONTINUOUS
 10
399.990234375
 20
-350.0408020019532
 30
0.0
 40
0.2
  0
CIRCLE
  5
414
  8
SIZE
  6
CONTINUOUS
 10
399.990234375
 20
-350.0408020019532
 30
0.0
 40
0.1
  0
CIRCLE
  5
415
  8
SIZE
  6
CONTINUOUS
 10
-400.009765625
 20
-350.0408020019532
 30
0.0
 40
0.5
  0
CIRCLE
  5
416
  8
SIZE
  6
CONTINUOUS
 10
-400.009765625
 20
-350.0408020019532
 30
0.0
 40
0.4
  0
CIRCLE
  5
417
  8
SIZE
  6
CONTINUOUS
 10
-400.009765625
 20
-350.0408020019532
 30
0.0
 40
0.3
  0
CIRCLE
  5
418
  8
SIZE
  6
CONTINUOUS
 10
-400.009765625
 20
-350.0408020019532
 30
0.0
 40
0.2
  0
CIRCLE
  5
419
  8
SIZE
  6
CONTINUOUS
 10
-400.009765625
 20
-350.0408020019532
 30
0.0
 40
0.1
  0
POINT
  5
41A
  8
DEFPOINTS
  6
BYBLOCK
 10
-400.009765625
 20
-0.04081067070365
 30
0.0
  0
POINT
  5
41B
  8
DEFPOINTS
  6
BYBLOCK
 10
399.990234375
 20
19.95918846130371
 30
0.0
  0
POINT
  5
41C
  8
DEFPOINTS
  6
BYBLOCK
 10
399.990234375
 20
-350.0408020019532
 30
0.0
  0
ENDBLK
  5
41D
  8
SIZE
  0
BLOCK
  8
SIZE
  2
*D8
 70
     1
 10
0.0
 20
0.0
 30
0.0
  3
*D8
  1

  0
TEXT
  5
420
  8
SIZE
  6
CONTINUOUS
 10
-1151.009790062904
 20
366.0191956790325
 30
0.0
 40
2.799999952316284
  1
738
 50
90.00000500895634
 41
0.6999999829701011
  7
STANDARD1
  0
LINE
  5
421
  8
SIZE
  6
CONTINUOUS
 10
-701.0097656249999
 20
737.9591674804686
 30
0.0
 11
-1152.009765625
 21
737.9591674804686
 31
0.0
  0
LINE
  5
422
  8
SIZE
  6
CONTINUOUS
 10
-701.0097656249999
 20
-0.04081067070365
 30
0.0
 11
-1152.009765625
 21
-0.04081067070365
 31
0.0
  0
LINE
  5
423
  8
SIZE
  6
CONTINUOUS
 10
-1150.009765625
 20
737.9591674804686
 30
0.0
 11
-1150.009765625
 21
-0.04081067070365
 31
0.0
  0
CIRCLE
  5
424
  8
SIZE
  6
CONTINUOUS
 10
-1150.009765625
 20
737.9591674804686
 30
0.0
 40
0.5
  0
CIRCLE
  5
425
  8
SIZE
  6
CONTINUOUS
 10
-1150.009765625
 20
737.9591674804686
 30
0.0
 40
0.4
  0
CIRCLE
  5
426
  8
SIZE
  6
CONTINUOUS
 10
-1150.009765625
 20
737.9591674804686
 30
0.0
 40
0.3
  0
CIRCLE
  5
427
  8
SIZE
  6
CONTINUOUS
 10
-1150.009765625
 20
737.9591674804686
 30
0.0
 40
0.2
  0
CIRCLE
  5
428
  8
SIZE
  6
CONTINUOUS
 10
-1150.009765625
 20
737.9591674804686
 30
0.0
 40
0.1
  0
CIRCLE
  5
429
  8
SIZE
  6
CONTINUOUS
 10
-1150.009765625
 20
-0.04081067070365
 30
0.0
 40
0.5
  0
CIRCLE
  5
42A
  8
SIZE
  6
CONTINUOUS
 10
-1150.009765625
 20
-0.04081067070365
 30
0.0
 40
0.4
  0
CIRCLE
  5
42B
  8
SIZE
  6
CONTINUOUS
 10
-1150.009765625
 20
-0.04081067070365
 30
0.0
 40
0.3
  0
CIRCLE
  5
42C
  8
SIZE
  6
CONTINUOUS
 10
-1150.009765625
 20
-0.04081067070365
 30
0.0
 40
0.2
  0
CIRCLE
  5
42D
  8
SIZE
  6
CONTINUOUS
 10
-1150.009765625
 20
-0.04081067070365
 30
0.0
 40
0.1
  0
POINT
  5
42E
  8
DEFPOINTS
  6
BYBLOCK
 10
-700.0097656249998
 20
-0.04081067070365
 30
0.0
  0
POINT
  5
42F
  8
DEFPOINTS
  6
BYBLOCK
 10
-700.0097656249998
 20
737.9591674804686
 30
0.0
  0
POINT
  5
430
  8
DEFPOINTS
  6
BYBLOCK
 10
-1150.009765625
 20
737.9591674804686
 30
0.0
  0
ENDBLK
  5
431
  8
SIZE
  0
BLOCK
  8
SIZE
  2
*D9
 70
     1
 10
0.0
 20
0.0
 30
0.0
  3
*D9
  1

  0
TEXT
  5
434
  8
SIZE
  6
CONTINUOUS
 10
698.9902099370956
 20
366.0191956790325
 30
0.0
 40
2.799999952316284
  1
738
 50
90.00000500895634
 41
0.6999999829701011
  7
STANDARD1
  0
LINE
  5
435
  8
SIZE
  6
CONTINUOUS
 10
550.990234375
 20
737.9591674804686
 30
0.0
 11
701.990234375
 21
737.9591674804686
 31
0.0
  0
LINE
  5
436
  8
SIZE
  6
CONTINUOUS
 10
542.8493652343751
 20
-0.04081067070365
 30
0.0
 11
701.990234375
 21
-0.04081067070365
 31
0.0
  0
LINE
  5
437
  8
SIZE
  6
CONTINUOUS
 10
699.9902343750001
 20
737.9591674804686
 30
0.0
 11
699.9902343750001
 21
-0.04081067070365
 31
0.0
  0
CIRCLE
  5
438
  8
SIZE
  6
CONTINUOUS
 10
699.9902343750001
 20
737.9591674804686
 30
0.0
 40
0.5
  0
CIRCLE
  5
439
  8
SIZE
  6
CONTINUOUS
 10
699.9902343750001
 20
737.9591674804686
 30
0.0
 40
0.4
  0
CIRCLE
  5
43A
  8
SIZE
  6
CONTINUOUS
 10
699.9902343750001
 20
737.9591674804686
 30
0.0
 40
0.3
  0
CIRCLE
  5
43B
  8
SIZE
  6
CONTINUOUS
 10
699.9902343750001
 20
737.9591674804686
 30
0.0
 40
0.2
  0
CIRCLE
  5
43C
  8
SIZE
  6
CONTINUOUS
 10
699.9902343750001
 20
737.9591674804686
 30
0.0
 40
0.1
  0
CIRCLE
  5
43D
  8
SIZE
  6
CONTINUOUS
 10
699.9902343750001
 20
-0.04081067070365
 30
0.0
 40
0.5
  0
CIRCLE
  5
43E
  8
SIZE
  6
CONTINUOUS
 10
699.9902343750001
 20
-0.04081067070365
 30
0.0
 40
0.4
  0
CIRCLE
  5
43F
  8
SIZE
  6
CONTINUOUS
 10
699.9902343750001
 20
-0.04081067070365
 30
0.0
 40
0.3
  0
CIRCLE
  5
440
  8
SIZE
  6
CONTINUOUS
 10
699.9902343750001
 20
-0.04081067070365
 30
0.0
 40
0.2
  0
CIRCLE
  5
441
  8
SIZE
  6
CONTINUOUS
 10
699.9902343750001
 20
-0.04081067070365
 30
0.0
 40
0.1
  0
POINT
  5
442
  8
DEFPOINTS
  6
BYBLOCK
 10
541.8493652343751
 20
-0.04081067070365
 30
0.0
  0
POINT
  5
443
  8
DEFPOINTS
  6
BYBLOCK
 10
549.990234375
 20
737.9591674804686
 30
0.0
  0
POINT
  5
444
  8
DEFPOINTS
  6
BYBLOCK
 10
699.9902343750001
 20
737.9591674804686
 30
0.0
  0
ENDBLK
  5
445
  8
SIZE
  0
BLOCK
  8
SIZE
  2
*D10
 70
     1
 10
0.0
 20
0.0
 30
0.0
  3
*D10
  1

  0
TEXT
  5
448
  8
SIZE
  6
CONTINUOUS
 10
472.0502319947896
 20
888.9591919183731
 30
0.0
 40
2.799999952316284
  1
150
 50
0.000002504478167
 41
0.6999999829701011
  7
STANDARD1
  0
LINE
  5
449
  8
SIZE
  6
CONTINUOUS
 10
549.990234375
 20
738.9591674804686
 30
0.0
 11
549.990234375
 21
889.9591674804685
 31
0.0
  0
LINE
  5
44A
  8
SIZE
  6
CONTINUOUS
 10
399.990234375
 20
738.9591674804686
 30
0.0
 11
399.990234375
 21
889.9591674804685
 31
0.0
  0
LINE
  5
44B
  8
SIZE
  6
CONTINUOUS
 10
549.990234375
 20
887.9591674804686
 30
0.0
 11
399.990234375
 21
887.9591674804686
 31
0.0
  0
CIRCLE
  5
44C
  8
SIZE
  6
CONTINUOUS
 10
549.990234375
 20
887.9591674804686
 30
0.0
 40
0.5
  0
CIRCLE
  5
44D
  8
SIZE
  6
CONTINUOUS
 10
549.990234375
 20
887.9591674804686
 30
0.0
 40
0.4
  0
CIRCLE
  5
44E
  8
SIZE
  6
CONTINUOUS
 10
549.990234375
 20
887.9591674804686
 30
0.0
 40
0.3
  0
CIRCLE
  5
44F
  8
SIZE
  6
CONTINUOUS
 10
549.990234375
 20
887.9591674804686
 30
0.0
 40
0.2
  0
CIRCLE
  5
450
  8
SIZE
  6
CONTINUOUS
 10
549.990234375
 20
887.9591674804686
 30
0.0
 40
0.1
  0
CIRCLE
  5
451
  8
SIZE
  6
CONTINUOUS
 10
399.990234375
 20
887.9591674804686
 30
0.0
 40
0.5
  0
CIRCLE
  5
452
  8
SIZE
  6
CONTINUOUS
 10
399.990234375
 20
887.9591674804686
 30
0.0
 40
0.4
  0
CIRCLE
  5
453
  8
SIZE
  6
CONTINUOUS
 10
399.990234375
 20
887.9591674804686
 30
0.0
 40
0.3
  0
CIRCLE
  5
454
  8
SIZE
  6
CONTINUOUS
 10
399.990234375
 20
887.9591674804686
 30
0.0
 40
0.2
  0
CIRCLE
  5
455
  8
SIZE
  6
CONTINUOUS
 10
399.990234375
 20
887.9591674804686
 30
0.0
 40
0.1
  0
POINT
  5
456
  8
DEFPOINTS
  6
BYBLOCK
 10
399.990234375
 20
737.9591674804686
 30
0.0
  0
POINT
  5
457
  8
DEFPOINTS
  6
BYBLOCK
 10
549.990234375
 20
737.9591674804686
 30
0.0
  0
POINT
  5
458
  8
DEFPOINTS
  6
BYBLOCK
 10
549.990234375
 20
887.9591674804686
 30
0.0
  0
ENDBLK
  5
459
  8
SIZE
  0
BLOCK
  8
SIZE
  2
*D11
 70
     1
 10
0.0
 20
0.0
 30
0.0
  3
*D11
  1

  0
TEXT
  5
45C
  8
SIZE
  6
CONTINUOUS
 10
-2.949752746421241
 20
888.9591919183731
 30
0.0
 40
2.799999952316284
  1
800
 50
0.000002504478167
 41
0.6999999829701011
  7
STANDARD1
  0
LINE
  5
45D
  8
SIZE
  6
CONTINUOUS
 10
399.990234375
 20
738.9591674804686
 30
0.0
 11
399.990234375
 21
889.9591674804685
 31
0.0
  0
LINE
  5
45E
  8
SIZE
  6
CONTINUOUS
 10
-400.009765625
 20
638.9591674804688
 30
0.0
 11
-400.009765625
 21
889.9591674804685
 31
0.0
  0
LINE
  5
45F
  8
SIZE
  6
CONTINUOUS
 10
399.990234375
 20
887.9591674804686
 30
0.0
 11
-400.009765625
 21
887.9591674804686
 31
0.0
  0
CIRCLE
  5
460
  8
SIZE
  6
CONTINUOUS
 10
399.990234375
 20
887.9591674804686
 30
0.0
 40
0.5
  0
CIRCLE
  5
461
  8
SIZE
  6
CONTINUOUS
 10
399.990234375
 20
887.9591674804686
 30
0.0
 40
0.4
  0
CIRCLE
  5
462
  8
SIZE
  6
CONTINUOUS
 10
399.990234375
 20
887.9591674804686
 30
0.0
 40
0.3
  0
CIRCLE
  5
463
  8
SIZE
  6
CONTINUOUS
 10
399.990234375
 20
887.9591674804686
 30
0.0
 40
0.2
  0
CIRCLE
  5
464
  8
SIZE
  6
CONTINUOUS
 10
399.990234375
 20
887.9591674804686
 30
0.0
 40
0.1
  0
CIRCLE
  5
465
  8
SIZE
  6
CONTINUOUS
 10
-400.009765625
 20
887.9591674804686
 30
0.0
 40
0.5
  0
CIRCLE
  5
466
  8
SIZE
  6
CONTINUOUS
 10
-400.009765625
 20
887.9591674804686
 30
0.0
 40
0.4
  0
CIRCLE
  5
467
  8
SIZE
  6
CONTINUOUS
 10
-400.009765625
 20
887.9591674804686
 30
0.0
 40
0.3
  0
CIRCLE
  5
468
  8
SIZE
  6
CONTINUOUS
 10
-400.009765625
 20
887.9591674804686
 30
0.0
 40
0.2
  0
CIRCLE
  5
469
  8
SIZE
  6
CONTINUOUS
 10
-400.009765625
 20
887.9591674804686
 30
0.0
 40
0.1
  0
POINT
  5
46A
  8
DEFPOINTS
  6
BYBLOCK
 10
-400.009765625
 20
637.9591674804688
 30
0.0
  0
POINT
  5
46B
  8
DEFPOINTS
  6
BYBLOCK
 10
399.990234375
 20
737.9591674804686
 30
0.0
  0
POINT
  5
46C
  8
DEFPOINTS
  6
BYBLOCK
 10
399.990234375
 20
887.9591674804686
 30
0.0
  0
ENDBLK
  5
46D
  8
SIZE
  0
BLOCK
  8
SIZE
  2
*D12
 70
     1
 10
0.0
 20
0.0
 30
0.0
  3
*D12
  1

  0
TEXT
  5
470
  8
SIZE
  6
CONTINUOUS
 10
-552.9497680052103
 20
888.9591919183731
 30
0.0
 40
2.799999952316284
  1
300
 50
0.000002504478167
 41
0.6999999829701011
  7
STANDARD1
  0
LINE
  5
471
  8
SIZE
  6
CONTINUOUS
 10
-400.009765625
 20
738.9591674804686
 30
0.0
 11
-400.009765625
 21
889.9591674804685
 31
0.0
  0
LINE
  5
472
  8
SIZE
  6
CONTINUOUS
 10
-700.0097656249998
 20
738.9591674804686
 30
0.0
 11
-700.0097656249998
 21
889.9591674804685
 31
0.0
  0
LINE
  5
473
  8
SIZE
  6
CONTINUOUS
 10
-400.009765625
 20
887.9591674804686
 30
0.0
 11
-700.0097656249998
 21
887.9591674804686
 31
0.0
  0
CIRCLE
  5
474
  8
SIZE
  6
CONTINUOUS
 10
-400.009765625
 20
887.9591674804686
 30
0.0
 40
0.5
  0
CIRCLE
  5
475
  8
SIZE
  6
CONTINUOUS
 10
-400.009765625
 20
887.9591674804686
 30
0.0
 40
0.4
  0
CIRCLE
  5
476
  8
SIZE
  6
CONTINUOUS
 10
-400.009765625
 20
887.9591674804686
 30
0.0
 40
0.3
  0
CIRCLE
  5
477
  8
SIZE
  6
CONTINUOUS
 10
-400.009765625
 20
887.9591674804686
 30
0.0
 40
0.2
  0
CIRCLE
  5
478
  8
SIZE
  6
CONTINUOUS
 10
-400.009765625
 20
887.9591674804686
 30
0.0
 40
0.1
  0
CIRCLE
  5
479
  8
SIZE
  6
CONTINUOUS
 10
-700.0097656249998
 20
887.9591674804686
 30
0.0
 40
0.5
  0
CIRCLE
  5
47A
  8
SIZE
  6
CONTINUOUS
 10
-700.0097656249998
 20
887.9591674804686
 30
0.0
 40
0.4
  0
CIRCLE
  5
47B
  8
SIZE
  6
CONTINUOUS
 10
-700.0097656249998
 20
887.9591674804686
 30
0.0
 40
0.3
  0
CIRCLE
  5
47C
  8
SIZE
  6
CONTINUOUS
 10
-700.0097656249998
 20
887.9591674804686
 30
0.0
 40
0.2
  0
CIRCLE
  5
47D
  8
SIZE
  6
CONTINUOUS
 10
-700.0097656249998
 20
887.9591674804686
 30
0.0
 40
0.1
  0
POINT
  5
47E
  8
DEFPOINTS
  6
BYBLOCK
 10
-700.0097656249998
 20
737.9591674804686
 30
0.0
  0
POINT
  5
47F
  8
DEFPOINTS
  6
BYBLOCK
 10
-400.009765625
 20
737.9591674804686
 30
0.0
  0
POINT
  5
480
  8
DEFPOINTS
  6
BYBLOCK
 10
-400.009765625
 20
887.9591674804686
 30
0.0
  0
ENDBLK
  5
481
  8
SIZE
  0
BLOCK
  8
SIZE
  2
*D13
 70
     1
 10
0.0
 20
0.0
 30
0.0
  3
*D13
  1

  0
TEXT
  5
484
  8
SIZE
  6
CONTINUOUS
 10
-366.7073058470072
 20
-149.0408080816268
 30
0.0
 40
2.799999952316284
  1
35
 50
0.000002504478167
 41
0.6999999829701011
  7
STANDARD1
  0
LINE
  5
485
  8
SIZE
  6
CONTINUOUS
 10
-435.2097473144531
 20
185.9591827392578
 30
0.0
 11
-435.2097473144531
 21
-152.0408020019531
 31
0.0
  0
LINE
  5
486
  8
SIZE
  6
CONTINUOUS
 10
-400.009765625
 20
18.95918846130371
 30
0.0
 11
-400.009765625
 21
-152.0408020019531
 31
0.0
  0
LINE
  5
487
  8
SIZE
  6
CONTINUOUS
 10
-440.2097473144531
 20
-150.0408020019531
 30
0.0
 11
-361.3873291015625
 21
-150.0408020019531
 31
0.0
  0
CIRCLE
  5
488
  8
SIZE
  6
CONTINUOUS
 10
-435.2097473144531
 20
-150.0408020019531
 30
0.0
 40
0.5
  0
CIRCLE
  5
489
  8
SIZE
  6
CONTINUOUS
 10
-435.2097473144531
 20
-150.0408020019531
 30
0.0
 40
0.4
  0
CIRCLE
  5
48A
  8
SIZE
  6
CONTINUOUS
 10
-435.2097473144531
 20
-150.0408020019531
 30
0.0
 40
0.3
  0
CIRCLE
  5
48B
  8
SIZE
  6
CONTINUOUS
 10
-435.2097473144531
 20
-150.0408020019531
 30
0.0
 40
0.2
  0
CIRCLE
  5
48C
  8
SIZE
  6
CONTINUOUS
 10
-435.2097473144531
 20
-150.0408020019531
 30
0.0
 40
0.1
  0
CIRCLE
  5
48D
  8
SIZE
  6
CONTINUOUS
 10
-400.009765625
 20
-150.0408020019531
 30
0.0
 40
0.5
  0
CIRCLE
  5
48E
  8
SIZE
  6
CONTINUOUS
 10
-400.009765625
 20
-150.0408020019531
 30
0.0
 40
0.4
  0
CIRCLE
  5
48F
  8
SIZE
  6
CONTINUOUS
 10
-400.009765625
 20
-150.0408020019531
 30
0.0
 40
0.3
  0
CIRCLE
  5
490
  8
SIZE
  6
CONTINUOUS
 10
-400.009765625
 20
-150.0408020019531
 30
0.0
 40
0.2
  0
CIRCLE
  5
491
  8
SIZE
  6
CONTINUOUS
 10
-400.009765625
 20
-150.0408020019531
 30
0.0
 40
0.1
  0
POINT
  5
492
  8
DEFPOINTS
  6
BYBLOCK
 10
-400.009765625
 20
19.95918846130371
 30
0.0
  0
POINT
  5
493
  8
DEFPOINTS
  6
BYBLOCK
 10
-435.2097473144531
 20
186.9591827392578
 30
0.0
  0
POINT
  5
494
  8
DEFPOINTS
  6
BYBLOCK
 10
-435.2097473144531
 20
-150.0408020019531
 30
0.0
  0
ENDBLK
  5
495
  8
SIZE
  0
BLOCK
  8
SIZE
  2
*D14
 70
     1
 10
0.0
 20
0.0
 30
0.0
  3
*D14
  1

  0
TEXT
  5
498
  8
SIZE
  6
CONTINUOUS
 10
-901.0097900629042
 20
100.519188049638
 30
0.0
 40
2.799999952316284
  1
207
 50
90.00000500895634
 41
0.6999999829701011
  7
STANDARD1
  0
LINE
  5
499
  8
SIZE
  6
CONTINUOUS
 10
-456.2097473144531
 20
206.9591827392578
 30
0.0
 11
-902.0097656249999
 21
206.9591827392578
 31
0.0
  0
LINE
  5
49A
  8
SIZE
  6
CONTINUOUS
 10
-401.009765625
 20
-0.04081067070365
 30
0.0
 11
-902.0097656249999
 21
-0.04081067070365
 31
0.0
  0
LINE
  5
49B
  8
SIZE
  6
CONTINUOUS
 10
-900.009765625
 20
206.9591827392578
 30
0.0
 11
-900.009765625
 21
-0.04081067070365
 31
0.0
  0
CIRCLE
  5
49C
  8
SIZE
  6
CONTINUOUS
 10
-900.009765625
 20
206.9591827392578
 30
0.0
 40
0.5
  0
CIRCLE
  5
49D
  8
SIZE
  6
CONTINUOUS
 10
-900.009765625
 20
206.9591827392578
 30
0.0
 40
0.4
  0
CIRCLE
  5
49E
  8
SIZE
  6
CONTINUOUS
 10
-900.009765625
 20
206.9591827392578
 30
0.0
 40
0.3
  0
CIRCLE
  5
49F
  8
SIZE
  6
CONTINUOUS
 10
-900.009765625
 20
206.9591827392578
 30
0.0
 40
0.2
  0
CIRCLE
  5
4A0
  8
SIZE
  6
CONTINUOUS
 10
-900.009765625
 20
206.9591827392578
 30
0.0
 40
0.1
  0
CIRCLE
  5
4A1
  8
SIZE
  6
CONTINUOUS
 10
-900.009765625
 20
-0.04081067070365
 30
0.0
 40
0.5
  0
CIRCLE
  5
4A2
  8
SIZE
  6
CONTINUOUS
 10
-900.009765625
 20
-0.04081067070365
 30
0.0
 40
0.4
  0
CIRCLE
  5
4A3
  8
SIZE
  6
CONTINUOUS
 10
-900.009765625
 20
-0.04081067070365
 30
0.0
 40
0.3
  0
CIRCLE
  5
4A4
  8
SIZE
  6
CONTINUOUS
 10
-900.009765625
 20
-0.04081067070365
 30
0.0
 40
0.2
  0
CIRCLE
  5
4A5
  8
SIZE
  6
CONTINUOUS
 10
-900.009765625
 20
-0.04081067070365
 30
0.0
 40
0.1
  0
POINT
  5
4A6
  8
DEFPOINTS
  6
BYBLOCK
 10
-400.009765625
 20
-0.04081067070365
 30
0.0
  0
POINT
  5
4A7
  8
DEFPOINTS
  6
BYBLOCK
 10
-455.2097473144531
 20
206.9591827392578
 30
0.0
  0
POINT
  5
4A8
  8
DEFPOINTS
  6
BYBLOCK
 10
-900.009765625
 20
206.9591827392578
 30
0.0
  0
ENDBLK
  5
4A9
  8
SIZE
  0
BLOCK
  8
SIZE
  2
*D15
 70
     1
 10
0.0
 20
0.0
 30
0.0
  3
*D15
  1

  0
TEXT
  5
4AC
  8
SIZE
  6
CONTINUOUS
 10
-801.0097900629042
 20
60.51918804963797
 30
0.0
 40
2.799999952316284
  1
127
 50
90.00000500895634
 41
0.6999999829701011
  7
STANDARD1
  0
LINE
  5
4AD
  8
SIZE
  6
CONTINUOUS
 10
-456.2097473144531
 20
126.9591903686523
 30
0.0
 11
-802.0097656249999
 21
126.9591903686523
 31
0.0
  0
LINE
  5
4AE
  8
SIZE
  6
CONTINUOUS
 10
-401.009765625
 20
-0.04081067070365
 30
0.0
 11
-802.0097656249999
 21
-0.04081067070365
 31
0.0
  0
LINE
  5
4AF
  8
SIZE
  6
CONTINUOUS
 10
-800.009765625
 20
126.9591903686523
 30
0.0
 11
-800.009765625
 21
-0.04081067070365
 31
0.0
  0
CIRCLE
  5
4B0
  8
SIZE
  6
CONTINUOUS
 10
-800.009765625
 20
126.9591903686523
 30
0.0
 40
0.5
  0
CIRCLE
  5
4B1
  8
SIZE
  6
CONTINUOUS
 10
-800.009765625
 20
126.9591903686523
 30
0.0
 40
0.4
  0
CIRCLE
  5
4B2
  8
SIZE
  6
CONTINUOUS
 10
-800.009765625
 20
126.9591903686523
 30
0.0
 40
0.3
  0
CIRCLE
  5
4B3
  8
SIZE
  6
CONTINUOUS
 10
-800.009765625
 20
126.9591903686523
 30
0.0
 40
0.2
  0
CIRCLE
  5
4B4
  8
SIZE
  6
CONTINUOUS
 10
-800.009765625
 20
126.9591903686523
 30
0.0
 40
0.1
  0
CIRCLE
  5
4B5
  8
SIZE
  6
CONTINUOUS
 10
-800.009765625
 20
-0.04081067070365
 30
0.0
 40
0.5
  0
CIRCLE
  5
4B6
  8
SIZE
  6
CONTINUOUS
 10
-800.009765625
 20
-0.04081067070365
 30
0.0
 40
0.4
  0
CIRCLE
  5
4B7
  8
SIZE
  6
CONTINUOUS
 10
-800.009765625
 20
-0.04081067070365
 30
0.0
 40
0.3
  0
CIRCLE
  5
4B8
  8
SIZE
  6
CONTINUOUS
 10
-800.009765625
 20
-0.04081067070365
 30
0.0
 40
0.2
  0
CIRCLE
  5
4B9
  8
SIZE
  6
CONTINUOUS
 10
-800.009765625
 20
-0.04081067070365
 30
0.0
 40
0.1
  0
POINT
  5
4BA
  8
DEFPOINTS
  6
BYBLOCK
 10
-400.009765625
 20
-0.04081067070365
 30
0.0
  0
POINT
  5
4BB
  8
DEFPOINTS
  6
BYBLOCK
 10
-455.2097473144531
 20
126.9591903686523
 30
0.0
  0
POINT
  5
4BC
  8
DEFPOINTS
  6
BYBLOCK
 10
-800.009765625
 20
126.9591903686523
 30
0.0
  0
ENDBLK
  5
4BD
  8
SIZE
  0
BLOCK
  8
SIZE
  2
*D16
 70
     1
 10
0.0
 20
0.0
 30
0.0
  3
*D16
  1

  0
TEXT
  5
4C0
  8
SIZE
  6
CONTINUOUS
 10
698.9902099370956
 20
-97.02308642545965
 30
0.0
 40
2.799999952316284
  1
15
 50
90.00000500895634
 41
0.6999999829701011
  7
STANDARD1
  0
LINE
  5
4C1
  8
SIZE
  6
CONTINUOUS
 10
20.99024772644043
 20
-15.04081058502197
 30
0.0
 11
701.990234375
 21
-15.04081058502197
 31
0.0
  0
LINE
  5
4C2
  8
SIZE
  6
CONTINUOUS
 10
542.8493652343751
 20
-0.04081067070365
 30
0.0
 11
701.990234375
 21
-0.04081067070365
 31
0.0
  0
LINE
  5
4C3
  8
SIZE
  6
CONTINUOUS
 10
699.9902343750001
 20
-98.42308807373048
 30
0.0
 11
699.9902343750001
 21
4.959189414978027
 31
0.0
  0
CIRCLE
  5
4C4
  8
SIZE
  6
CONTINUOUS
 10
699.9902343750001
 20
-15.04081058502197
 30
0.0
 40
0.5
  0
CIRCLE
  5
4C5
  8
SIZE
  6
CONTINUOUS
 10
699.9902343750001
 20
-15.04081058502197
 30
0.0
 40
0.4
  0
CIRCLE
  5
4C6
  8
SIZE
  6
CONTINUOUS
 10
699.9902343750001
 20
-15.04081058502197
 30
0.0
 40
0.3
  0
CIRCLE
  5
4C7
  8
SIZE
  6
CONTINUOUS
 10
699.9902343750001
 20
-15.04081058502197
 30
0.0
 40
0.2
  0
CIRCLE
  5
4C8
  8
SIZE
  6
CONTINUOUS
 10
699.9902343750001
 20
-15.04081058502197
 30
0.0
 40
0.1
  0
CIRCLE
  5
4C9
  8
SIZE
  6
CONTINUOUS
 10
699.9902343750001
 20
-0.04081067070365
 30
0.0
 40
0.5
  0
CIRCLE
  5
4CA
  8
SIZE
  6
CONTINUOUS
 10
699.9902343750001
 20
-0.04081067070365
 30
0.0
 40
0.4
  0
CIRCLE
  5
4CB
  8
SIZE
  6
CONTINUOUS
 10
699.9902343750001
 20
-0.04081067070365
 30
0.0
 40
0.3
  0
CIRCLE
  5
4CC
  8
SIZE
  6
CONTINUOUS
 10
699.9902343750001
 20
-0.04081067070365
 30
0.0
 40
0.2
  0
CIRCLE
  5
4CD
  8
SIZE
  6
CONTINUOUS
 10
699.9902343750001
 20
-0.04081067070365
 30
0.0
 40
0.1
  0
POINT
  5
4CE
  8
DEFPOINTS
  6
BYBLOCK
 10
541.8493652343751
 20
-0.04081067070365
 30
0.0
  0
POINT
  5
4CF
  8
DEFPOINTS
  6
BYBLOCK
 10
19.99024772644043
 20
-15.04081058502197
 30
0.0
  0
POINT
  5
4D0
  8
DEFPOINTS
  6
BYBLOCK
 10
699.9902343750001
 20
-15.04081058502197
 30
0.0
  0
ENDBLK
  5
4D1
  8
SIZE
  0
BLOCK
  8
SIZE
  2
*D17
 70
     1
 10
0.0
 20
0.0
 30
0.0
  3
*D17
  1

  0
TEXT
  5
4D4
  8
SIZE
  6
CONTINUOUS
 10
-81.00975191593169
 20
-63.26977526823311
 30
0.0
 40
2.799999952316284
  1
8
 50
90.00000500895634
 41
0.6999999829701011
  7
STANDARD1
  0
LINE
  5
4D5
  8
SIZE
  6
CONTINUOUS
 10
-229.0097503662109
 20
-0.04081067070365
 30
0.0
 11
-78.00975036621092
 21
-0.04081067070365
 31
0.0
  0
LINE
  5
4D6
  8
SIZE
  6
CONTINUOUS
 10
-229.0097503662109
 20
7.959189414978027
 30
0.0
 11
-78.00975036621092
 21
7.959189414978027
 31
0.0
  0
LINE
  5
4D7
  8
SIZE
  6
CONTINUOUS
 10
-80.00975036621094
 20
-64.6697769165039
 30
0.0
 11
-80.00975036621094
 21
12.95918941497802
 31
0.0
  0
CIRCLE
  5
4D8
  8
SIZE
  6
CONTINUOUS
 10
-80.00975036621094
 20
-0.04081067070365
 30
0.0
 40
0.5
  0
CIRCLE
  5
4D9
  8
SIZE
  6
CONTINUOUS
 10
-80.00975036621094
 20
-0.04081067070365
 30
0.0
 40
0.4
  0
CIRCLE
  5
4DA
  8
SIZE
  6
CONTINUOUS
 10
-80.00975036621094
 20
-0.04081067070365
 30
0.0
 40
0.3
  0
CIRCLE
  5
4DB
  8
SIZE
  6
CONTINUOUS
 10
-80.00975036621094
 20
-0.04081067070365
 30
0.0
 40
0.2
  0
CIRCLE
  5
4DC
  8
SIZE
  6
CONTINUOUS
 10
-80.00975036621094
 20
-0.04081067070365
 30
0.0
 40
0.1
  0
CIRCLE
  5
4DD
  8
SIZE
  6
CONTINUOUS
 10
-80.00975036621094
 20
7.959189414978027
 30
0.0
 40
0.5
  0
CIRCLE
  5
4DE
  8
SIZE
  6
CONTINUOUS
 10
-80.00975036621094
 20
7.959189414978027
 30
0.0
 40
0.4
  0
CIRCLE
  5
4DF
  8
SIZE
  6
CONTINUOUS
 10
-80.00975036621094
 20
7.959189414978027
 30
0.0
 40
0.3
  0
CIRCLE
  5
4E0
  8
SIZE
  6
CONTINUOUS
 10
-80.00975036621094
 20
7.959189414978027
 30
0.0
 40
0.2
  0
CIRCLE
  5
4E1
  8
SIZE
  6
CONTINUOUS
 10
-80.00975036621094
 20
7.959189414978027
 30
0.0
 40
0.1
  0
POINT
  5
4E2
  8
DEFPOINTS
  6
BYBLOCK
 10
-230.0097503662109
 20
7.959189414978027
 30
0.0
  0
POINT
  5
4E3
  8
DEFPOINTS
  6
BYBLOCK
 10
-230.0097503662109
 20
-0.04081067070365
 30
0.0
  0
POINT
  5
4E4
  8
DEFPOINTS
  6
BYBLOCK
 10
-80.00975036621094
 20
-0.04081067070365
 30
0.0
  0
ENDBLK
  5
4E5
  8
SIZE
  0
BLOCK
  8
SIZE
  2
*D18
 70
     1
 10
0.0
 20
0.0
 30
0.0
  3
*D18
  1

  0
TEXT
  5
4E8
  8
SIZE
  6
CONTINUOUS
 10
-1001.009790062904
 20
685.0191651614543
 30
0.0
 40
2.799999952316284
  1
100
 50
90.00000500895634
 41
0.6999999829701011
  7
STANDARD1
  0
LINE
  5
4E9
  8
SIZE
  6
CONTINUOUS
 10
-401.009765625
 20
637.9591674804688
 30
0.0
 11
-1002.009765625
 21
637.9591674804688
 31
0.0
  0
LINE
  5
4EA
  8
SIZE
  6
CONTINUOUS
 10
-701.0097656249999
 20
737.9591674804686
 30
0.0
 11
-1002.009765625
 21
737.9591674804686
 31
0.0
  0
LINE
  5
4EB
  8
SIZE
  6
CONTINUOUS
 10
-1000.009765625
 20
637.9591674804688
 30
0.0
 11
-1000.009765625
 21
737.9591674804686
 31
0.0
  0
CIRCLE
  5
4EC
  8
SIZE
  6
CONTINUOUS
 10
-1000.009765625
 20
637.9591674804688
 30
0.0
 40
0.5
  0
CIRCLE
  5
4ED
  8
SIZE
  6
CONTINUOUS
 10
-1000.009765625
 20
637.9591674804688
 30
0.0
 40
0.4
  0
CIRCLE
  5
4EE
  8
SIZE
  6
CONTINUOUS
 10
-1000.009765625
 20
637.9591674804688
 30
0.0
 40
0.3
  0
CIRCLE
  5
4EF
  8
SIZE
  6
CONTINUOUS
 10
-1000.009765625
 20
637.9591674804688
 30
0.0
 40
0.2
  0
CIRCLE
  5
4F0
  8
SIZE
  6
CONTINUOUS
 10
-1000.009765625
 20
637.9591674804688
 30
0.0
 40
0.1
  0
CIRCLE
  5
4F1
  8
SIZE
  6
CONTINUOUS
 10
-1000.009765625
 20
737.9591674804686
 30
0.0
 40
0.5
  0
CIRCLE
  5
4F2
  8
SIZE
  6
CONTINUOUS
 10
-1000.009765625
 20
737.9591674804686
 30
0.0
 40
0.4
  0
CIRCLE
  5
4F3
  8
SIZE
  6
CONTINUOUS
 10
-1000.009765625
 20
737.9591674804686
 30
0.0
 40
0.3
  0
CIRCLE
  5
4F4
  8
SIZE
  6
CONTINUOUS
 10
-1000.009765625
 20
737.9591674804686
 30
0.0
 40
0.2
  0
CIRCLE
  5
4F5
  8
SIZE
  6
CONTINUOUS
 10
-1000.009765625
 20
737.9591674804686
 30
0.0
 40
0.1
  0
POINT
  5
4F6
  8
DEFPOINTS
  6
BYBLOCK
 10
-700.0097656249998
 20
737.9591674804686
 30
0.0
  0
POINT
  5
4F7
  8
DEFPOINTS
  6
BYBLOCK
 10
-400.009765625
 20
637.9591674804688
 30
0.0
  0
POINT
  5
4F8
  8
DEFPOINTS
  6
BYBLOCK
 10
-1000.009765625
 20
637.9591674804688
 30
0.0
  0
ENDBLK
  5
4F9
  8
SIZE
  0
BLOCK
  8
0
  2
_ORIGIN
 70
     0
 10
0.0
 20
0.0
 30
0.0
  3
_ORIGIN
  1

  0
CIRCLE
  5
4FC
  8
0
  6
BYBLOCK
 62
     0
 10
0.0
 20
0.0
 30
0.0
 40
0.5
  0
LINE
  5
4FD
  8
0
  6
BYBLOCK
 62
     0
 10
0.0
 20
0.0
 30
0.0
 11
-1.0
 21
0.0
 31
0.0
  0
ENDBLK
  5
4FE
  8
0
  0
BLOCK
  8
0
  2
*D20
 70
     1
 10
0.0
 20
0.0
 30
0.0
  3
*D20
  1

  0
LINE
  5
501
  8
SIZE
 62
     0
 10
-710.0097656249999
 20
737.9591674804686
 30
0.0
 11
-1014.909765601158
 21
737.9591674804688
 31
0.0
  0
LINE
  5
502
  8
SIZE
 62
     0
 10
-410.009765625
 20
637.9591674804688
 30
0.0
 11
-1014.909765601158
 21
637.9591674804689
 31
0.0
  0
LINE
  5
503
  8
SIZE
 62
     0
 10
-1002.409765601158
 20
727.9591674804688
 30
0.0
 11
-1002.409765601158
 21
647.9591674804688
 31
0.0
  0
INSERT
  5
504
  8
SIZE
 62
     0
  2
_ORIGIN
 10
-1002.409765601158
 20
737.9591674804688
 30
0.0
 41
10.0
 42
10.0
 43
10.0
 50
90.0
  0
INSERT
  5
505
  8
SIZE
 62
     0
  2
_ORIGIN
 10
-1002.409765601158
 20
637.9591674804689
 30
0.0
 41
10.0
 42
10.0
 43
10.0
 50
270.0
  0
TEXT
  5
506
  8
SIZE
 62
     0
 10
-1012.409765601158
 20
653.3091673580768
 30
0.0
 40
30.0
  1
100
 50
90.0
 72
     1
 11
-1012.409765601158
 21
687.9591673580769
 31
0.0
  0
POINT
  5
507
  8
DEFPOINTS
 62
     0
 10
-700.0097656249998
 20
737.9591674804686
 30
0.0
  0
POINT
  5
508
  8
DEFPOINTS
 62
     0
 10
-400.009765625
 20
637.9591674804688
 30
0.0
  0
POINT
  5
509
  8
DEFPOINTS
 62
     0
 10
-1002.409765601158
 20
637.9591674804689
 30
0.0
  0
ENDBLK
  5
50A
  8
0
  0
BLOCK
  8
0
  2
*D21
 70
     1
 10
0.0
 20
0.0
 30
0.0
  3
*D21
  1

  0
LINE
  5
50D
  8
SIZE
 62
     0
 10
-220.0097503662109
 20
7.959189414978023
 30
0.0
 11
-69.9097504280434
 21
7.959189414977981
 31
0.0
  0
LINE
  5
50E
  8
SIZE
 62
     0
 10
-220.0097503662109
 20
-0.0408106707036528
 30
0.0
 11
-69.9097504280434
 21
-0.0408106707036954
 31
0.0
  0
LINE
  5
50F
  8
SIZE
 62
     0
 10
-82.4097504280434
 20
17.95918941497798
 30
0.0
 11
-82.4097504280434
 21
27.95918941497799
 31
0.0
  0
LINE
  5
510
  8
SIZE
 62
     0
 10
-82.4097504280434
 20
-10.04081067070369
 30
0.0
 11
-82.40975042804342
 21
-82.28977555354804
 31
0.0
  0
LINE
  5
511
  8
SIZE
 62
     0
 10
-82.4097504280434
 20
7.959189414977985
 30
0.0
 11
-82.4097504280434
 21
-0.0408106707036918
 31
0.0
  0
INSERT
  5
512
  8
SIZE
 62
     0
  2
_ORIGIN
 10
-82.4097504280434
 20
7.959189414977985
 30
0.0
 41
10.0
 42
10.0
 43
10.0
 50
270.0
  0
INSERT
  5
513
  8
SIZE
 62
     0
  2
_ORIGIN
 10
-82.4097504280434
 20
-0.0408106707036918
 30
0.0
 41
10.0
 42
10.0
 43
10.0
 50
90.0
  0
TEXT
  5
514
  8
SIZE
 62
     0
 10
-92.4097504280434
 20
-77.28977555354805
 30
0.0
 40
30.0
  1
8
 50
90.0
 72
     1
 11
-92.4097504280434
 21
-62.28977555354805
 31
0.0
  0
POINT
  5
515
  8
DEFPOINTS
 62
     0
 10
-230.0097503662109
 20
7.959189414978027
 30
0.0
  0
POINT
  5
516
  8
DEFPOINTS
 62
     0
 10
-230.0097503662109
 20
-0.04081067070365
 30
0.0
  0
POINT
  5
517
  8
DEFPOINTS
 62
     0
 10
-82.4097504280434
 20
-0.0408106707036918
 30
0.0
  0
ENDBLK
  5
518
  8
0
  0
BLOCK
  8
0
  2
*D22
 70
     1
 10
0.0
 20
0.0
 30
0.0
  3
*D22
  1

  0
LINE
  5
51B
  8
SIZE
 62
     0
 10
551.849365234375
 20
-0.0408106707036528
 30
0.0
 11
710.0902342274933
 21
-0.0408106707036977
 31
0.0
  0
LINE
  5
51C
  8
SIZE
 62
     0
 10
29.99024772644043
 20
-15.04081058502197
 30
0.0
 11
710.0902342274933
 21
-15.04081058502217
 31
0.0
  0
LINE
  5
51D
  8
SIZE
 62
     0
 10
697.5902342274933
 20
9.959189329296306
 30
0.0
 11
697.5902342274933
 21
19.9591893292963
 31
0.0
  0
LINE
  5
51E
  8
SIZE
 62
     0
 10
697.5902342274933
 20
-25.04081058502217
 30
0.0
 11
697.5902342274933
 21
-125.0630867513059
 31
0.0
  0
LINE
  5
51F
  8
SIZE
 62
     0
 10
697.5902342274933
 20
-0.0408106707036941
 30
0.0
 11
697.5902342274933
 21
-15.04081058502216
 31
0.0
  0
INSERT
  5
520
  8
SIZE
 62
     0
  2
_ORIGIN
 10
697.5902342274933
 20
-0.0408106707036941
 30
0.0
 41
10.0
 42
10.0
 43
10.0
 50
270.0
  0
INSERT
  5
521
  8
SIZE
 62
     0
  2
_ORIGIN
 10
697.5902342274933
 20
-15.04081058502216
 30
0.0
 41
10.0
 42
10.0
 43
10.0
 50
90.0
  0
TEXT
  5
522
  8
SIZE
 62
     0
 10
687.5902342274933
 20
-119.8130867513058
 30
0.0
 40
30.0
  1
15
 50
90.0
 72
     1
 11
687.5902342274933
 21
-95.06308675130578
 31
0.0
  0
POINT
  5
523
  8
DEFPOINTS
 62
     0
 10
541.8493652343751
 20
-0.04081067070365
 30
0.0
  0
POINT
  5
524
  8
DEFPOINTS
 62
     0
 10
19.99024772644043
 20
-15.04081058502197
 30
0.0
  0
POINT
  5
525
  8
DEFPOINTS
 62
     0
 10
697.5902342274933
 20
-15.04081058502216
 30
0.0
  0
ENDBLK
  5
526
  8
0
  0
BLOCK
  8
0
  2
*D23
 70
     1
 10
0.0
 20
0.0
 30
0.0
  3
*D23
  1

  0
LINE
  5
529
  8
SIZE
 62
     0
 10
-410.009765625
 20
-0.0408106707036472
 30
0.0
 11
-814.9097656011583
 21
-0.0408106707035325
 31
0.0
  0
LINE
  5
52A
  8
SIZE
 62
     0
 10
-465.2097473144531
 20
126.9591903686523
 30
0.0
 11
-814.9097656011583
 21
126.9591903686524
 31
0.0
  0
LINE
  5
52B
  8
SIZE
 62
     0
 10
-802.4097656011583
 20
9.959189329296464
 30
0.0
 11
-802.4097656011583
 21
116.9591903686524
 31
0.0
  0
INSERT
  5
52C
  8
SIZE
 62
     0
  2
_ORIGIN
 10
-802.4097656011583
 20
-0.040810670703536
 30
0.0
 41
10.0
 42
10.0
 43
10.0
 50
270.0
  0
INSERT
  5
52D
  8
SIZE
 62
     0
  2
_ORIGIN
 10
-802.4097656011583
 20
126.9591903686524
 30
0.0
 41
10.0
 42
10.0
 43
10.0
 50
90.0
  0
TEXT
  5
52E
  8
SIZE
 62
     0
 10
-812.4097656011583
 20
23.70918643156319
 30
0.0
 40
30.0
  1
127
 50
90.0
 72
     1
 11
-812.4097656011583
 21
63.45918643156319
 31
0.0
  0
POINT
  5
52F
  8
DEFPOINTS
 62
     0
 10
-400.009765625
 20
-0.04081067070365
 30
0.0
  0
POINT
  5
530
  8
DEFPOINTS
 62
     0
 10
-455.2097473144531
 20
126.9591903686523
 30
0.0
  0
POINT
  5
531
  8
DEFPOINTS
 62
     0
 10
-802.4097656011583
 20
126.9591903686524
 30
0.0
  0
ENDBLK
  5
532
  8
0
  0
BLOCK
  8
0
  2
*D24
 70
     1
 10
0.0
 20
0.0
 30
0.0
  3
*D24
  1

  0
LINE
  5
535
  8
SIZE
 62
     0
 10
-410.009765625
 20
-0.0408106707036472
 30
0.0
 11
-914.9097656011583
 21
-0.0408106707035041
 31
0.0
  0
LINE
  5
536
  8
SIZE
 62
     0
 10
-465.2097473144531
 20
206.9591827392578
 30
0.0
 11
-914.9097656011583
 21
206.9591827392579
 31
0.0
  0
LINE
  5
537
  8
SIZE
 62
     0
 10
-902.4097656011583
 20
9.959189329296493
 30
0.0
 11
-902.4097656011583
 21
196.9591827392579
 31
0.0
  0
INSERT
  5
538
  8
SIZE
 62
     0
  2
_ORIGIN
 10
-902.4097656011583
 20
-0.0408106707035077
 30
0.0
 41
10.0
 42
10.0
 43
10.0
 50
270.0
  0
INSERT
  5
539
  8
SIZE
 62
     0
  2
_ORIGIN
 10
-902.4097656011583
 20
206.9591827392579
 30
0.0
 41
10.0
 42
10.0
 43
10.0
 50
90.0
  0
TEXT
  5
53A
  8
SIZE
 62
     0
 10
-912.4097656011583
 20
61.00919024626036
 30
0.0
 40
30.0
  1
207
 50
90.0
 72
     1
 11
-912.4097656011583
 21
103.4591902462604
 31
0.0
  0
POINT
  5
53B
  8
DEFPOINTS
 62
     0
 10
-400.009765625
 20
-0.04081067070365
 30
0.0
  0
POINT
  5
53C
  8
DEFPOINTS
 62
     0
 10
-455.2097473144531
 20
206.9591827392578
 30
0.0
  0
POINT
  5
53D
  8
DEFPOINTS
 62
     0
 10
-902.4097656011583
 20
206.9591827392579
 30
0.0
  0
ENDBLK
  5
53E
  8
0
  0
BLOCK
  8
0
  2
*D25
 70
     1
 10
0.0
 20
0.0
 30
0.0
  3
*D25
  1

  0
LINE
  5
541
  8
SIZE
 62
     0
 10
-400.009765625
 20
9.95918846130371
 30
0.0
 11
-400.009765625
 21
-160.1408020257949
 31
0.0
  0
LINE
  5
542
  8
SIZE
 62
     0
 10
-435.2097473144531
 20
176.9591827392578
 30
0.0
 11
-435.2097473144531
 21
-160.140802025795
 31
0.0
  0
LINE
  5
543
  8
SIZE
 62
     0
 10
-445.2097473144531
 20
-147.6408020257949
 30
0.0
 11
-455.2097473144531
 21
-147.6408020257949
 31
0.0
  0
LINE
  5
544
  8
SIZE
 62
     0
 10
-390.009765625
 20
-147.6408020257949
 30
0.0
 11
-310.009765625
 21
-147.6408020257949
 31
0.0
  0
LINE
  5
545
  8
SIZE
 62
     0
 10
-435.2097473144531
 20
-147.6408020257949
 30
0.0
 11
-400.009765625
 21
-147.6408020257949
 31
0.0
  0
INSERT
  5
546
  8
SIZE
 62
     0
  2
_ORIGIN
 10
-435.2097473144531
 20
-147.6408020257949
 30
0.0
 41
10.0
 42
10.0
 43
10.0
  0
INSERT
  5
547
  8
SIZE
 62
     0
  2
_ORIGIN
 10
-400.009765625
 20
-147.6408020257949
 30
0.0
 41
10.0
 42
10.0
 43
10.0
 50
180.0
  0
TEXT
  5
548
  8
SIZE
 62
     0
 10
-375.009765625
 20
-137.6408020257949
 30
0.0
 40
30.0
  1
35
 72
     1
 11
-345.009765625
 21
-137.6408020257949
 31
0.0
  0
POINT
  5
549
  8
DEFPOINTS
 62
     0
 10
-400.009765625
 20
19.95918846130371
 30
0.0
  0
POINT
  5
54A
  8
DEFPOINTS
 62
     0
 10
-435.2097473144531
 20
186.9591827392578
 30
0.0
  0
POINT
  5
54B
  8
DEFPOINTS
 62
     0
 10
-435.2097473144531
 20
-147.6408020257949
 30
0.0
  0
ENDBLK
  5
54C
  8
0
  0
BLOCK
  8
0
  2
*D26
 70
     1
 10
0.0
 20
0.0
 30
0.0
  3
*D26
  1

  0
LINE
  5
54F
  8
SIZE
 62
     0
 10
-700.0097656249998
 20
747.9591674804686
 30
0.0
 11
-700.0097656249998
 21
902.8591674566269
 31
0.0
  0
LINE
  5
550
  8
SIZE
 62
     0
 10
-400.009765625
 20
747.9591674804686
 30
0.0
 11
-400.009765625
 21
902.8591674566269
 31
0.0
  0
LINE
  5
551
  8
SIZE
 62
     0
 10
-690.0097656249998
 20
890.3591674566269
 30
0.0
 11
-410.009765625
 21
890.3591674566269
 31
0.0
  0
INSERT
  5
552
  8
SIZE
 62
     0
  2
_ORIGIN
 10
-700.0097656249998
 20
890.3591674566269
 30
0.0
 41
10.0
 42
10.0
 43
10.0
 50
180.0
  0
INSERT
  5
553
  8
SIZE
 62
     0
  2
_ORIGIN
 10
-400.009765625
 20
890.3591674566269
 30
0.0
 41
10.0
 42
10.0
 43
10.0
  0
TEXT
  5
554
  8
SIZE
 62
     0
 10
-589.9097656861959
 20
900.3591674566269
 30
0.0
 40
30.0
  1
300
 72
     1
 11
-550.0097656861959
 21
900.3591674566269
 31
0.0
  0
POINT
  5
555
  8
DEFPOINTS
 62
     0
 10
-700.0097656249998
 20
737.9591674804686
 30
0.0
  0
POINT
  5
556
  8
DEFPOINTS
 62
     0
 10
-400.009765625
 20
737.9591674804686
 30
0.0
  0
POINT
  5
557
  8
DEFPOINTS
 62
     0
 10
-400.009765625
 20
890.3591674566269
 30
0.0
  0
ENDBLK
  5
558
  8
0
  0
BLOCK
  8
0
  2
*D27
 70
     1
 10
0.0
 20
0.0
 30
0.0
  3
*D27
  1

  0
LINE
  5
55B
  8
SIZE
 62
     0
 10
-400.009765625
 20
647.9591674804688
 30
0.0
 11
-400.009765625
 21
902.8591674566269
 31
0.0
  0
LINE
  5
55C
  8
SIZE
 62
     0
 10
399.990234375
 20
747.9591674804686
 30
0.0
 11
399.990234375
 21
902.8591674566269
 31
0.0
  0
LINE
  5
55D
  8
SIZE
 62
     0
 10
-390.009765625
 20
890.3591674566269
 30
0.0
 11
389.990234375
 21
890.3591674566269
 31
0.0
  0
INSERT
  5
55E
  8
SIZE
 62
     0
  2
_ORIGIN
 10
-400.009765625
 20
890.3591674566269
 30
0.0
 41
10.0
 42
10.0
 43
10.0
 50
180.0
  0
INSERT
  5
55F
  8
SIZE
 62
     0
  2
_ORIGIN
 10
399.990234375
 20
890.3591674566269
 30
0.0
 41
10.0
 42
10.0
 43
10.0
  0
TEXT
  5
560
  8
SIZE
 62
     0
 10
-39.90975296712354
 20
900.3591674566269
 30
0.0
 40
30.0
  1
800
 72
     1
 11
-0.0097529671235392
 21
900.3591674566269
 31
0.0
  0
POINT
  5
561
  8
DEFPOINTS
 62
     0
 10
-400.009765625
 20
637.9591674804688
 30
0.0
  0
POINT
  5
562
  8
DEFPOINTS
 62
     0
 10
399.990234375
 20
737.9591674804686
 30
0.0
  0
POINT
  5
563
  8
DEFPOINTS
 62
     0
 10
399.990234375
 20
890.3591674566269
 30
0.0
  0
ENDBLK
  5
564
  8
0
  0
BLOCK
  8
0
  2
*D28
 70
     1
 10
0.0
 20
0.0
 30
0.0
  3
*D28
  1

  0
LINE
  5
567
  8
SIZE
 62
     0
 10
399.990234375
 20
747.9591674804686
 30
0.0
 11
399.990234375
 21
902.8591674566269
 31
0.0
  0
LINE
  5
568
  8
SIZE
 62
     0
 10
549.990234375
 20
747.9591674804686
 30
0.0
 11
549.990234375
 21
902.8591674566269
 31
0.0
  0
LINE
  5
569
  8
SIZE
 62
     0
 10
409.990234375
 20
890.3591674566269
 30
0.0
 11
539.990234375
 21
890.3591674566269
 31
0.0
  0
INSERT
  5
56A
  8
SIZE
 62
     0
  2
_ORIGIN
 10
399.990234375
 20
890.3591674566269
 30
0.0
 41
10.0
 42
10.0
 43
10.0
 50
180.0
  0
INSERT
  5
56B
  8
SIZE
 62
     0
  2
_ORIGIN
 10
549.990234375
 20
890.3591674566269
 30
0.0
 41
10.0
 42
10.0
 43
10.0
  0
TEXT
  5
56C
  8
SIZE
 62
     0
 10
437.7902343138041
 20
900.3591674566269
 30
0.0
 40
30.0
  1
150
 72
     1
 11
474.9902343138041
 21
900.3591674566269
 31
0.0
  0
POINT
  5
56D
  8
DEFPOINTS
 62
     0
 10
399.990234375
 20
737.9591674804686
 30
0.0
  0
POINT
  5
56E
  8
DEFPOINTS
 62
     0
 10
549.990234375
 20
737.9591674804686
 30
0.0
  0
POINT
  5
56F
  8
DEFPOINTS
 62
     0
 10
549.990234375
 20
890.3591674566269
 30
0.0
  0
ENDBLK
  5
570
  8
0
  0
BLOCK
  8
0
  2
*D29
 70
     1
 10
0.0
 20
0.0
 30
0.0
  3
*D29
  1

  0
LINE
  5
573
  8
SIZE
 62
     0
 10
551.849365234375
 20
-0.0408106707036528
 30
0.0
 11
710.0902343988417
 21
-0.0408106707036977
 31
0.0
  0
LINE
  5
574
  8
SIZE
 62
     0
 10
559.990234375
 20
737.9591674804686
 30
0.0
 11
710.0902343988419
 21
737.9591674804686
 31
0.0
  0
LINE
  5
575
  8
SIZE
 62
     0
 10
697.5902343988417
 20
9.959189329296306
 30
0.0
 11
697.5902343988419
 21
727.9591674804686
 31
0.0
  0
INSERT
  5
576
  8
SIZE
 62
     0
  2
_ORIGIN
 10
697.5902343988417
 20
-0.0408106707036941
 30
0.0
 41
10.0
 42
10.0
 43
10.0
 50
270.0
  0
INSERT
  5
577
  8
SIZE
 62
     0
  2
_ORIGIN
 10
697.5902343988419
 20
737.9591674804686
 30
0.0
 41
10.0
 42
10.0
 43
10.0
 50
90.0
  0
TEXT
  5
578
  8
SIZE
 62
     0
 10
687.5902343988417
 20
323.9591978756549
 30
0.0
 40
30.0
  1
738
 50
90.0
 72
     1
 11
687.5902343988417
 21
368.9591978756549
 31
0.0
  0
POINT
  5
579
  8
DEFPOINTS
 62
     0
 10
541.8493652343751
 20
-0.04081067070365
 30
0.0
  0
POINT
  5
57A
  8
DEFPOINTS
 62
     0
 10
549.990234375
 20
737.9591674804686
 30
0.0
  0
POINT
  5
57B
  8
DEFPOINTS
 62
     0
 10
697.5902343988419
 20
737.9591674804686
 30
0.0
  0
ENDBLK
  5
57C
  8
0
  0
BLOCK
  8
0
  2
*D30
 70
     1
 10
0.0
 20
0.0
 30
0.0
  3
*D30
  1

  0
LINE
  5
57F
  8
SIZE
 62
     0
 10
-710.0097656249999
 20
-0.0408106707036472
 30
0.0
 11
-1164.909765601158
 21
-0.0408106707035183
 31
0.0
  0
LINE
  5
580
  8
SIZE
 62
     0
 10
-710.0097656249999
 20
737.9591674804686
 30
0.0
 11
-1164.909765601157
 21
737.9591674804688
 31
0.0
  0
LINE
  5
581
  8
SIZE
 62
     0
 10
-1152.409765601158
 20
9.959189329296478
 30
0.0
 11
-1152.409765601158
 21
727.9591674804688
 31
0.0
  0
INSERT
  5
582
  8
SIZE
 62
     0
  2
_ORIGIN
 10
-1152.409765601158
 20
-0.0408106707035219
 30
0.0
 41
10.0
 42
10.0
 43
10.0
 50
270.0
  0
INSERT
  5
583
  8
SIZE
 62
     0
  2
_ORIGIN
 10
-1152.409765601158
 20
737.9591674804688
 30
0.0
 41
10.0
 42
10.0
 43
10.0
 50
90.0
  0
TEXT
  5
584
  8
SIZE
 62
     0
 10
-1162.409765601158
 20
323.9591978756549
 30
0.0
 40
30.0
  1
738
 50
90.0
 72
     1
 11
-1162.409765601158
 21
368.9591978756549
 31
0.0
  0
POINT
  5
585
  8
DEFPOINTS
 62
     0
 10
-700.0097656249998
 20
-0.04081067070365
 30
0.0
  0
POINT
  5
586
  8
DEFPOINTS
 62
     0
 10
-700.0097656249998
 20
737.9591674804686
 30
0.0
  0
POINT
  5
587
  8
DEFPOINTS
 62
     0
 10
-1152.409765601158
 20
737.9591674804688
 30
0.0
  0
ENDBLK
  5
588
  8
0
  0
BLOCK
  8
0
  2
*D31
 70
     1
 10
0.0
 20
0.0
 30
0.0
  3
*D31
  1

  0
LINE
  5
58B
  8
SIZE
 62
     0
 10
-400.009765625
 20
-10.04081067070365
 30
0.0
 11
-400.009765625
 21
-360.1408020257949
 31
0.0
  0
LINE
  5
58C
  8
SIZE
 62
     0
 10
399.990234375
 20
9.95918846130371
 30
0.0
 11
399.990234375
 21
-360.1408020257949
 31
0.0
  0
LINE
  5
58D
  8
SIZE
 62
     0
 10
-390.009765625
 20
-347.6408020257949
 30
0.0
 11
389.990234375
 21
-347.6408020257949
 31
0.0
  0
INSERT
  5
58E
  8
SIZE
 62
     0
  2
_ORIGIN
 10
-400.009765625
 20
-347.6408020257949
 30
0.0
 41
10.0
 42
10.0
 43
10.0
 50
180.0
  0
INSERT
  5
58F
  8
SIZE
 62
     0
  2
_ORIGIN
 10
399.990234375
 20
-347.6408020257949
 30
0.0
 41
10.0
 42
10.0
 43
10.0
  0
TEXT
  5
590
  8
SIZE
 62
     0
 10
-39.90975296712354
 20
-337.6408020257949
 30
0.0
 40
30.0
  1
800
 72
     1
 11
-0.0097529671235392
 21
-337.6408020257949
 31
0.0
  0
POINT
  5
591
  8
DEFPOINTS
 62
     0
 10
-400.009765625
 20
-0.04081067070365
 30
0.0
  0
POINT
  5
592
  8
DEFPOINTS
 62
     0
 10
399.990234375
 20
19.95918846130371
 30
0.0
  0
POINT
  5
593
  8
DEFPOINTS
 62
     0
 10
399.990234375
 20
-347.6408020257949
 30
0.0
  0
ENDBLK
  5
594
  8
0
  0
BLOCK
  8
0
  2
*D32
 70
     1
 10
0.0
 20
0.0
 30
0.0
  3
*D32
  1

  0
LINE
  5
597
  8
SIZE
 62
     0
 10
-400.009765625
 20
-10.04081067070365
 30
0.0
 11
-400.009765625
 21
-260.140802025795
 31
0.0
  0
LINE
  5
598
  8
SIZE
 62
     0
 10
-250.0097503662109
 20
-30.04081153869629
 30
0.0
 11
-250.009750366211
 21
-260.140802025795
 31
0.0
  0
LINE
  5
599
  8
SIZE
 62
     0
 10
-390.009765625
 20
-247.640802025795
 30
0.0
 11
-260.0097503662109
 21
-247.640802025795
 31
0.0
  0
INSERT
  5
59A
  8
SIZE
 62
     0
  2
_ORIGIN
 10
-400.009765625
 20
-247.640802025795
 30
0.0
 41
10.0
 42
10.0
 43
10.0
 50
180.0
  0
INSERT
  5
59B
  8
SIZE
 62
     0
  2
_ORIGIN
 10
-250.0097503662109
 20
-247.640802025795
 30
0.0
 41
10.0
 42
10.0
 43
10.0
  0
TEXT
  5
59C
  8
SIZE
 62
     0
 10
-362.2097656861959
 20
-237.640802025795
 30
0.0
 40
30.0
  1
150
 72
     1
 11
-325.0097656861959
 21
-237.640802025795
 31
0.0
  0
POINT
  5
59D
  8
DEFPOINTS
 62
     0
 10
-400.009765625
 20
-0.04081067070365
 30
0.0
  0
POINT
  5
59E
  8
DEFPOINTS
 62
     0
 10
-250.0097503662109
 20
-20.04081153869629
 30
0.0
  0
POINT
  5
59F
  8
DEFPOINTS
 62
     0
 10
-250.0097503662109
 20
-247.640802025795
 30
0.0
  0
ENDBLK
  5
5A0
  8
0
  0
BLOCK
  8
0
  2
*D33
 70
     1
 10
0.0
 20
0.0
 30
0.0
  3
*D33
  1

  0
LINE
  5
5A3
  8
SIZE
 62
     0
 10
-280.009765625
 20
-0.0408106707036472
 30
0.0
 11
-1014.909765601158
 21
-0.040810670703439
 31
0.0
  0
LINE
  5
5A4
  8
SIZE
 62
     0
 10
-410.009765625
 20
637.9591674804688
 30
0.0
 11
-1014.909765601158
 21
637.9591674804689
 31
0.0
  0
LINE
  5
5A5
  8
SIZE
 62
     0
 10
-1002.409765601158
 20
9.959189329296557
 30
0.0
 11
-1002.409765601158
 21
627.9591674804688
 31
0.0
  0
INSERT
  5
5A6
  8
SIZE
 62
     0
  2
_ORIGIN
 10
-1002.409765601158
 20
-0.0408106707034425
 30
0.0
 41
10.0
 42
10.0
 43
10.0
 50
270.0
  0
INSERT
  5
5A7
  8
SIZE
 62
     0
  2
_ORIGIN
 10
-1002.409765601158
 20
637.9591674804689
 30
0.0
 41
10.0
 42
10.0
 43
10.0
 50
90.0
  0
TEXT
  5
5A8
  8
SIZE
 62
     0
 10
-1012.409765601158
 20
273.9591978756549
 30
0.0
 40
30.0
  1
638
 50
90.0
 72
     1
 11
-1012.409765601158
 21
318.9591978756549
 31
0.0
  0
POINT
  5
5A9
  8
DEFPOINTS
 62
     0
 10
-270.009765625
 20
-0.04081067070365
 30
0.0
  0
POINT
  5
5AA
  8
DEFPOINTS
 62
     0
 10
-400.009765625
 20
637.9591674804688
 30
0.0
  0
POINT
  5
5AB
  8
DEFPOINTS
 62
     0
 10
-1002.409765601158
 20
637.9591674804689
 30
0.0
  0
ENDBLK
  5
5AC
  8
0
  0
BLOCK
  8
0
  2
*D34
 70
     1
 10
0.0
 20
0.0
 30
0.0
  3
*D34
  1

  0
LINE
  5
5AF
  8
SIZE
 62
     0
 10
399.990234375
 20
9.959190368652344
 30
0.0
 11
399.990234375
 21
-260.140817284584
 31
0.0
  0
LINE
  5
5B0
  8
SIZE
 62
     0
 10
249.990249633789
 20
-30.04080963134766
 30
0.0
 11
249.990249633789
 21
-260.140817284584
 31
0.0
  0
LINE
  5
5B1
  8
SIZE
 62
     0
 10
389.990234375
 20
-247.640817284584
 30
0.0
 11
259.990249633789
 21
-247.640817284584
 31
0.0
  0
INSERT
  5
5B2
  8
SIZE
 62
     0
  2
_ORIGIN
 10
399.990234375
 20
-247.640817284584
 30
0.0
 41
10.0
 42
10.0
 43
10.0
  0
INSERT
  5
5B3
  8
SIZE
 62
     0
  2
_ORIGIN
 10
249.990249633789
 20
-247.640817284584
 30
0.0
 41
10.0
 42
10.0
 43
10.0
 50
180.0
  0
TEXT
  5
5B4
  8
SIZE
 62
     0
 10
287.7902343138041
 20
-237.640817284584
 30
0.0
 40
30.0
  1
150
 72
     1
 11
324.9902343138041
 21
-237.640817284584
 31
0.0
  0
POINT
  5
5B5
  8
DEFPOINTS
 62
     0
 10
399.990234375
 20
19.95919036865234
 30
0.0
  0
POINT
  5
5B6
  8
DEFPOINTS
 62
     0
 10
249.990249633789
 20
-20.04080963134766
 30
0.0
  0
POINT
  5
5B7
  8
DEFPOINTS
 62
     0
 10
249.990249633789
 20
-247.640817284584
 30
0.0
  0
ENDBLK
  5
5B8
  8
0
  0
BLOCK
  8
0
  2
*D35
 70
     1
 10
0.0
 20
0.0
 30
0.0
  3
*D35
  1

  0
LINE
  5
5BB
  8
SIZE
 62
     0
 10
249.990249633789
 20
-30.04080963134766
 30
0.0
 11
249.990249633789
 21
-260.140802025795
 31
0.0
  0
LINE
  5
5BC
  8
SIZE
 62
     0
 10
-250.0097503662109
 20
-30.04080963134766
 30
0.0
 11
-250.009750366211
 21
-260.140802025795
 31
0.0
  0
LINE
  5
5BD
  8
SIZE
 62
     0
 10
239.990249633789
 20
-247.640802025795
 30
0.0
 11
-240.0097503662109
 21
-247.640802025795
 31
0.0
  0
INSERT
  5
5BE
  8
SIZE
 62
     0
  2
_ORIGIN
 10
249.990249633789
 20
-247.640802025795
 30
0.0
 41
10.0
 42
10.0
 43
10.0
  0
INSERT
  5
5BF
  8
SIZE
 62
     0
  2
_ORIGIN
 10
-250.0097503662109
 20
-247.640802025795
 30
0.0
 41
10.0
 42
10.0
 43
10.0
 50
180.0
  0
TEXT
  5
5C0
  8
SIZE
 62
     0
 10
-39.90975296712354
 20
-237.640802025795
 30
0.0
 40
30.0
  1
500
 72
     1
 11
-0.0097529671235392
 21
-237.640802025795
 31
0.0
  0
POINT
  5
5C1
  8
DEFPOINTS
 62
     0
 10
249.990249633789
 20
-20.04080963134766
 30
0.0
  0
POINT
  5
5C2
  8
DEFPOINTS
 62
     0
 10
-250.0097503662109
 20
-20.04080963134766
 30
0.0
  0
POINT
  5
5C3
  8
DEFPOINTS
 62
     0
 10
-250.0097503662109
 20
-247.640802025795
 30
0.0
  0
ENDBLK
  5
5C4
  8
0
  0
BLOCK
  8
0
  2
*D36
 70
     1
 10
0.0
 20
0.0
 30
0.0
  3
*D36
  1

  0
LINE
  5
5C7
  8
SIZE
 62
     0
 10
-270.009765625
 20
-10.04080963134765
 30
0.0
 11
-270.009765625
 21
-160.1408019401207
 31
0.0
  0
LINE
  5
5C8
  8
SIZE
 62
     0
 10
-230.0097503662109
 20
-10.04080963134765
 30
0.0
 11
-230.0097503662109
 21
-160.1408019401207
 31
0.0
  0
LINE
  5
5C9
  8
SIZE
 62
     0
 10
-260.009765625
 20
-147.6408019401207
 30
0.0
 11
-240.0097503662109
 21
-147.6408019401207
 31
0.0
  0
LINE
  5
5CA
  8
SIZE
 62
     0
 10
-230.0097503662109
 20
-147.6408019401207
 30
0.0
 11
-155.0097503662109
 21
-147.6408019401207
 31
0.0
  0
INSERT
  5
5CB
  8
SIZE
 62
     0
  2
_ORIGIN
 10
-270.009765625
 20
-147.6408019401207
 30
0.0
 41
10.0
 42
10.0
 43
10.0
 50
180.0
  0
INSERT
  5
5CC
  8
SIZE
 62
     0
  2
_ORIGIN
 10
-230.0097503662109
 20
-147.6408019401207
 30
0.0
 41
10.0
 42
10.0
 43
10.0
  0
TEXT
  5
5CD
  8
SIZE
 62
     0
 10
-214.9597503662109
 20
-137.6408019401207
 30
0.0
 40
30.0
  1
40
 72
     1
 11
-187.5097503662109
 21
-137.6408019401207
 31
0.0
  0
POINT
  5
5CE
  8
DEFPOINTS
 62
     0
 10
-270.009765625
 20
-0.040809631347656
 30
0.0
  0
POINT
  5
5CF
  8
DEFPOINTS
 62
     0
 10
-230.0097503662109
 20
-0.040809631347656
 30
0.0
  0
POINT
  5
5D0
  8
DEFPOINTS
 62
     0
 10
-230.0097503662109
 20
-147.6408019401207
 30
0.0
  0
ENDBLK
  5
5D1
  8
0
  0
BLOCK
  8
0
  2
*D37
 70
     1
 10
0.0
 20
0.0
 30
0.0
  3
*D37
  1

  0
LINE
  5
5D4
  8
SIZE
 62
     0
 10
-400.009765625
 20
-10.04081067070365
 30
0.0
 11
-400.009765625
 21
-360.1408020257949
 31
0.0
  0
LINE
  5
5D5
  8
SIZE
 62
     0
 10
-470.009765625
 20
44.83419036865234
 30
0.0
 11
-470.009765625
 21
-360.1408020257949
 31
0.0
  0
LINE
  5
5D6
  8
SIZE
 62
     0
 10
-410.009765625
 20
-347.6408020257949
 30
0.0
 11
-460.009765625
 21
-347.6408020257949
 31
0.0
  0
INSERT
  5
5D7
  8
SIZE
 62
     0
  2
_ORIGIN
 10
-400.009765625
 20
-347.6408020257949
 30
0.0
 41
10.0
 42
10.0
 43
10.0
  0
INSERT
  5
5D8
  8
SIZE
 62
     0
  2
_ORIGIN
 10
-470.009765625
 20
-347.6408020257949
 30
0.0
 41
10.0
 42
10.0
 43
10.0
 50
180.0
  0
TEXT
  5
5D9
  8
SIZE
 62
     0
 10
-462.4597656861959
 20
-337.6408020257949
 30
0.0
 40
30.0
  1
70
 72
     1
 11
-435.0097656861959
 21
-337.6408020257949
 31
0.0
  0
POINT
  5
5DA
  8
DEFPOINTS
 62
     0
 10
-400.009765625
 20
-0.04081067070365
 30
0.0
  0
POINT
  5
5DB
  8
DEFPOINTS
 62
     0
 10
-470.009765625
 20
54.83419036865234
 30
0.0
  0
POINT
  5
5DC
  8
DEFPOINTS
 62
     0
 10
-470.009765625
 20
-347.6408020257949
 30
0.0
  0
ENDBLK
  5
5DD
  8
0
  0
BLOCK
  8
0
  2
*D38
 70
     1
 10
0.0
 20
0.0
 30
0.0
  3
*D38
  1

  0
LINE
  5
5E0
  8
SIZE
 62
     0
 10
399.990234375
 20
622.9591674804688
 30
0.0
 11
399.990234375
 21
-360.140802025795
 31
0.0
  0
LINE
  5
5E1
  8
SIZE
 62
     0
 10
420.990234375
 20
602.9591674804688
 30
0.0
 11
420.9902343749999
 21
-360.140802025795
 31
0.0
  0
LINE
  5
5E2
  8
SIZE
 62
     0
 10
389.990234375
 20
-347.6408020257949
 30
0.0
 11
379.9902343749999
 21
-347.6408020257949
 31
0.0
  0
LINE
  5
5E3
  8
SIZE
 62
     0
 10
430.9902343749999
 20
-347.6408020257949
 30
0.0
 11
599.3339232786478
 21
-347.6408020257949
 31
0.0
  0
LINE
  5
5E4
  8
SIZE
 62
     0
 10
399.990234375
 20
-347.6408020257949
 30
0.0
 11
420.9902343749999
 21
-347.6408020257949
 31
0.0
  0
INSERT
  5
5E5
  8
SIZE
 62
     0
  2
_ORIGIN
 10
399.990234375
 20
-347.6408020257949
 30
0.0
 41
10.0
 42
10.0
 43
10.0
  0
INSERT
  5
5E6
  8
SIZE
 62
     0
  2
_ORIGIN
 10
420.9902343749999
 20
-347.6408020257949
 30
0.0
 41
10.0
 42
10.0
 43
10.0
 50
180.0
  0
TEXT
  5
5E7
  8
SIZE
 62
     0
 10
544.5839232786478
 20
-337.6408020257949
 30
0.0
 40
30.0
  1
21
 72
     1
 11
569.3339232786478
 21
-337.6408020257949
 31
0.0
  0
POINT
  5
5E8
  8
DEFPOINTS
 62
     0
 10
399.990234375
 20
632.9591674804688
 30
0.0
  0
POINT
  5
5E9
  8
DEFPOINTS
 62
     0
 10
420.990234375
 20
612.9591674804688
 30
0.0
  0
POINT
  5
5EA
  8
DEFPOINTS
 62
     0
 10
420.9902343749999
 20
-347.6408020257949
 30
0.0
  0
ENDBLK
  5
5EB
  8
0
  0
ENDSEC
  0
SECTION
  2
ENTITIES
  0
LINE
  5
5EC
  8
0
  6
CONTINUOUS
 10
420.9999999999999
 20
605.0000000000003
 30
0.0
 11
399.9999999999999
 21
624.4999999999998
 31
0.0
  0
LINE
  5
5ED
  8
OUTLINE
  6
CONTINUOUS
 10
-399.9999999999999
 20
31.49999999999994
 30
0.0
 11
-469.9999999999999
 21
46.37499999999993
 31
0.0
  0
LINE
  5
5EE
  8
OUTLINE
  6
CONTINUOUS
 10
-400.0
 20
274.8333333333334
 30
0.0
 11
-469.9999999999999
 21
258.7916666666669
 31
0.0
  0
LINE
  5
5EF
  8
OUTLINE
  6
CONTINUOUS
 10
-469.9999999999999
 20
258.7916666666669
 30
0.0
 11
-469.9999999999999
 21
46.37499999999994
 31
0.0
  0
LINE
  5
5F0
  8
OUTLINE
  6
CONTINUOUS
 10
-400.0
 20
559.5
 30
0.0
 11
-423.4999999999999
 21
549.5
 31
0.0
  0
LINE
  5
5F1
  8
OUTLINE
  6
CONTINUOUS
 10
-423.4999999999999
 20
534.5
 30
0.0
 11
-423.4999999999999
 21
549.5
 31
0.0
  0
LINE
  5
5F2
  8
OUTLINE
  6
CONTINUOUS
 10
-400.0
 20
540.1969696969696
 30
0.0
 11
-423.4999999999999
 21
534.5
 31
0.0
  0
LINE
  5
5F3
  8
OUTLINE
  6
CONTINUOUS
 10
-408.4999999999999
 20
511.1064621532099
 30
0.0
 11
-400.0
 21
515.0700772475274
 31
0.0
  0
LINE
  5
5F4
  8
OUTLINE
  6
CONTINUOUS
 10
-408.4999999999999
 20
272.8854166666667
 30
0.0
 11
-408.4999999999999
 21
511.1064621532099
 31
0.0
  0
LINE
  5
5F5
  8
OUTLINE
  6
CONTINUOUS
 10
420.9999999999999
 20
604.4999999999997
 30
0.0
 11
420.9999999999999
 21
605.0000000000002
 31
0.0
  0
LINE
  5
5F6
  8
OUTLINE
  6
CONTINUOUS
 10
-400.0
 20
604.4999999999997
 30
0.0
 11
399.9999999999999
 21
604.4999999999997
 31
0.0
  0
ARC
  5
5F7
  8
OUTLINE
  6
CONTINUOUS
 10
394.9999999999999
 20
624.4999999999998
 30
0.0
 40
5.0
 50
0.0
 51
90.0
  0
ARC
  5
5F8
  8
OUTLINE
  6
CONTINUOUS
 10
-395.0000000000001
 20
624.4999999999998
 30
0.0
 40
5.0
 50
90.0
 51
180.0
  0
LINE
  5
5F9
  8
OUTLINE
  6
CONTINUOUS
 10
-395.0000000000001
 20
629.4999999999997
 30
0.0
 11
394.9999999999999
 21
629.4999999999997
 31
0.0
  0
LINE
  5
5FA
  8
OUTLINE
  6
CONTINUOUS
 10
-230.0000000000001
 20
-8.50000000000003
 30
0.0
 11
-270.0
 21
-8.50000000000003
 31
0.0
  0
LINE
  5
5FB
  8
OUTLINE
  6
CONTINUOUS
 10
269.9999999999999
 20
-8.499999999999973
 30
0.0
 11
229.9999999999999
 21
-8.499999999999973
 31
0.0
  0
LINE
  5
5FC
  8
OUTLINE
  6
CONTINUOUS
 10
-270.0
 20
11.49999999999997
 30
0.0
 11
-270.0
 21
-8.50000000000003
 31
0.0
  0
LINE
  5
5FD
  8
OUTLINE
  6
CONTINUOUS
 10
230.0
 20
11.50000000000003
 30
0.0
 11
229.9999999999999
 21
-8.499999999999973
 31
0.0
  0
LINE
  5
5FE
  8
OUTLINE
  6
CONTINUOUS
 10
-230.0000000000001
 20
11.49999999999997
 30
0.0
 11
-230.0000000000001
 21
-8.50000000000003
 31
0.0
  0
LINE
  5
5FF
  8
OUTLINE
  6
CONTINUOUS
 10
269.9999999999999
 20
11.50000000000003
 30
0.0
 11
269.9999999999999
 21
-8.499999999999973
 31
0.0
  0
LINE
  5
600
  8
OUTLINE
  6
CONTINUOUS
 10
-399.9999999999999
 20
11.49999999999994
 30
0.0
 11
-400.0
 21
624.4999999999998
 31
0.0
  0
LINE
  5
601
  8
OUTLINE
  6
CONTINUOUS
 10
400.0000000000001
 20
11.50000000000005
 30
0.0
 11
-399.9999999999999
 21
11.49999999999994
 31
0.0
  0
LINE
  5
602
  8
OUTLINE
  6
CONTINUOUS
 10
400.0000000000001
 20
11.50000000000005
 30
0.0
 11
399.9999999999999
 21
604.4999999999997
 31
0.0
  0
LINE
  5
603
  8
OUTLINE
  6
CONTINUOUS
 10
399.9999999999999
 20
604.4999999999997
 30
0.0
 11
399.9999999999999
 21
624.4999999999998
 31
0.0
  0
LINE
  5
604
  8
OUTLINE
  6
CONTINUOUS
 10
399.9999999999999
 20
604.4999999999997
 30
0.0
 11
420.9999999999999
 21
604.4999999999997
 31
0.0
  0
LINE
  5
605
  8
OUTLINE
  6
CONTINUOUS
 10
269.9999999999999
 20
-0.4999999999999742
 30
0.0
 11
229.9999999999999
 21
-0.4999999999999742
 31
0.0
  0
LINE
  5
606
  8
OUTLINE
  6
CONTINUOUS
 10
-230.0000000000001
 20
-0.5000000000000311
 30
0.0
 11
-270.0
 21
-0.5000000000000311
 31
0.0
  0
LINE
  5
607
  8
DETAIL
  6
CONTINUOUS
 10
420.9999999999999
 20
605.0000000000003
 30
0.0
 11
399.9999999999999
 21
624.4999999999998
 31
0.0
  0
LINE
  5
608
  8
DETAIL
  6
CONTINUOUS
 10
-7.770000000000092
 20
11.5
 30
0.0
 11
-7.770000000000092
 21
-23.5
 31
0.0
  0
LINE
  5
609
  8
DETAIL
  6
CONTINUOUS
 10
7.712499999999906
 20
11.5
 30
0.0
 11
7.712499999999906
 21
-23.5
 31
0.0
  0
LINE
  5
60A
  8
DETAIL
  6
CONTINUOUS
 10
-399.9999999999999
 20
31.49999999999994
 30
0.0
 11
-469.9999999999999
 21
46.37499999999994
 31
0.0
  0
LINE
  5
60B
  8
DETAIL
  6
CONTINUOUS
 10
-469.9999999999999
 20
258.7916666666669
 30
0.0
 11
-469.9999999999999
 21
46.37499999999994
 31
0.0
  0
LINE
  5
60C
  8
DETAIL
  6
CONTINUOUS
 10
-400.0
 20
274.8333333333334
 30
0.0
 11
-469.9999999999999
 21
258.7916666666669
 31
0.0
  0
LINE
  5
60D
  8
DETAIL
  6
CONTINUOUS
 10
-408.4999999999999
 20
272.8854166666667
 30
0.0
 11
-408.4999999999999
 21
511.1064621532099
 31
0.0
  0
LINE
  5
60E
  8
DETAIL
  6
CONTINUOUS
 10
-408.4999999999999
 20
511.1064621532099
 30
0.0
 11
-399.9999999999999
 21
515.0700772475274
 31
0.0
  0
LINE
  5
60F
  8
DETAIL
  6
CONTINUOUS
 10
-400.0
 20
540.1969696969696
 30
0.0
 11
-423.4999999999999
 21
534.5
 31
0.0
  0
LINE
  5
610
  8
DETAIL
  6
CONTINUOUS
 10
-423.4999999999999
 20
534.5
 30
0.0
 11
-423.4999999999999
 21
549.5
 31
0.0
  0
LINE
  5
611
  8
DETAIL
  6
CONTINUOUS
 10
-400.0
 20
559.5
 30
0.0
 11
-423.4999999999999
 21
549.5
 31
0.0
  0
LINE
  5
612
  8
DETAIL
  6
CONTINUOUS
 10
400.0000000000001
 20
11.50000000000005
 30
0.0
 11
399.9999999999999
 21
604.4999999999997
 31
0.0
  0
LINE
  5
613
  8
DETAIL
  6
CONTINUOUS
 10
400.0000000000001
 20
11.50000000000005
 30
0.0
 11
-399.9999999999999
 21
11.49999999999994
 31
0.0
  0
LINE
  5
614
  8
DETAIL
  6
CONTINUOUS
 10
-395.0000000000001
 20
629.4999999999997
 30
0.0
 11
394.9999999999999
 21
629.4999999999997
 31
0.0
  0
LINE
  5
615
  8
DETAIL
  6
CONTINUOUS
 10
-399.9999999999999
 20
11.49999999999994
 30
0.0
 11
-400.0
 21
624.4999999999998
 31
0.0
  0
LINE
  5
616
  8
DETAIL
  6
CONTINUOUS
 10
269.9999999999999
 20
11.50000000000003
 30
0.0
 11
269.9999999999999
 21
-8.499999999999973
 31
0.0
  0
LINE
  5
617
  8
DETAIL
  6
CONTINUOUS
 10
-230.0000000000001
 20
11.49999999999997
 30
0.0
 11
-230.0000000000001
 21
-8.50000000000003
 31
0.0
  0
LINE
  5
618
  8
DETAIL
  6
CONTINUOUS
 10
230.0
 20
11.50000000000003
 30
0.0
 11
229.9999999999999
 21
-8.499999999999973
 31
0.0
  0
LINE
  5
619
  8
DETAIL
  6
CONTINUOUS
 10
-270.0
 20
11.49999999999997
 30
0.0
 11
-270.0
 21
-8.50000000000003
 31
0.0
  0
LINE
  5
61A
  8
DETAIL
  6
CONTINUOUS
 10
269.9999999999999
 20
-8.499999999999973
 30
0.0
 11
229.9999999999999
 21
-8.499999999999973
 31
0.0
  0
LINE
  5
61B
  8
DETAIL
  6
CONTINUOUS
 10
-230.0000000000001
 20
-8.50000000000003
 30
0.0
 11
-270.0
 21
-8.50000000000003
 31
0.0
  0
LINE
  5
61C
  8
DETAIL
  6
CONTINUOUS
 10
-400.0
 20
604.4999999999997
 30
0.0
 11
399.9999999999999
 21
604.4999999999997
 31
0.0
  0
ARC
  5
61D
  8
DETAIL
  6
CONTINUOUS
 10
394.9999999999999
 20
624.4999999999998
 30
0.0
 40
5.0
 50
0.0
 51
90.0
  0
ARC
  5
61E
  8
DETAIL
  6
CONTINUOUS
 10
-395.0000000000001
 20
624.4999999999998
 30
0.0
 40
5.0
 50
90.0
 51
180.0
  0
CIRCLE
  5
61F
  8
DETAIL
  6
DASHED
 10
-435.2
 20
198.5
 30
0.0
 40
10.85000000000002
  0
CIRCLE
  5
620
  8
DETAIL
  6
DASHED
 10
-435.2
 20
118.4999999999999
 30
0.0
 40
10.85000000000002
  0
LINE
  5
621
  8
DETAIL
  6
DASHED
 10
-435.2
 20
209.35
 30
0.0
 11
-399.9999999999999
 21
209.35
 31
0.0
  0
LINE
  5
622
  8
DETAIL
  6
DASHED
 10
-435.2
 20
129.35
 30
0.0
 11
-399.9999999999999
 21
129.35
 31
0.0
  0
LINE
  5
623
  8
DETAIL
  6
DASHED
 10
-435.2
 20
187.6499999999999
 30
0.0
 11
-399.9999999999999
 21
187.6499999999999
 31
0.0
  0
LINE
  5
624
  8
DETAIL
  6
DASHED
 10
-435.2
 20
107.6499999999999
 30
0.0
 11
-399.9999999999999
 21
107.6499999999999
 31
0.0
  0
LINE
  5
625
  8
DETAIL
  6
CONTINUOUS
 10
420.9999999999999
 20
604.4999999999997
 30
0.0
 11
420.9999999999999
 21
605.0000000000002
 31
0.0
  0
LINE
  5
626
  8
DETAIL
  6
CONTINUOUS
 10
-330.0000000000001
 20
11.49999999999994
 30
0.0
 11
-330.0000000000001
 21
604.4999999999997
 31
0.0
  0
LINE
  5
627
  8
DETAIL
  6
CONTINUOUS
 10
365.0000000000001
 20
11.50000000000005
 30
0.0
 11
364.9999999999999
 21
604.4999999999997
 31
0.0
  0
LINE
  5
628
  8
DETAIL
  6
CONTINUOUS
 10
399.9999999999999
 20
604.4999999999997
 30
0.0
 11
399.9999999999999
 21
624.4999999999998
 31
0.0
  0
LINE
  5
629
  8
DETAIL
  6
CONTINUOUS
 10
404.9999999999998
 20
604.4999999999997
 30
0.0
 11
420.9999999999999
 21
604.4999999999997
 31
0.0
  0
CIRCLE
  5
62A
  8
DETAIL
  6
CONTINUOUS
 10
-0.020868344702823
 20
-23.5
 30
0.0
 40
7.75
  0
LINE
  5
62B
  8
DETAIL
  6
CONTINUOUS
 10
269.9999999999999
 20
-0.4999999999999742
 30
0.0
 11
229.9999999999999
 21
-0.4999999999999742
 31
0.0
  0
LINE
  5
62C
  8
DETAIL
  6
CONTINUOUS
 10
-230.0000000000001
 20
-0.5000000000000311
 30
0.0
 11
-270.0
 21
-0.5000000000000311
 31
0.0
  0
LINE
  5
62D
  8
BASIS
  6
DASHDOT
 10
-0.030679718063758
 20
679.4999999999999
 30
0.0
 11
-0.030679718063758
 21
-58.50000000000001
 31
0.0
  0
LINE
  5
62E
  8
SIZE
  6
CONTINUOUS
 62
    30
 10
399.9999872372173
 20
614.4999781526053
 30
0.0
 11
399.9999872372173
 21
-368.5999913536584
 31
0.0
  0
LINE
  5
62F
  8
SIZE
  6
CONTINUOUS
 62
    30
 10
420.9999872372173
 20
594.4999781526053
 30
0.0
 11
420.9999872372172
 21
-368.5999913536584
 31
0.0
  0
LINE
  5
630
  8
SIZE
  6
CONTINUOUS
 62
    30
 10
389.9999872372173
 20
-356.0999913536584
 30
0.0
 11
379.9999872372172
 21
-356.0999913536584
 31
0.0
  0
LINE
  5
631
  8
SIZE
  6
CONTINUOUS
 62
    30
 10
430.9999872372172
 20
-356.0999913536584
 30
0.0
 11
599.3436761408651
 21
-356.0999913536584
 31
0.0
  0
LINE
  5
632
  8
SIZE
  6
CONTINUOUS
 62
    30
 10
399.9999872372173
 20
-356.0999913536584
 30
0.0
 11
420.9999872372172
 21
-356.0999913536584
 31
0.0
  0
CIRCLE
  5
633
  8
SIZE
  6
CONTINUOUS
 62
    30
 10
399.9999872372173
 20
-356.0999913536584
 30
0.0
 40
5.0
  0
LINE
  5
634
  8
SIZE
  6
CONTINUOUS
 62
    30
 10
399.9999872372173
 20
-356.0999913536584
 30
0.0
 11
389.9999872372173
 21
-356.0999913536584
 31
0.0
  0
CIRCLE
  5
635
  8
SIZE
  6
CONTINUOUS
 62
    30
 10
420.9999872372172
 20
-356.0999913536584
 30
0.0
 40
5.0
  0
LINE
  5
636
  8
SIZE
  6
CONTINUOUS
 62
    30
 10
420.9999872372172
 20
-356.0999913536584
 30
0.0
 11
430.9999872372172
 21
-356.0999913536584
 31
0.0
  0
TEXT
  5
637
  8
SIZE
  6
CONTINUOUS
 62
    30
 10
545.0579618551508
 20
-346.0999913536584
 30
0.0
 40
30.0
  1
21
 72
     1
 11
569.3436761408651
 21
-346.0999913536584
 31
0.0
  0
POINT
  5
638
  8
DEFPOINTS
  6
CONTINUOUS
 62
    30
 10
399.9999872372173
 20
624.4999781526053
 30
0.0
  0
POINT
  5
639
  8
DEFPOINTS
  6
CONTINUOUS
 62
    30
 10
420.9999872372173
 20
604.4999781526053
 30
0.0
  0
POINT
  5
63A
  8
DEFPOINTS
  6
CONTINUOUS
 62
    30
 10
420.9999872372172
 20
-356.0999913536584
 30
0.0
  0
LINE
  5
63B
  8
SIZE
  6
CONTINUOUS
 62
    30
 10
-400.0000127627827
 20
-18.49999999856709
 30
0.0
 11
-400.0000127627827
 21
-368.5999913536584
 31
0.0
  0
LINE
  5
63C
  8
SIZE
  6
CONTINUOUS
 62
    30
 10
-470.0000127627827
 20
36.3750010407889
 30
0.0
 11
-470.0000127627827
 21
-368.5999913536584
 31
0.0
  0
LINE
  5
63D
  8
SIZE
  6
CONTINUOUS
 62
    30
 10
-410.0000127627827
 20
-356.0999913536584
 30
0.0
 11
-460.0000127627827
 21
-356.0999913536584
 31
0.0
  0
CIRCLE
  5
63E
  8
SIZE
  6
CONTINUOUS
 62
    30
 10
-400.0000127627827
 20
-356.0999913536584
 30
0.0
 40
5.0
  0
LINE
  5
63F
  8
SIZE
  6
CONTINUOUS
 62
    30
 10
-400.0000127627827
 20
-356.0999913536584
 30
0.0
 11
-410.0000127627827
 21
-356.0999913536584
 31
0.0
  0
CIRCLE
  5
640
  8
SIZE
  6
CONTINUOUS
 62
    30
 10
-470.0000127627827
 20
-356.0999913536584
 30
0.0
 40
5.0
  0
LINE
  5
641
  8
SIZE
  6
CONTINUOUS
 62
    30
 10
-470.0000127627827
 20
-356.0999913536584
 30
0.0
 11
-460.0000127627827
 21
-356.0999913536584
 31
0.0
  0
TEXT
  5
642
  8
SIZE
  6
CONTINUOUS
 62
    30
 10
-463.5714413954072
 20
-346.0999913536584
 30
0.0
 40
30.0
  1
70
 72
     1
 11
-435.0000128239786
 21
-346.0999913536584
 31
0.0
  0
POINT
  5
643
  8
DEFPOINTS
  6
CONTINUOUS
 62
    30
 10
-400.0000127627827
 20
-8.499999998567093
 30
0.0
  0
POINT
  5
644
  8
DEFPOINTS
  6
CONTINUOUS
 62
    30
 10
-470.0000127627827
 20
46.3750010407889
 30
0.0
  0
POINT
  5
645
  8
DEFPOINTS
  6
CONTINUOUS
 62
    30
 10
-470.0000127627827
 20
-356.0999913536584
 30
0.0
  0
LINE
  5
646
  8
SIZE
  6
CONTINUOUS
 62
    30
 10
-270.0000127627827
 20
-18.49999895921109
 30
0.0
 11
-270.0000127627827
 21
-168.5999912679841
 31
0.0
  0
LINE
  5
647
  8
SIZE
  6
CONTINUOUS
 62
    30
 10
-229.9999975039936
 20
-18.49999895921109
 30
0.0
 11
-229.9999975039936
 21
-168.5999912679841
 31
0.0
  0
LINE
  5
648
  8
SIZE
  6
CONTINUOUS
 62
    30
 10
-260.0000127627827
 20
-156.0999912679841
 30
0.0
 11
-239.9999975039936
 21
-156.0999912679841
 31
0.0
  0
LINE
  5
649
  8
SIZE
  6
CONTINUOUS
 62
    30
 10
-229.9999975039936
 20
-156.0999912679841
 30
0.0
 11
-154.9999975039936
 21
-156.0999912679841
 31
0.0
  0
CIRCLE
  5
64A
  8
SIZE
  6
CONTINUOUS
 62
    30
 10
-270.0000127627827
 20
-156.0999912679841
 30
0.0
 40
5.0
  0
LINE
  5
64B
  8
SIZE
  6
CONTINUOUS
 62
    30
 10
-270.0000127627827
 20
-156.0999912679841
 30
0.0
 11
-260.0000127627827
 21
-156.0999912679841
 31
0.0
  0
CIRCLE
  5
64C
  8
SIZE
  6
CONTINUOUS
 62
    30
 10
-229.9999975039936
 20
-156.0999912679841
 30
0.0
 40
5.0
  0
LINE
  5
64D
  8
SIZE
  6
CONTINUOUS
 62
    30
 10
-229.9999975039936
 20
-156.0999912679841
 30
0.0
 11
-239.9999975039936
 21
-156.0999912679841
 31
0.0
  0
TEXT
  5
64E
  8
SIZE
  6
CONTINUOUS
 62
    30
 10
-216.0714260754222
 20
-146.0999912679841
 30
0.0
 40
30.0
  1
40
 72
     1
 11
-187.4999975039937
 21
-146.0999912679841
 31
0.0
  0
POINT
  5
64F
  8
DEFPOINTS
  6
CONTINUOUS
 62
    30
 10
-270.0000127627827
 20
-8.4999989592111
 30
0.0
  0
POINT
  5
650
  8
DEFPOINTS
  6
CONTINUOUS
 62
    30
 10
-229.9999975039936
 20
-8.4999989592111
 30
0.0
  0
POINT
  5
651
  8
DEFPOINTS
  6
CONTINUOUS
 62
    30
 10
-229.9999975039936
 20
-156.0999912679841
 30
0.0
  0
LINE
  5
652
  8
SIZE
  6
CONTINUOUS
 62
    30
 10
250.0000024960063
 20
-38.4999989592111
 30
0.0
 11
250.0000024960063
 21
-268.5999913536584
 31
0.0
  0
LINE
  5
653
  8
SIZE
  6
CONTINUOUS
 62
    30
 10
-249.9999975039936
 20
-38.4999989592111
 30
0.0
 11
-249.9999975039937
 21
-268.5999913536584
 31
0.0
  0
LINE
  5
654
  8
SIZE
  6
CONTINUOUS
 62
    30
 10
240.0000024960063
 20
-256.0999913536585
 30
0.0
 11
-239.9999975039936
 21
-256.0999913536585
 31
0.0
  0
CIRCLE
  5
655
  8
SIZE
  6
CONTINUOUS
 62
    30
 10
250.0000024960063
 20
-256.0999913536585
 30
0.0
 40
5.0
  0
LINE
  5
656
  8
SIZE
  6
CONTINUOUS
 62
    30
 10
250.0000024960063
 20
-256.0999913536585
 30
0.0
 11
240.0000024960063
 21
-256.0999913536585
 31
0.0
  0
CIRCLE
  5
657
  8
SIZE
  6
CONTINUOUS
 62
    30
 10
-249.9999975039936
 20
-256.0999913536585
 30
0.0
 40
5.0
  0
LINE
  5
658
  8
SIZE
  6
CONTINUOUS
 62
    30
 10
-249.9999975039936
 20
-256.0999913536585
 30
0.0
 11
-239.9999975039936
 21
-256.0999913536585
 31
0.0
  0
TEXT
  5
659
  8
SIZE
  6
CONTINUOUS
 62
    30
 10
-42.85714296204911
 20
-246.0999913536585
 30
0.0
 40
30.0
  1
500
 72
     1
 11
-0.0000001049062482
 21
-246.0999913536585
 31
0.0
  0
POINT
  5
65A
  8
DEFPOINTS
  6
CONTINUOUS
 62
    30
 10
250.0000024960063
 20
-28.4999989592111
 30
0.0
  0
POINT
  5
65B
  8
DEFPOINTS
  6
CONTINUOUS
 62
    30
 10
-249.9999975039936
 20
-28.4999989592111
 30
0.0
  0
POINT
  5
65C
  8
DEFPOINTS
  6
CONTINUOUS
 62
    30
 10
-249.9999975039936
 20
-256.0999913536585
 30
0.0
  0
LINE
  5
65D
  8
SIZE
  6
CONTINUOUS
 62
    30
 10
399.9999872372173
 20
1.5000010407889
 30
0.0
 11
399.9999872372173
 21
-268.6000066124474
 31
0.0
  0
LINE
  5
65E
  8
SIZE
  6
CONTINUOUS
 62
    30
 10
250.0000024960063
 20
-38.4999989592111
 30
0.0
 11
250.0000024960063
 21
-268.6000066124474
 31
0.0
  0
LINE
  5
65F
  8
SIZE
  6
CONTINUOUS
 62
    30
 10
389.9999872372173
 20
-256.1000066124474
 30
0.0
 11
260.0000024960063
 21
-256.1000066124474
 31
0.0
  0
CIRCLE
  5
660
  8
SIZE
  6
CONTINUOUS
 62
    30
 10
399.9999872372173
 20
-256.1000066124474
 30
0.0
 40
5.0
  0
LINE
  5
661
  8
SIZE
  6
CONTINUOUS
 62
    30
 10
399.9999872372173
 20
-256.1000066124474
 30
0.0
 11
389.9999872372173
 21
-256.1000066124474
 31
0.0
  0
CIRCLE
  5
662
  8
SIZE
  6
CONTINUOUS
 62
    30
 10
250.0000024960063
 20
-256.1000066124474
 30
0.0
 40
5.0
  0
LINE
  5
663
  8
SIZE
  6
CONTINUOUS
 62
    30
 10
250.0000024960063
 20
-256.1000066124474
 30
0.0
 11
260.0000024960063
 21
-256.1000066124474
 31
0.0
  0
TEXT
  5
664
  8
SIZE
  6
CONTINUOUS
 62
    30
 10
279.9999871760214
 20
-246.1000066124474
 30
0.0
 40
30.0
  1
150
 72
     1
 11
324.9999871760214
 21
-246.1000066124474
 31
0.0
  0
POINT
  5
665
  8
DEFPOINTS
  6
CONTINUOUS
 62
    30
 10
399.9999872372173
 20
11.5000010407889
 30
0.0
  0
POINT
  5
666
  8
DEFPOINTS
  6
CONTINUOUS
 62
    30
 10
250.0000024960063
 20
-28.4999989592111
 30
0.0
  0
POINT
  5
667
  8
DEFPOINTS
  6
CONTINUOUS
 62
    30
 10
250.0000024960063
 20
-256.1000066124474
 30
0.0
  0
LINE
  5
668
  8
SIZE
  6
CONTINUOUS
 62
    30
 10
-280.0000127627827
 20
-8.499999998567091
 30
0.0
 11
-1014.900012738941
 21
-8.499999998566881
 31
0.0
  0
LINE
  5
669
  8
SIZE
  6
CONTINUOUS
 62
    30
 10
-410.0000127627827
 20
629.4999781526053
 30
0.0
 11
-1014.900012738941
 21
629.4999781526054
 31
0.0
  0
LINE
  5
66A
  8
SIZE
  6
CONTINUOUS
 62
    30
 10
-1002.400012738941
 20
1.500000001433113
 30
0.0
 11
-1002.400012738941
 21
619.4999781526053
 31
0.0
  0
CIRCLE
  5
66B
  8
SIZE
  6
CONTINUOUS
 62
    30
 10
-1002.400012738941
 20
-8.499999998566885
 30
0.0
 40
5.0
  0
LINE
  5
66C
  8
SIZE
  6
CONTINUOUS
 62
    30
 10
-1002.400012738941
 20
-8.499999998566885
 30
0.0
 11
-1002.400012738941
 21
1.500000001433115
 31
0.0
  0
CIRCLE
  5
66D
  8
SIZE
  6
CONTINUOUS
 62
    30
 10
-1002.400012738941
 20
629.4999781526054
 30
0.0
 40
5.0
  0
LINE
  5
66E
  8
SIZE
  6
CONTINUOUS
 62
    30
 10
-1002.400012738941
 20
629.4999781526054
 30
0.0
 11
-1002.400012738941
 21
619.4999781526054
 31
0.0
  0
TEXT
  5
66F
  8
SIZE
  6
CONTINUOUS
 62
    30
 10
-1012.400012738941
 20
266.9285799763629
 30
0.0
 40
30.0
  1
638
 50
90.0
 72
     1
 11
-1012.400012738941
 21
310.5000085477915
 31
0.0
  0
POINT
  5
670
  8
DEFPOINTS
  6
CONTINUOUS
 62
    30
 10
-270.0000127627827
 20
-8.499999998567093
 30
0.0
  0
POINT
  5
671
  8
DEFPOINTS
  6
CONTINUOUS
 62
    30
 10
-400.0000127627827
 20
629.4999781526053
 30
0.0
  0
POINT
  5
672
  8
DEFPOINTS
  6
CONTINUOUS
 62
    30
 10
-1002.400012738941
 20
629.4999781526054
 30
0.0
  0
LINE
  5
673
  8
SIZE
  6
CONTINUOUS
 62
    30
 10
-400.0000127627827
 20
-18.49999999856709
 30
0.0
 11
-400.0000127627827
 21
-268.5999913536584
 31
0.0
  0
LINE
  5
674
  8
SIZE
  6
CONTINUOUS
 62
    30
 10
-249.9999975039936
 20
-38.50000086655973
 30
0.0
 11
-249.9999975039937
 21
-268.5999913536584
 31
0.0
  0
LINE
  5
675
  8
SIZE
  6
CONTINUOUS
 62
    30
 10
-390.0000127627827
 20
-256.0999913536585
 30
0.0
 11
-259.9999975039936
 21
-256.0999913536585
 31
0.0
  0
CIRCLE
  5
676
  8
SIZE
  6
CONTINUOUS
 62
    30
 10
-400.0000127627827
 20
-256.0999913536585
 30
0.0
 40
5.0
  0
LINE
  5
677
  8
SIZE
  6
CONTINUOUS
 62
    30
 10
-400.0000127627827
 20
-256.0999913536585
 30
0.0
 11
-390.0000127627827
 21
-256.0999913536585
 31
0.0
  0
CIRCLE
  5
678
  8
SIZE
  6
CONTINUOUS
 62
    30
 10
-249.9999975039936
 20
-256.0999913536585
 30
0.0
 40
5.0
  0
LINE
  5
679
  8
SIZE
  6
CONTINUOUS
 62
    30
 10
-249.9999975039936
 20
-256.0999913536585
 30
0.0
 11
-259.9999975039937
 21
-256.0999913536585
 31
0.0
  0
TEXT
  5
67A
  8
SIZE
  6
CONTINUOUS
 62
    30
 10
-370.0000128239786
 20
-246.0999913536585
 30
0.0
 40
30.0
  1
150
 72
     1
 11
-325.0000128239786
 21
-246.0999913536585
 31
0.0
  0
POINT
  5
67B
  8
DEFPOINTS
  6
CONTINUOUS
 62
    30
 10
-400.0000127627827
 20
-8.499999998567093
 30
0.0
  0
POINT
  5
67C
  8
DEFPOINTS
  6
CONTINUOUS
 62
    30
 10
-249.9999975039936
 20
-28.50000086655973
 30
0.0
  0
POINT
  5
67D
  8
DEFPOINTS
  6
CONTINUOUS
 62
    30
 10
-249.9999975039936
 20
-256.0999913536585
 30
0.0
  0
LINE
  5
67E
  8
SIZE
  6
CONTINUOUS
 62
    30
 10
-400.0000127627827
 20
-18.49999999856709
 30
0.0
 11
-400.0000127627827
 21
-368.5999913536584
 31
0.0
  0
LINE
  5
67F
  8
SIZE
  6
CONTINUOUS
 62
    30
 10
399.9999872372173
 20
1.499999133440266
 30
0.0
 11
399.9999872372173
 21
-368.5999913536584
 31
0.0
  0
LINE
  5
680
  8
SIZE
  6
CONTINUOUS
 62
    30
 10
-390.0000127627827
 20
-356.0999913536584
 30
0.0
 11
389.9999872372173
 21
-356.0999913536584
 31
0.0
  0
CIRCLE
  5
681
  8
SIZE
  6
CONTINUOUS
 62
    30
 10
-400.0000127627827
 20
-356.0999913536584
 30
0.0
 40
5.0
  0
LINE
  5
682
  8
SIZE
  6
CONTINUOUS
 62
    30
 10
-400.0000127627827
 20
-356.0999913536584
 30
0.0
 11
-390.0000127627827
 21
-356.0999913536584
 31
0.0
  0
CIRCLE
  5
683
  8
SIZE
  6
CONTINUOUS
 62
    30
 10
399.9999872372173
 20
-356.0999913536584
 30
0.0
 40
5.0
  0
LINE
  5
684
  8
SIZE
  6
CONTINUOUS
 62
    30
 10
399.9999872372173
 20
-356.0999913536584
 30
0.0
 11
389.9999872372173
 21
-356.0999913536584
 31
0.0
  0
TEXT
  5
685
  8
SIZE
  6
CONTINUOUS
 62
    30
 10
-42.85714296204911
 20
-346.0999913536584
 30
0.0
 40
30.0
  1
800
 72
     1
 11
-0.0000001049062482
 21
-346.0999913536584
 31
0.0
  0
POINT
  5
686
  8
DEFPOINTS
  6
CONTINUOUS
 62
    30
 10
-400.0000127627827
 20
-8.499999998567093
 30
0.0
  0
POINT
  5
687
  8
DEFPOINTS
  6
CONTINUOUS
 62
    30
 10
399.9999872372173
 20
11.49999913344027
 30
0.0
  0
POINT
  5
688
  8
DEFPOINTS
  6
CONTINUOUS
 62
    30
 10
399.9999872372173
 20
-356.0999913536584
 30
0.0
  0
LINE
  5
689
  8
SIZE
  6
CONTINUOUS
 62
    30
 10
-710.0000127627826
 20
-8.499999998567091
 30
0.0
 11
-1164.900012738941
 21
-8.499999998566961
 31
0.0
  0
LINE
  5
68A
  8
SIZE
  6
CONTINUOUS
 62
    30
 10
-710.0000127627826
 20
729.4999781526052
 30
0.0
 11
-1164.90001273894
 21
729.4999781526053
 31
0.0
  0
LINE
  5
68B
  8
SIZE
  6
CONTINUOUS
 62
    30
 10
-1152.400012738941
 20
1.500000001433035
 30
0.0
 11
-1152.400012738941
 21
719.4999781526053
 31
0.0
  0
CIRCLE
  5
68C
  8
SIZE
  6
CONTINUOUS
 62
    30
 10
-1152.400012738941
 20
-8.499999998566965
 30
0.0
 40
5.0
  0
LINE
  5
68D
  8
SIZE
  6
CONTINUOUS
 62
    30
 10
-1152.400012738941
 20
-8.499999998566965
 30
0.0
 11
-1152.400012738941
 21
1.500000001433035
 31
0.0
  0
CIRCLE
  5
68E
  8
SIZE
  6
CONTINUOUS
 62
    30
 10
-1152.400012738941
 20
729.4999781526053
 30
0.0
 40
5.0
  0
LINE
  5
68F
  8
SIZE
  6
CONTINUOUS
 62
    30
 10
-1152.400012738941
 20
729.4999781526053
 30
0.0
 11
-1152.400012738941
 21
719.4999781526053
 31
0.0
  0
TEXT
  5
690
  8
SIZE
  6
CONTINUOUS
 62
    30
 10
-1162.400012738941
 20
317.6428656906486
 30
0.0
 40
30.0
  1
738
 50
90.0
 72
     1
 11
-1162.400012738941
 21
360.5000085477915
 31
0.0
  0
POINT
  5
691
  8
DEFPOINTS
  6
CONTINUOUS
 62
    30
 10
-700.0000127627825
 20
-8.499999998567093
 30
0.0
  0
POINT
  5
692
  8
DEFPOINTS
  6
CONTINUOUS
 62
    30
 10
-700.0000127627825
 20
729.4999781526052
 30
0.0
  0
POINT
  5
693
  8
DEFPOINTS
  6
CONTINUOUS
 62
    30
 10
-1152.400012738941
 20
729.4999781526053
 30
0.0
  0
LINE
  5
694
  8
SIZE
  6
CONTINUOUS
 62
    30
 10
551.8591180965923
 20
-8.499999998567096
 30
0.0
 11
710.099987261059
 21
-8.49999999856714
 31
0.0
  0
LINE
  5
695
  8
SIZE
  6
CONTINUOUS
 62
    30
 10
559.9999872372173
 20
729.4999781526052
 30
0.0
 11
710.0999872610591
 21
729.4999781526052
 31
0.0
  0
LINE
  5
696
  8
SIZE
  6
CONTINUOUS
 62
    30
 10
697.599987261059
 20
1.500000001432863
 30
0.0
 11
697.5999872610591
 21
719.4999781526052
 31
0.0
  0
CIRCLE
  5
697
  8
SIZE
  6
CONTINUOUS
 62
    30
 10
697.599987261059
 20
-8.499999998567137
 30
0.0
 40
5.0
  0
LINE
  5
698
  8
SIZE
  6
CONTINUOUS
 62
    30
 10
697.599987261059
 20
-8.499999998567137
 30
0.0
 11
697.599987261059
 21
1.500000001432863
 31
0.0
  0
CIRCLE
  5
699
  8
SIZE
  6
CONTINUOUS
 62
    30
 10
697.5999872610591
 20
729.4999781526052
 30
0.0
 40
5.0
  0
LINE
  5
69A
  8
SIZE
  6
CONTINUOUS
 62
    30
 10
697.5999872610591
 20
729.4999781526052
 30
0.0
 11
697.5999872610591
 21
719.4999781526052
 31
0.0
  0
TEXT
  5
69B
  8
SIZE
  6
CONTINUOUS
 62
    30
 10
687.599987261059
 20
317.6428656906486
 30
0.0
 40
30.0
  1
738
 50
90.0
 72
     1
 11
687.599987261059
 21
360.5000085477915
 31
0.0
  0
POINT
  5
69C
  8
DEFPOINTS
  6
CONTINUOUS
 62
    30
 10
541.8591180965924
 20
-8.499999998567093
 30
0.0
  0
POINT
  5
69D
  8
DEFPOINTS
  6
CONTINUOUS
 62
    30
 10
549.9999872372173
 20
729.4999781526052
 30
0.0
  0
POINT
  5
69E
  8
DEFPOINTS
  6
CONTINUOUS
 62
    30
 10
697.5999872610591
 20
729.4999781526052
 30
0.0
  0
LINE
  5
69F
  8
SIZE
  6
CONTINUOUS
 62
    30
 10
399.9999872372173
 20
739.4999781526052
 30
0.0
 11
399.9999872372173
 21
894.3999781287635
 31
0.0
  0
LINE
  5
6A0
  8
SIZE
  6
CONTINUOUS
 62
    30
 10
549.9999872372173
 20
739.4999781526052
 30
0.0
 11
549.9999872372173
 21
894.3999781287635
 31
0.0
  0
LINE
  5
6A1
  8
SIZE
  6
CONTINUOUS
 62
    30
 10
409.9999872372173
 20
881.8999781287635
 30
0.0
 11
539.9999872372173
 21
881.8999781287635
 31
0.0
  0
CIRCLE
  5
6A2
  8
SIZE
  6
CONTINUOUS
 62
    30
 10
399.9999872372173
 20
881.8999781287635
 30
0.0
 40
5.0
  0
LINE
  5
6A3
  8
SIZE
  6
CONTINUOUS
 62
    30
 10
399.9999872372173
 20
881.8999781287635
 30
0.0
 11
409.9999872372173
 21
881.8999781287635
 31
0.0
  0
CIRCLE
  5
6A4
  8
SIZE
  6
CONTINUOUS
 62
    30
 10
549.9999872372173
 20
881.8999781287635
 30
0.0
 40
5.0
  0
LINE
  5
6A5
  8
SIZE
  6
CONTINUOUS
 62
    30
 10
549.9999872372173
 20
881.8999781287635
 30
0.0
 11
539.9999872372173
 21
881.8999781287635
 31
0.0
  0
TEXT
  5
6A6
  8
SIZE
  6
CONTINUOUS
 62
    30
 10
429.9999871760214
 20
891.8999781287635
 30
0.0
 40
30.0
  1
150
 72
     1
 11
474.9999871760214
 21
891.8999781287635
 31
0.0
  0
POINT
  5
6A7
  8
DEFPOINTS
  6
CONTINUOUS
 62
    30
 10
399.9999872372173
 20
729.4999781526052
 30
0.0
  0
POINT
  5
6A8
  8
DEFPOINTS
  6
CONTINUOUS
 62
    30
 10
549.9999872372173
 20
729.4999781526052
 30
0.0
  0
POINT
  5
6A9
  8
DEFPOINTS
  6
CONTINUOUS
 62
    30
 10
549.9999872372173
 20
881.8999781287635
 30
0.0
  0
LINE
  5
6AA
  8
SIZE
  6
CONTINUOUS
 62
    30
 10
-400.0000127627827
 20
639.4999781526053
 30
0.0
 11
-400.0000127627827
 21
894.3999781287635
 31
0.0
  0
LINE
  5
6AB
  8
SIZE
  6
CONTINUOUS
 62
    30
 10
399.9999872372173
 20
739.4999781526052
 30
0.0
 11
399.9999872372173
 21
894.3999781287635
 31
0.0
  0
LINE
  5
6AC
  8
SIZE
  6
CONTINUOUS
 62
    30
 10
-390.0000127627827
 20
881.8999781287635
 30
0.0
 11
389.9999872372173
 21
881.8999781287635
 31
0.0
  0
CIRCLE
  5
6AD
  8
SIZE
  6
CONTINUOUS
 62
    30
 10
-400.0000127627827
 20
881.8999781287635
 30
0.0
 40
5.0
  0
LINE
  5
6AE
  8
SIZE
  6
CONTINUOUS
 62
    30
 10
-400.0000127627827
 20
881.8999781287635
 30
0.0
 11
-390.0000127627827
 21
881.8999781287635
 31
0.0
  0
CIRCLE
  5
6AF
  8
SIZE
  6
CONTINUOUS
 62
    30
 10
399.9999872372173
 20
881.8999781287635
 30
0.0
 40
5.0
  0
LINE
  5
6B0
  8
SIZE
  6
CONTINUOUS
 62
    30
 10
399.9999872372173
 20
881.8999781287635
 30
0.0
 11
389.9999872372173
 21
881.8999781287635
 31
0.0
  0
TEXT
  5
6B1
  8
SIZE
  6
CONTINUOUS
 62
    30
 10
-42.85714296204911
 20
891.8999781287635
 30
0.0
 40
30.0
  1
800
 72
     1
 11
-0.0000001049062482
 21
891.8999781287635
 31
0.0
  0
POINT
  5
6B2
  8
DEFPOINTS
  6
CONTINUOUS
 62
    30
 10
-400.0000127627827
 20
629.4999781526053
 30
0.0
  0
POINT
  5
6B3
  8
DEFPOINTS
  6
CONTINUOUS
 62
    30
 10
399.9999872372173
 20
729.4999781526052
 30
0.0
  0
POINT
  5
6B4
  8
DEFPOINTS
  6
CONTINUOUS
 62
    30
 10
399.9999872372173
 20
881.8999781287635
 30
0.0
  0
LINE
  5
6B5
  8
SIZE
  6
CONTINUOUS
 62
    30
 10
-700.0000127627825
 20
739.4999781526052
 30
0.0
 11
-700.0000127627825
 21
894.3999781287635
 31
0.0
  0
LINE
  5
6B6
  8
SIZE
  6
CONTINUOUS
 62
    30
 10
-400.0000127627827
 20
739.4999781526052
 30
0.0
 11
-400.0000127627827
 21
894.3999781287635
 31
0.0
  0
LINE
  5
6B7
  8
SIZE
  6
CONTINUOUS
 62
    30
 10
-690.0000127627825
 20
881.8999781287635
 30
0.0
 11
-410.0000127627827
 21
881.8999781287635
 31
0.0
  0
CIRCLE
  5
6B8
  8
SIZE
  6
CONTINUOUS
 62
    30
 10
-700.0000127627825
 20
881.8999781287635
 30
0.0
 40
5.0
  0
LINE
  5
6B9
  8
SIZE
  6
CONTINUOUS
 62
    30
 10
-700.0000127627825
 20
881.8999781287635
 30
0.0
 11
-690.0000127627825
 21
881.8999781287635
 31
0.0
  0
CIRCLE
  5
6BA
  8
SIZE
  6
CONTINUOUS
 62
    30
 10
-400.0000127627827
 20
881.8999781287635
 30
0.0
 40
5.0
  0
LINE
  5
6BB
  8
SIZE
  6
CONTINUOUS
 62
    30
 10
-400.0000127627827
 20
881.8999781287635
 30
0.0
 11
-410.0000127627827
 21
881.8999781287635
 31
0.0
  0
TEXT
  5
6BC
  8
SIZE
  6
CONTINUOUS
 62
    30
 10
-592.8571556811215
 20
891.8999781287635
 30
0.0
 40
30.0
  1
300
 72
     1
 11
-550.0000128239786
 21
891.8999781287635
 31
0.0
  0
POINT
  5
6BD
  8
DEFPOINTS
  6
CONTINUOUS
 62
    30
 10
-700.0000127627825
 20
729.4999781526052
 30
0.0
  0
POINT
  5
6BE
  8
DEFPOINTS
  6
CONTINUOUS
 62
    30
 10
-400.0000127627827
 20
729.4999781526052
 30
0.0
  0
POINT
  5
6BF
  8
DEFPOINTS
  6
CONTINUOUS
 62
    30
 10
-400.0000127627827
 20
881.8999781287635
 30
0.0
  0
LINE
  5
6C0
  8
SIZE
  6
CONTINUOUS
 62
    30
 10
-400.0000127627827
 20
1.499999133440266
 30
0.0
 11
-400.0000127627827
 21
-168.5999913536583
 31
0.0
  0
LINE
  5
6C1
  8
SIZE
  6
CONTINUOUS
 62
    30
 10
-435.1999944522358
 20
168.4999934113944
 30
0.0
 11
-435.1999944522358
 21
-168.5999913536585
 31
0.0
  0
LINE
  5
6C2
  8
SIZE
  6
CONTINUOUS
 62
    30
 10
-445.1999944522358
 20
-156.0999913536583
 30
0.0
 11
-455.1999944522358
 21
-156.0999913536583
 31
0.0
  0
LINE
  5
6C3
  8
SIZE
  6
CONTINUOUS
 62
    30
 10
-390.0000127627827
 20
-156.0999913536583
 30
0.0
 11
-310.0000127627827
 21
-156.0999913536583
 31
0.0
  0
LINE
  5
6C4
  8
SIZE
  6
CONTINUOUS
 62
    30
 10
-435.1999944522358
 20
-156.0999913536583
 30
0.0
 11
-400.0000127627827
 21
-156.0999913536583
 31
0.0
  0
CIRCLE
  5
6C5
  8
SIZE
  6
CONTINUOUS
 62
    30
 10
-435.1999944522358
 20
-156.0999913536583
 30
0.0
 40
5.0
  0
LINE
  5
6C6
  8
SIZE
  6
CONTINUOUS
 62
    30
 10
-435.1999944522358
 20
-156.0999913536583
 30
0.0
 11
-445.1999944522358
 21
-156.0999913536583
 31
0.0
  0
CIRCLE
  5
6C7
  8
SIZE
  6
CONTINUOUS
 62
    30
 10
-400.0000127627827
 20
-156.0999913536583
 30
0.0
 40
5.0
  0
LINE
  5
6C8
  8
SIZE
  6
CONTINUOUS
 62
    30
 10
-400.0000127627827
 20
-156.0999913536583
 30
0.0
 11
-390.0000127627827
 21
-156.0999913536583
 31
0.0
  0
TEXT
  5
6C9
  8
SIZE
  6
CONTINUOUS
 62
    30
 10
-373.5714413342113
 20
-146.0999913536583
 30
0.0
 40
30.0
  1
35
 72
     1
 11
-345.0000127627827
 21
-146.0999913536583
 31
0.0
  0
POINT
  5
6CA
  8
DEFPOINTS
  6
CONTINUOUS
 62
    30
 10
-400.0000127627827
 20
11.49999913344027
 30
0.0
  0
POINT
  5
6CB
  8
DEFPOINTS
  6
CONTINUOUS
 62
    30
 10
-435.1999944522358
 20
178.4999934113944
 30
0.0
  0
POINT
  5
6CC
  8
DEFPOINTS
  6
CONTINUOUS
 62
    30
 10
-435.1999944522358
 20
-156.0999913536583
 30
0.0
  0
LINE
  5
6CD
  8
SIZE
  6
CONTINUOUS
 62
    30
 10
-410.0000127627827
 20
-8.499999998567091
 30
0.0
 11
-914.900012738941
 21
-8.499999998566947
 31
0.0
  0
LINE
  5
6CE
  8
SIZE
  6
CONTINUOUS
 62
    30
 10
-465.1999944522358
 20
198.4999934113944
 30
0.0
 11
-914.900012738941
 21
198.4999934113945
 31
0.0
  0
LINE
  5
6CF
  8
SIZE
  6
CONTINUOUS
 62
    30
 10
-902.400012738941
 20
1.500000001433049
 30
0.0
 11
-902.400012738941
 21
188.4999934113945
 31
0.0
  0
CIRCLE
  5
6D0
  8
SIZE
  6
CONTINUOUS
 62
    30
 10
-902.400012738941
 20
-8.49999999856695
 30
0.0
 40
5.0
  0
LINE
  5
6D1
  8
SIZE
  6
CONTINUOUS
 62
    30
 10
-902.400012738941
 20
-8.49999999856695
 30
0.0
 11
-902.400012738941
 21
1.500000001433049
 31
0.0
  0
CIRCLE
  5
6D2
  8
SIZE
  6
CONTINUOUS
 62
    30
 10
-902.400012738941
 20
198.4999934113945
 30
0.0
 40
5.0
  0
LINE
  5
6D3
  8
SIZE
  6
CONTINUOUS
 62
    30
 10
-902.400012738941
 20
198.4999934113945
 30
0.0
 11
-902.400012738941
 21
188.4999934113945
 31
0.0
  0
TEXT
  5
6D4
  8
SIZE
  6
CONTINUOUS
 62
    30
 10
-912.400012738941
 20
52.1428580612541
 30
0.0
 40
30.0
  1
207
 50
90.0
 72
     1
 11
-912.400012738941
 21
95.00000091839696
 31
0.0
  0
POINT
  5
6D5
  8
DEFPOINTS
  6
CONTINUOUS
 62
    30
 10
-400.0000127627827
 20
-8.499999998567093
 30
0.0
  0
POINT
  5
6D6
  8
DEFPOINTS
  6
CONTINUOUS
 62
    30
 10
-455.1999944522358
 20
198.4999934113944
 30
0.0
  0
POINT
  5
6D7
  8
DEFPOINTS
  6
CONTINUOUS
 62
    30
 10
-902.400012738941
 20
198.4999934113945
 30
0.0
  0
LINE
  5
6D8
  8
SIZE
  6
CONTINUOUS
 62
    30
 10
-410.0000127627827
 20
-8.499999998567091
 30
0.0
 11
-814.900012738941
 21
-8.499999998566976
 31
0.0
  0
LINE
  5
6D9
  8
SIZE
  6
CONTINUOUS
 62
    30
 10
-465.1999944522358
 20
118.5000010407889
 30
0.0
 11
-814.900012738941
 21
118.500001040789
 31
0.0
  0
LINE
  5
6DA
  8
SIZE
  6
CONTINUOUS
 62
    30
 10
-802.400012738941
 20
1.500000001433021
 30
0.0
 11
-802.400012738941
 21
108.500001040789
 31
0.0
  0
CIRCLE
  5
6DB
  8
SIZE
  6
CONTINUOUS
 62
    30
 10
-802.400012738941
 20
-8.49999999856698
 30
0.0
 40
5.0
  0
LINE
  5
6DC
  8
SIZE
  6
CONTINUOUS
 62
    30
 10
-802.400012738941
 20
-8.49999999856698
 30
0.0
 11
-802.400012738941
 21
1.500000001433021
 31
0.0
  0
CIRCLE
  5
6DD
  8
SIZE
  6
CONTINUOUS
 62
    30
 10
-802.400012738941
 20
118.500001040789
 30
0.0
 40
5.0
  0
LINE
  5
6DE
  8
SIZE
  6
CONTINUOUS
 62
    30
 10
-802.400012738941
 20
118.500001040789
 30
0.0
 11
-802.400012738941
 21
108.500001040789
 31
0.0
  0
TEXT
  5
6DF
  8
SIZE
  6
CONTINUOUS
 62
    30
 10
-812.400012738941
 20
9.999997103699748
 30
0.0
 40
30.0
  1
127
 50
90.0
 72
     1
 11
-812.400012738941
 21
54.99999710369975
 31
0.0
  0
POINT
  5
6E0
  8
DEFPOINTS
  6
CONTINUOUS
 62
    30
 10
-400.0000127627827
 20
-8.499999998567093
 30
0.0
  0
POINT
  5
6E1
  8
DEFPOINTS
  6
CONTINUOUS
 62
    30
 10
-455.1999944522358
 20
118.5000010407889
 30
0.0
  0
POINT
  5
6E2
  8
DEFPOINTS
  6
CONTINUOUS
 62
    30
 10
-802.400012738941
 20
118.500001040789
 30
0.0
  0
LINE
  5
6E3
  8
SIZE
  6
CONTINUOUS
 62
    30
 10
551.8591180965923
 20
-8.499999998567096
 30
0.0
 11
710.0999870897106
 21
-8.49999999856714
 31
0.0
  0
LINE
  5
6E4
  8
SIZE
  6
CONTINUOUS
 62
    30
 10
30.00000058865772
 20
-23.49999991288541
 30
0.0
 11
710.0999870897106
 21
-23.49999991288561
 31
0.0
  0
LINE
  5
6E5
  8
SIZE
  6
CONTINUOUS
 62
    30
 10
697.5999870897106
 20
1.500000001432863
 30
0.0
 11
697.5999870897106
 21
11.50000000143286
 31
0.0
  0
LINE
  5
6E6
  8
SIZE
  6
CONTINUOUS
 62
    30
 10
697.5999870897106
 20
-33.49999991288561
 30
0.0
 11
697.5999870897106
 21
-133.5222760791694
 31
0.0
  0
LINE
  5
6E7
  8
SIZE
  6
CONTINUOUS
 62
    30
 10
697.5999870897106
 20
-8.499999998567137
 30
0.0
 11
697.5999870897106
 21
-23.4999999128856
 31
0.0
  0
CIRCLE
  5
6E8
  8
SIZE
  6
CONTINUOUS
 62
    30
 10
697.5999870897106
 20
-8.499999998567137
 30
0.0
 40
5.0
  0
LINE
  5
6E9
  8
SIZE
  6
CONTINUOUS
 62
    30
 10
697.5999870897106
 20
-8.499999998567137
 30
0.0
 11
697.5999870897106
 21
1.500000001432863
 31
0.0
  0
CIRCLE
  5
6EA
  8
SIZE
  6
CONTINUOUS
 62
    30
 10
697.5999870897106
 20
-23.4999999128856
 30
0.0
 40
5.0
  0
LINE
  5
6EB
  8
SIZE
  6
CONTINUOUS
 62
    30
 10
697.5999870897106
 20
-23.4999999128856
 30
0.0
 11
697.5999870897106
 21
-33.4999999128856
 31
0.0
  0
TEXT
  5
6EC
  8
SIZE
  6
CONTINUOUS
 62
    30
 10
687.5999870897106
 20
-134.2365617934549
 30
0.0
 40
30.0
  1
15
 50
90.0
 72
     1
 11
687.5999870897106
 21
-103.5222760791692
 31
0.0
  0
POINT
  5
6ED
  8
DEFPOINTS
  6
CONTINUOUS
 62
    30
 10
541.8591180965924
 20
-8.499999998567093
 30
0.0
  0
POINT
  5
6EE
  8
DEFPOINTS
  6
CONTINUOUS
 62
    30
 10
20.00000058865772
 20
-23.49999991288541
 30
0.0
  0
POINT
  5
6EF
  8
DEFPOINTS
  6
CONTINUOUS
 62
    30
 10
697.5999870897106
 20
-23.4999999128856
 30
0.0
  0
LINE
  5
6F0
  8
SIZE
  6
CONTINUOUS
 62
    30
 10
-219.9999975039936
 20
-0.4999999128854204
 30
0.0
 11
-69.8999975658261
 21
-0.4999999128854622
 31
0.0
  0
LINE
  5
6F1
  8
SIZE
  6
CONTINUOUS
 62
    30
 10
-219.9999975039936
 20
-8.499999998567096
 30
0.0
 11
-69.8999975658261
 21
-8.499999998567139
 31
0.0
  0
LINE
  5
6F2
  8
SIZE
  6
CONTINUOUS
 62
    30
 10
-82.3999975658261
 20
9.500000087114538
 30
0.0
 11
-82.3999975658261
 21
19.50000008711454
 31
0.0
  0
LINE
  5
6F3
  8
SIZE
  6
CONTINUOUS
 62
    30
 10
-82.3999975658261
 20
-18.49999999856713
 30
0.0
 11
-82.39999756582613
 21
-90.74896488141148
 31
0.0
  0
LINE
  5
6F4
  8
SIZE
  6
CONTINUOUS
 62
    30
 10
-82.3999975658261
 20
-0.4999999128854586
 30
0.0
 11
-82.3999975658261
 21
-8.499999998567136
 31
0.0
  0
CIRCLE
  5
6F5
  8
SIZE
  6
CONTINUOUS
 62
    30
 10
-82.3999975658261
 20
-0.4999999128854586
 30
0.0
 40
5.0
  0
LINE
  5
6F6
  8
SIZE
  6
CONTINUOUS
 62
    30
 10
-82.3999975658261
 20
-0.4999999128854586
 30
0.0
 11
-82.3999975658261
 21
9.500000087114541
 31
0.0
  0
CIRCLE
  5
6F7
  8
SIZE
  6
CONTINUOUS
 62
    30
 10
-82.3999975658261
 20
-8.499999998567136
 30
0.0
 40
5.0
  0
LINE
  5
6F8
  8
SIZE
  6
CONTINUOUS
 62
    30
 10
-82.3999975658261
 20
-8.499999998567136
 30
0.0
 11
-82.3999975658261
 21
-18.49999999856713
 31
0.0
  0
TEXT
  5
6F9
  8
SIZE
  6
CONTINUOUS
 62
    30
 10
-92.3999975658261
 20
-85.03467916712577
 30
0.0
 40
30.0
  1
8
 50
90.0
 72
     1
 11
-92.3999975658261
 21
-70.7489648814115
 31
0.0
  0
POINT
  5
6FA
  8
DEFPOINTS
  6
CONTINUOUS
 62
    30
 10
-229.9999975039936
 20
-0.499999912885416
 30
0.0
  0
POINT
  5
6FB
  8
DEFPOINTS
  6
CONTINUOUS
 62
    30
 10
-229.9999975039936
 20
-8.499999998567093
 30
0.0
  0
POINT
  5
6FC
  8
DEFPOINTS
  6
CONTINUOUS
 62
    30
 10
-82.3999975658261
 20
-8.499999998567136
 30
0.0
  0
LINE
  5
6FD
  8
SIZE
  6
CONTINUOUS
 62
    30
 10
-710.0000127627826
 20
729.4999781526052
 30
0.0
 11
-1014.900012738941
 21
729.4999781526053
 31
0.0
  0
LINE
  5
6FE
  8
SIZE
  6
CONTINUOUS
 62
    30
 10
-410.0000127627827
 20
629.4999781526053
 30
0.0
 11
-1014.900012738941
 21
629.4999781526054
 31
0.0
  0
LINE
  5
6FF
  8
SIZE
  6
CONTINUOUS
 62
    30
 10
-1002.400012738941
 20
719.4999781526053
 30
0.0
 11
-1002.400012738941
 21
639.4999781526053
 31
0.0
  0
CIRCLE
  5
700
  8
SIZE
  6
CONTINUOUS
 62
    30
 10
-1002.400012738941
 20
729.4999781526053
 30
0.0
 40
5.0
  0
LINE
  5
701
  8
SIZE
  6
CONTINUOUS
 62
    30
 10
-1002.400012738941
 20
729.4999781526053
 30
0.0
 11
-1002.400012738941
 21
719.4999781526053
 31
0.0
  0
CIRCLE
  5
702
  8
SIZE
  6
CONTINUOUS
 62
    30
 10
-1002.400012738941
 20
629.4999781526054
 30
0.0
 40
5.0
  0
LINE
  5
703
  8
SIZE
  6
CONTINUOUS
 62
    30
 10
-1002.400012738941
 20
629.4999781526054
 30
0.0
 11
-1002.400012738941
 21
639.4999781526054
 31
0.0
  0
TEXT
  5
704
  8
SIZE
  6
CONTINUOUS
 62
    30
 10
-1012.400012738941
 20
634.4999780302135
 30
0.0
 40
30.0
  1
100
 50
90.0
 72
     1
 11
-1012.400012738941
 21
679.4999780302135
 31
0.0
  0
POINT
  5
705
  8
DEFPOINTS
  6
CONTINUOUS
 62
    30
 10
-700.0000127627825
 20
729.4999781526052
 30
0.0
  0
POINT
  5
706
  8
DEFPOINTS
  6
CONTINUOUS
 62
    30
 10
-400.0000127627827
 20
629.4999781526053
 30
0.0
  0
POINT
  5
707
  8
DEFPOINTS
  6
CONTINUOUS
 62
    30
 10
-1002.400012738941
 20
629.4999781526054
 30
0.0
  0
LINE
  5
708
  8
NOTE
  6
CONTINUOUS
 10
19.9999999999999
 20
-23.5
 30
0.0
 11
-20.0000000000001
 21
-23.5
 31
0.0
  0
LINE
  5
709
  8
NOTE
  6
CONTINUOUS
 10
-1138.449963934658
 20
-208.5000065886055
 30
0.0
 11
-589.200024969814
 21
-208.5000065886055
 31
0.0
  0
LINE
  5
70A
  8
NOTE
  6
CONTINUOUS
 10
-589.200024969814
 20
-208.5000065886055
 30
0.0
 11
-435.2000249698139
 21
198.5000086701835
 31
0.0
  0
LINE
  5
70B
  8
NOTE
  6
CONTINUOUS
 10
-435.2000249698139
 20
198.5000086701835
 30
0.0
 11
-435.3995521717443
 21
196.5099863347084
 31
0.0
  0
LINE
  5
70C
  8
NOTE
  6
CONTINUOUS
 10
-435.2000249698139
 20
198.5000086701835
 30
0.0
 11
-436.3678317868265
 21
196.8763623915441
 31
0.0
  0
TEXT
  5
70D
  8
NOTE
  6
CONTINUOUS
 10
-1138.45008600497
 20
-157.5000218473946
 30
0.0
 40
39.99999999999999
  1
ﾋｰﾄﾎﾟﾝﾌﾟﾕﾆｯﾄ配管口(B)
 50
0.0000025613209388
 41
0.8858695911324542
  7
STANDARD1
  0
TEXT
  5
70E
  8
NOTE
  6
CONTINUOUS
 10
-1138.45008600497
 20
-207.5000218473946
 30
0.0
 40
39.99999999999999
  1
R1/2(φ21.7)
 50
0.0000025613209388
 41
0.6372768070016589
  7
STANDARD1
  0
LINE
  5
70F
  8
NOTE
  6
CONTINUOUS
 10
-1138.449963934658
 20
-358.4999913298166
 30
0.0
 11
-589.200024969814
 21
-358.4999913298166
 31
0.0
  0
LINE
  5
710
  8
NOTE
  6
CONTINUOUS
 10
-589.200024969814
 20
-358.4999913298166
 30
0.0
 11
-435.2000249698139
 21
118.4999934113944
 31
0.0
  0
LINE
  5
711
  8
NOTE
  6
CONTINUOUS
 10
-435.2000249698139
 20
118.4999934113944
 30
0.0
 11
-435.3009575349247
 21
116.5025418807434
 31
0.0
  0
LINE
  5
712
  8
NOTE
  6
CONTINUOUS
 10
-435.2000249698139
 20
118.4999934113944
 30
0.0
 11
-436.2861609250638
 21
116.8206159414034
 31
0.0
  0
TEXT
  5
713
  8
NOTE
  6
CONTINUOUS
 10
-1138.45008600497
 20
-307.5000218473946
 30
0.0
 40
39.99999999999999
  1
ﾋｰﾄﾎﾟﾝﾌﾟﾕﾆｯﾄ配管口(A)
 50
0.0000025613209388
 41
0.8858695911324542
  7
STANDARD1
  0
TEXT
  5
714
  8
NOTE
  6
CONTINUOUS
 10
-1138.45008600497
 20
-357.5000218473946
 30
0.0
 40
39.99999999999999
  1
R1/2(φ21.7)
 50
0.0000025613209388
 41
0.6372768070016589
  7
STANDARD1
  0
LINE
  5
715
  8
NOTE
  6
CONTINUOUS
 10
747.7499872372173
 20
-258.5000065886056
 30
0.0
 11
499.9999872372173
 21
-258.5000065886056
 31
0.0
  0
LINE
  5
716
  8
NOTE
  6
CONTINUOUS
 10
499.9999872372173
 20
-258.5000065886056
 30
0.0
 11
0.000000000061854
 21
-23.49999895921109
 31
0.0
  0
LINE
  5
717
  8
NOTE
  6
CONTINUOUS
 10
0.000000000061854
 20
-23.49999895921109
 30
0.0
 11
1.968554656662033
 21
-23.85325886916091
 31
0.0
  0
LINE
  5
718
  8
NOTE
  6
CONTINUOUS
 10
0.000000000061854
 20
-23.49999895921109
 30
0.0
 11
1.528188367641904
 21
-24.79020836593274
 31
0.0
  0
TEXT
  5
719
  8
NOTE
  6
CONTINUOUS
 10
560.7499872372173
 20
-257.5000065886056
 30
0.0
 40
39.99999999999999
  1
D φ15.5
 50
0.0000025613209388
 41
0.689338256331051
  7
STANDARD1
  0
LINE
  5
71A
  8
NOTE
  6
CONTINUOUS
 10
658.2499872372173
 20
-158.4999913298165
 30
0.0
 11
499.9999872372173
 21
-158.4999913298165
 31
0.0
  0
LINE
  5
71B
  8
NOTE
  6
CONTINUOUS
 10
499.9999872372173
 20
-158.4999913298165
 30
0.0
 11
250.0000024960063
 21
-8.4999989592111
 31
0.0
  0
LINE
  5
71C
  8
NOTE
  6
CONTINUOUS
 10
250.0000024960063
 20
-8.4999989592111
 30
0.0
 11
251.922874223415
 21
-9.05005742876908
 31
0.0
  0
LINE
  5
71D
  8
NOTE
  6
CONTINUOUS
 10
250.0000024960063
 20
-8.4999989592111
 30
0.0
 11
251.3902290044327
 21
-9.93779945137567
 31
0.0
  0
TEXT
  5
71E
  8
NOTE
  6
CONTINUOUS
 10
560.7499872372173
 20
-157.4999913298165
 30
0.0
 40
39.99999999999999
  1
4-AH
 50
0.0000024148365395
 41
0.612500023841858
  7
STANDARD1
  0
TEXT
  5
71F
  8
NOTE
  6
CONTINUOUS
 10
-1095.837415106533
 20
160.5691920197928
 30
0.0
 40
40.0
  1
メンテナンススペース
 50
89.99999134857796
 41
0.84375
  7
STANDARD1
  0
TEXT
  5
720
  8
NOTE
  6
CONTINUOUS
 10
752.591234795811
 20
149.3085719026053
 30
0.0
 40
40.0
  1
メンテナンススペース
 50
89.99999134857796
 41
0.84375
  7
STANDARD1
  0
TEXT
  5
721
  8
NOTE
  6
CONTINUOUS
 10
-947.7108892276262
 20
550.2475977815117
 30
0.0
 40
40.0
  1
メンテナンススペース
 50
89.99999134857796
 41
0.84375
  7
STANDARD1
  0
TEXT
  5
722
  8
NOTE
  6
CONTINUOUS
 10
419.908617608311
 20
832.1353541291678
 30
0.0
 40
39.99999999999999
  1
メンテナンススペース
 50
0.0000025613209388
 41
0.84375
  7
STANDARD1
  0
TEXT
  5
723
  8
NOTE
  6
CONTINUOUS
 10
-204.4616674258687
 20
824.4978419221364
 30
0.0
 40
39.99999999999999
  1
メンテナンススペース
 50
0.0000025613209388
 41
0.84375
  7
STANDARD1
  0
TEXT
  5
724
  8
NOTE
  6
CONTINUOUS
 10
-810.8180669620015
 20
829.4988184846366
 30
0.0
 40
39.99999999999999
  1
メンテナンススペース
 50
0.0000025613209388
 41
0.84375
  7
STANDARD1
  0
LINE
  5
725
  8
NOTE
  6
CONTINUOUS
 10
249.9999999999999
 20
-28.49999999999997
 30
0.0
 11
249.9999999999999
 21
11.50000000000003
 31
0.0
  0
LINE
  5
726
  8
NOTE
  6
CONTINUOUS
 10
232.9999999999999
 20
-8.499999999999973
 30
0.0
 11
273.0
 21
-8.499999999999973
 31
0.0
  0
LINE
  5
727
  8
NOTE
  6
CONTINUOUS
 10
-250.0
 20
-28.50000000000004
 30
0.0
 11
-250.0
 21
11.49999999999997
 31
0.0
  0
LINE
  5
728
  8
NOTE
  6
CONTINUOUS
 10
-270.0
 20
-8.50000000000003
 30
0.0
 11
-230.0000000000001
 21
-8.50000000000003
 31
0.0
  0
LINE
  5
729
  8
NOTE
  6
CONTINUOUS
 10
-455.1999999999999
 20
198.5
 30
0.0
 11
-415.2
 21
198.5
 31
0.0
  0
LINE
  5
72A
  8
NOTE
  6
CONTINUOUS
 10
-435.2
 20
178.5
 30
0.0
 11
-435.2
 21
218.5
 31
0.0
  0
LINE
  5
72B
  8
NOTE
  6
CONTINUOUS
 10
-455.1999999999999
 20
118.4999999999999
 30
0.0
 11
-415.2
 21
118.4999999999999
 31
0.0
  0
LINE
  5
72C
  8
NOTE
  6
CONTINUOUS
 10
-435.2
 20
98.49999999999986
 30
0.0
 11
-435.2
 21
138.5
 31
0.0
  0
LINE
  5
72D
  8
NOTE
  6
CONTINUOUS
 10
-0.020868344702823
 20
-45.93847399829975
 30
0.0
 11
-0.020868344702823
 21
-5.938473998299743
 31
0.0
  0
CIRCLE
  5
72E
  8
ARRANGE
  6
CONTINUOUS
 10
0.0
 20
0.0
 30
0.0
 40
15.0
  0
CIRCLE
  5
72F
  8
FIX
  6
CONTINUOUS
 10
249.9999999999999
 20
-8.499999999999973
 30
0.0
 40
5.0
  0
CIRCLE
  5
730
  8
FIX
  6
CONTINUOUS
 10
-250.0
 20
-8.50000000000003
 30
0.0
 40
5.0
  0
LINE
  5
731
  8
SERVICESPACE
  6
DASHDOT
 10
-400.0
 20
629.4999999999997
 30
0.0
 11
399.9999999999999
 21
629.4999999999997
 31
0.0
  0
LINE
  5
732
  8
SERVICESPACE
  6
DASHDOT
 10
400.0000000000001
 20
-8.49999999999996
 30
0.0
 11
399.9999999999999
 21
729.4999999999999
 31
0.0
  0
LINE
  5
733
  8
SERVICESPACE
  6
DASHDOT
 10
-399.9999999999999
 20
-8.500000000000044
 30
0.0
 11
-400.0
 21
729.4999999999999
 31
0.0
  0
LINE
  5
734
  8
SERVICESPACE
  6
DASHDOT
 10
400.0000000000001
 20
-8.49999999999996
 30
0.0
 11
541.8591224018475
 21
-8.499999999999932
 31
0.0
  0
LINE
  5
735
  8
SERVICESPACE
  6
DASHDOT
 10
-699.9999999999999
 20
-8.500000000000087
 30
0.0
 11
-399.9999999999999
 21
-8.500000000000044
 31
0.0
  0
LINE
  5
736
  8
SERVICESPACE
  6
DASHDOT
 10
-699.9999999999999
 20
-8.500000000000087
 30
0.0
 11
-699.9999999999999
 21
729.4999999999999
 31
0.0
  0
LINE
  5
737
  8
SERVICESPACE
  6
DASHDOT
 10
550.0
 20
-8.49999999999993
 30
0.0
 11
549.9999999999999
 21
729.4999999999999
 31
0.0
  0
LINE
  5
738
  8
SERVICESPACE
  6
DASHDOT
 10
-699.9999999999999
 20
729.4999999999999
 30
0.0
 11
549.9999999999999
 21
729.4999999999999
 31
0.0
  0
LINE
  5
739
  8
SERVICESPACE
  6
DASHDOT
 10
-699.9999999999999
 20
729.4999999999999
 30
0.0
 11
-399.9999999999999
 21
11.49999999999994
 31
0.0
  0
LINE
  5
73A
  8
SERVICESPACE
  6
DASHDOT
 10
-400.0
 20
729.4999999999999
 30
0.0
 11
-699.9999999999999
 21
-8.500000000000087
 31
0.0
  0
LINE
  5
73B
  8
SERVICESPACE
  6
DASHDOT
 10
-400.0
 20
729.4999999999999
 30
0.0
 11
399.9999999999999
 21
629.4999999999997
 31
0.0
  0
LINE
  5
73C
  8
SERVICESPACE
  6
DASHDOT
 10
399.9999999999998
 20
729.4999999999999
 30
0.0
 11
-400.0
 21
629.4999999999997
 31
0.0
  0
LINE
  5
73D
  8
SERVICESPACE
  6
DASHDOT
 10
399.9999999999998
 20
729.4999999999999
 30
0.0
 11
550.0
 21
-8.49999999999993
 31
0.0
  0
LINE
  5
73E
  8
SERVICESPACE
  6
DASHDOT
 10
549.9999999999998
 20
729.4999999999999
 30
0.0
 11
400.0000000000001
 21
-8.49999999999996
 31
0.0
  0
TEXT
  5
73F
  8
ETC
  6
CONTINUOUS
 10
749.5469232723734
 20
1020.241738406512
 30
0.0
 40
39.99999999999999
  1
TSU453
 50
0.0000024148365395
 41
0.612500023841858
  7
STANDARD1
  0
TEXT
  5
740
  8
ETC
  6
CONTINUOUS
 10
749.5469232723734
 20
950.2417994416678
 30
0.0
 40
39.99999999999999
  1
ヒートポンプユニット
 50
0.0000025613209388
 41
0.84375
  7
STANDARD1
  0
ENDSEC
  0
EOF
