  0
SECTION
  2
HEADER
  9
$ACADVER
  1
AC1009
  9
$DWGCODEPAGE
  3
dos932
  9
$INSBASE
 10
0.0
 20
0.0
 30
0.0
  9
$EXTMIN
 10
-1134.7396
 20
-865.18252
 30
0.0
  9
$EXTMAX
 10
942.33333
 20
2421.859473
 30
0.0
  9
$LIMMIN
 10
0.0
 20
0.0
  9
$LIMMAX
 10
12.0
 20
9.0
  9
$ORTHOMODE
 70
     0
  9
$REGENMODE
 70
     1
  9
$FILLMODE
 70
     1
  9
$QTEXTMODE
 70
     0
  9
$MIRRTEXT
 70
     1
  9
$DRAGMODE
 70
     2
  9
$LTSCALE
 40
1.0
  9
$OSMODE
 70
    37
  9
$ATTMODE
 70
     1
  9
$TEXTSIZE
 40
2.8
  9
$TRACEWID
 40
0.05
  9
$TEXTSTYLE
  7
STANDARD1
  9
$CLAYER
  8
0
  9
$CELTYPE
  6
CONTINUOUS
  9
$CECOLOR
 62
   256
  9
$DIMSCALE
 40
1.0
  9
$DIMASZ
 40
10.0
  9
$DIMEXO
 40
10.0
  9
$DIMDLI
 40
8.0
  9
$DIMRND
 40
0.0
  9
$DIMDLE
 40
0.0
  9
$DIMEXE
 40
12.5
  9
$DIMTP
 40
0.0
  9
$DIMTM
 40
0.0
  9
$DIMTXT
 40
30.0
  9
$DIMCEN
 40
2.5
  9
$DIMTSZ
 40
0.0
  9
$DIMTOL
 70
     0
  9
$DIMLIM
 70
     0
  9
$DIMTIH
 70
     0
  9
$DIMTOH
 70
     0
  9
$DIMSE1
 70
     0
  9
$DIMSE2
 70
     0
  9
$DIMTAD
 70
     3
  9
$DIMZIN
 70
    12
  9
$DIMBLK
  1

  9
$DIMASO
 70
     1
  9
$DIMSHO
 70
     1
  9
$DIMPOST
  1

  9
$DIMAPOST
  1

  9
$DIMALT
 70
     0
  9
$DIMALTD
 70
     4
  9
$DIMALTF
 40
25.4
  9
$DIMLFAC
 40
1.0
  9
$DIMTOFL
 70
     1
  9
$DIMTVP
 40
0.0
  9
$DIMTIX
 70
     0
  9
$DIMSOXD
 70
     0
  9
$DIMSAH
 70
     1
  9
$DIMBLK1
  1
ORIGIN
  9
$DIMBLK2
  1
ORIGIN
  9
$DIMSTYLE
  2
STANDARD
  9
$DIMCLRD
 70
     0
  9
$DIMCLRE
 70
     0
  9
$DIMCLRT
 70
     0
  9
$DIMTFAC
 40
0.714286
  9
$DIMGAP
 40
10.0
  9
$LUNITS
 70
     2
  9
$LUPREC
 70
     3
  9
$SKETCHINC
 40
0.1
  9
$FILLETRAD
 40
0.0
  9
$AUNITS
 70
     0
  9
$AUPREC
 70
     0
  9
$MENU
  1
acad
  9
$ELEVATION
 40
0.0
  9
$PELEVATION
 40
0.0
  9
$THICKNESS
 40
0.0
  9
$LIMCHECK
 70
     0
  9
$CHAMFERA
 40
0.0
  9
$CHAMFERB
 40
0.0
  9
$SKPOLY
 70
     0
  9
$TDCREATE
 40
2454359.435682859
  9
$TDUPDATE
 40
2457459.559430579
  9
$TDINDWG
 40
0.0
  9
$TDUSRTIMER
 40
0.0
  9
$USRTIMER
 70
     1
  9
$ANGBASE
 50
0.0
  9
$ANGDIR
 70
     0
  9
$PDMODE
 70
     0
  9
$PDSIZE
 40
0.0
  9
$PLINEWID
 40
0.0
  9
$COORDS
 70
     1
  9
$SPLFRAME
 70
     0
  9
$SPLINETYPE
 70
     6
  9
$SPLINESEGS
 70
     8
  9
$ATTDIA
 70
     0
  9
$ATTREQ
 70
     1
  9
$HANDLING
 70
     1
  9
$HANDSEED
  5
BFD
  9
$SURFTAB1
 70
     6
  9
$SURFTAB2
 70
     6
  9
$SURFTYPE
 70
     6
  9
$SURFU
 70
     6
  9
$SURFV
 70
     6
  9
$UCSNAME
  2

  9
$UCSORG
 10
0.0
 20
0.0
 30
0.0
  9
$UCSXDIR
 10
1.0
 20
0.0
 30
0.0
  9
$UCSYDIR
 10
0.0
 20
1.0
 30
0.0
  9
$PUCSNAME
  2

  9
$PUCSORG
 10
0.0
 20
0.0
 30
0.0
  9
$PUCSXDIR
 10
1.0
 20
0.0
 30
0.0
  9
$PUCSYDIR
 10
0.0
 20
1.0
 30
0.0
  9
$USERI1
 70
     0
  9
$USERI2
 70
     0
  9
$USERI3
 70
     0
  9
$USERI4
 70
     0
  9
$USERI5
 70
     0
  9
$USERR1
 40
0.0
  9
$USERR2
 40
0.0
  9
$USERR3
 40
0.0
  9
$USERR4
 40
0.0
  9
$USERR5
 40
0.0
  9
$WORLDVIEW
 70
     1
  9
$SHADEDGE
 70
     3
  9
$SHADEDIF
 70
    70
  9
$TILEMODE
 70
     1
  9
$MAXACTVP
 70
    48
  9
$PLIMCHECK
 70
     0
  9
$PEXTMIN
 10
1.000000000000000E+20
 20
1.000000000000000E+20
 30
1.000000000000000E+20
  9
$PEXTMAX
 10
-1.000000000000000E+20
 20
-1.000000000000000E+20
 30
-1.000000000000000E+20
  9
$PLIMMIN
 10
0.0
 20
0.0
  9
$PLIMMAX
 10
12.0
 20
9.0
  9
$UNITMODE
 70
     0
  9
$VISRETAIN
 70
     1
  9
$PLINEGEN
 70
     0
  9
$PSLTSCALE
 70
     1
  0
ENDSEC
  0
SECTION
  2
TABLES
  0
TABLE
  2
VPORT
 70
     1
  0
VPORT
  2
*ACTIVE
 70
     0
 10
0.0
 20
0.0
 11
1.0
 21
1.0
 12
-76.903147
 22
763.088428
 13
0.0
 23
0.0
 14
1.0
 24
1.0
 15
0.0
 25
0.0
 16
0.0
 26
0.0
 36
1.0
 17
0.0
 27
0.0
 37
0.0
 40
3302.062693
 41
2.745223
 42
50.0
 43
0.0
 44
0.0
 50
0.0
 51
0.0
 71
     0
 72
   100
 73
     1
 74
     1
 75
     0
 76
     0
 77
     0
 78
     0
  0
ENDTAB
  0
TABLE
  2
LTYPE
 70
     4
  0
LTYPE
  2
CONTINUOUS
 70
     0
  3
Solid line
 72
    65
 73
     0
 40
0.0
  0
LTYPE
  2
DASHED
 70
     0
  3
-- -- -- -- -- -- -- -- -- -- -- -- -- -- --
 72
    65
 73
     2
 40
0.75
 49
0.5
 49
-0.25
  0
LTYPE
  2
DASHDOT
 70
     0
  3
__ . __ . __ . __ . __ . __ . __ . __ . __ . __
 72
    65
 73
     4
 40
125.0
 49
80.0
 49
-20.0
 49
5.0
 49
-20.0
  0
LTYPE
  2
DIVIDE
 70
     0
  3
__ . . __ . . __ . . __ . . __ . . __ . . __
 72
    65
 73
     6
 40
1.25
 49
0.5
 49
-0.25
 49
0.0
 49
-0.25
 49
0.0
 49
-0.25
  0
ENDTAB
  0
TABLE
  2
LAYER
 70
    12
  0
LAYER
  2
0
 70
     0
 62
     3
  6
CONTINUOUS
  0
LAYER
  2
OUTLINE
 70
     0
 62
     3
  6
CONTINUOUS
  0
LAYER
  2
DETAIL
 70
     0
 62
     5
  6
CONTINUOUS
  0
LAYER
  2
BASIS
 70
     0
 62
     6
  6
CONTINUOUS
  0
LAYER
  2
SIZE
 70
     0
 62
    30
  6
CONTINUOUS
  0
LAYER
  2
NOTE
 70
     0
 62
     4
  6
CONTINUOUS
  0
LAYER
  2
ARRANGE
 70
     0
 62
     1
  6
CONTINUOUS
  0
LAYER
  2
FIX
 70
     0
 62
    11
  6
CONTINUOUS
  0
LAYER
  2
SERVICESPACE
 70
     0
 62
     2
  6
CONTINUOUS
  0
LAYER
  2
ETC
 70
     0
 62
    61
  6
CONTINUOUS
  0
LAYER
  2
SYMBOLLINE
 70
     0
 62
     7
  6
CONTINUOUS
  0
LAYER
  2
DEFPOINTS
 70
     0
 62
     7
  6
CONTINUOUS
  0
ENDTAB
  0
TABLE
  2
STYLE
 70
     5
  0
STYLE
  2
STANDARD
 70
     0
 40
0.0
 41
1.0
 50
0.0
 71
     0
 42
0.2
  3
txt
  4

  0
STYLE
  2
STANDARD1
 70
     0
 40
0.0
 41
1.0
 50
0.0
 71
     0
 42
2.8
  3
MONOTXT
  4
BIGFONT
  0
STYLE
  2
STANDARD2
 70
     4
 40
0.0
 41
1.0
 50
0.0
 71
     0
 42
2.8
  3
MONOTXT
  4
BIGFONT
  0
STYLE
  2
STANDARD3
 70
     0
 40
0.0
 41
1.0
 50
0.0
 71
     0
 42
2.8
  3
MONOTXT
  4

  0
STYLE
  2
STANDARD4
 70
     4
 40
0.0
 41
1.0
 50
0.0
 71
     0
 42
2.8
  3
MONOTXT
  4

  0
ENDTAB
  0
TABLE
  2
VIEW
 70
     0
  0
ENDTAB
  0
TABLE
  2
UCS
 70
     0
  0
ENDTAB
  0
TABLE
  2
APPID
 70
     1
  0
APPID
  2
ACAD
 70
     0
  0
ENDTAB
  0
TABLE
  2
DIMSTYLE
 70
     1
  0
DIMSTYLE
  2
STANDARD
 70
     0
  3

  4

  5

  6

  7

 40
1.0
 41
0.18
 42
0.0625
 43
0.38
 44
0.18
 45
0.0
 46
0.0
 47
0.0
 48
0.0
140
0.18
141
0.09
142
0.0
143
25.4
144
1.0
145
0.0
146
1.0
147
0.09
 71
     0
 72
     0
 73
     1
 74
     1
 75
     0
 76
     0
 77
     0
 78
     0
170
     0
171
     2
172
     0
173
     0
174
     0
175
     0
176
     0
177
     0
178
     0
  0
ENDTAB
  0
ENDSEC
  0
SECTION
  2
BLOCKS
  0
BLOCK
  8
0
  2
$MODEL_SPACE
 70
     0
 10
0.0
 20
0.0
 30
0.0
  3
$MODEL_SPACE
  1

  0
ENDBLK
  5
BB0
  8
0
  0
BLOCK
 67
     1
  8
0
  2
$PAPER_SPACE
 70
     0
 10
0.0
 20
0.0
 30
0.0
  3
$PAPER_SPACE
  1

  0
ENDBLK
  5
BB2
 67
     1
  8
0
  0
BLOCK
  8
SIZE
  2
*D0
 70
     1
 10
0.0
 20
0.0
 30
0.0
  3
*D0
  1

  0
TEXT
  5
575
  8
SIZE
  6
CONTINUOUS
 10
-793.495508
 20
176.519455
 30
0.0
 40
2.8
  1
360
 50
90.00000499999999
 41
0.7
  7
STANDARD1
  0
LINE
  5
576
  8
SIZE
  6
CONTINUOUS
 10
-275.729736
 20
359.459473
 30
0.0
 11
-794.495483
 21
359.459473
 31
0.0
  0
LINE
  5
577
  8
SIZE
  6
CONTINUOUS
 10
-301.729736
 20
-0.540541
 30
0.0
 11
-794.495483
 21
-0.540541
 31
0.0
  0
LINE
  5
578
  8
SIZE
  6
CONTINUOUS
 10
-792.495483
 20
359.459473
 30
0.0
 11
-792.495483
 21
-0.540541
 31
0.0
  0
CIRCLE
  5
579
  8
SIZE
  6
CONTINUOUS
 10
-792.495483
 20
359.459473
 30
0.0
 40
0.5
  0
CIRCLE
  5
57A
  8
SIZE
  6
CONTINUOUS
 10
-792.495483
 20
359.459473
 30
0.0
 40
0.4
  0
CIRCLE
  5
57B
  8
SIZE
  6
CONTINUOUS
 10
-792.495483
 20
359.459473
 30
0.0
 40
0.3
  0
CIRCLE
  5
57C
  8
SIZE
  6
CONTINUOUS
 10
-792.495483
 20
359.459473
 30
0.0
 40
0.2
  0
CIRCLE
  5
57D
  8
SIZE
  6
CONTINUOUS
 10
-792.495483
 20
359.459473
 30
0.0
 40
0.1
  0
CIRCLE
  5
57E
  8
SIZE
  6
CONTINUOUS
 10
-792.495483
 20
-0.540541
 30
0.0
 40
0.5
  0
CIRCLE
  5
57F
  8
SIZE
  6
CONTINUOUS
 10
-792.495483
 20
-0.540541
 30
0.0
 40
0.4
  0
CIRCLE
  5
580
  8
SIZE
  6
CONTINUOUS
 10
-792.495483
 20
-0.540541
 30
0.0
 40
0.3
  0
CIRCLE
  5
581
  8
SIZE
  6
CONTINUOUS
 10
-792.495483
 20
-0.540541
 30
0.0
 40
0.2
  0
CIRCLE
  5
582
  8
SIZE
  6
CONTINUOUS
 10
-792.495483
 20
-0.540541
 30
0.0
 40
0.1
  0
POINT
  5
583
  8
DEFPOINTS
  6
BYBLOCK
 10
-300.729736
 20
-0.540541
 30
0.0
  0
POINT
  5
584
  8
DEFPOINTS
  6
BYBLOCK
 10
-274.729736
 20
359.459473
 30
0.0
  0
POINT
  5
585
  8
DEFPOINTS
  6
BYBLOCK
 10
-792.495483
 20
359.459473
 30
0.0
  0
ENDBLK
  5
586
  8
SIZE
  0
BLOCK
  8
SIZE
  2
*D1
 70
     1
 10
0.0
 20
0.0
 30
0.0
  3
*D1
  1

  0
TEXT
  5
589
  8
SIZE
  6
CONTINUOUS
 10
-593.339563
 20
83.019455
 30
0.0
 40
2.8
  1
173
 50
90.00000499999999
 41
0.7
  7
STANDARD1
  0
LINE
  5
58A
  8
SIZE
  6
CONTINUOUS
 10
-128.752815
 20
172.459457
 30
0.0
 11
-594.339539
 21
172.459457
 31
0.0
  0
LINE
  5
58B
  8
SIZE
  6
CONTINUOUS
 10
-310.729736
 20
-0.540541
 30
0.0
 11
-594.339539
 21
-0.540541
 31
0.0
  0
LINE
  5
58C
  8
SIZE
  6
CONTINUOUS
 10
-592.339539
 20
172.459457
 30
0.0
 11
-592.339539
 21
-0.540541
 31
0.0
  0
CIRCLE
  5
58D
  8
SIZE
  6
CONTINUOUS
 10
-592.339539
 20
172.459457
 30
0.0
 40
0.5
  0
CIRCLE
  5
58E
  8
SIZE
  6
CONTINUOUS
 10
-592.339539
 20
172.459457
 30
0.0
 40
0.4
  0
CIRCLE
  5
58F
  8
SIZE
  6
CONTINUOUS
 10
-592.339539
 20
172.459457
 30
0.0
 40
0.3
  0
CIRCLE
  5
590
  8
SIZE
  6
CONTINUOUS
 10
-592.339539
 20
172.459457
 30
0.0
 40
0.2
  0
CIRCLE
  5
591
  8
SIZE
  6
CONTINUOUS
 10
-592.339539
 20
172.459457
 30
0.0
 40
0.1
  0
CIRCLE
  5
592
  8
SIZE
  6
CONTINUOUS
 10
-592.339539
 20
-0.540541
 30
0.0
 40
0.5
  0
CIRCLE
  5
593
  8
SIZE
  6
CONTINUOUS
 10
-592.339539
 20
-0.540541
 30
0.0
 40
0.4
  0
CIRCLE
  5
594
  8
SIZE
  6
CONTINUOUS
 10
-592.339539
 20
-0.540541
 30
0.0
 40
0.3
  0
CIRCLE
  5
595
  8
SIZE
  6
CONTINUOUS
 10
-592.339539
 20
-0.540541
 30
0.0
 40
0.2
  0
CIRCLE
  5
596
  8
SIZE
  6
CONTINUOUS
 10
-592.339539
 20
-0.540541
 30
0.0
 40
0.1
  0
POINT
  5
597
  8
DEFPOINTS
  6
BYBLOCK
 10
-309.729736
 20
-0.540541
 30
0.0
  0
POINT
  5
598
  8
DEFPOINTS
  6
BYBLOCK
 10
-127.752815
 20
172.459457
 30
0.0
  0
POINT
  5
599
  8
DEFPOINTS
  6
BYBLOCK
 10
-592.339539
 20
172.459457
 30
0.0
  0
ENDBLK
  5
59A
  8
SIZE
  0
BLOCK
  8
SIZE
  2
*D2
 70
     1
 10
0.0
 20
0.0
 30
0.0
  3
*D2
  1

  0
TEXT
  5
59D
  8
SIZE
  6
CONTINUOUS
 10
-56.681271
 20
-354.082526
 30
0.0
 40
2.8
  1
108
 50
0.000003
 41
0.7
  7
STANDARD1
  0
LINE
  5
59E
  8
SIZE
  6
CONTINUOUS
 10
-107.752815
 20
151.459457
 30
0.0
 11
-107.752815
 21
-357.08252
 31
0.0
  0
LINE
  5
59F
  8
SIZE
  6
CONTINUOUS
 10
0.27027
 20
-51.540539
 30
0.0
 11
0.27027
 21
-357.08252
 31
0.0
  0
LINE
  5
5A0
  8
SIZE
  6
CONTINUOUS
 10
-107.752815
 20
-355.08252
 30
0.0
 11
0.27027
 21
-355.08252
 31
0.0
  0
CIRCLE
  5
5A1
  8
SIZE
  6
CONTINUOUS
 10
-107.752815
 20
-355.08252
 30
0.0
 40
0.5
  0
CIRCLE
  5
5A2
  8
SIZE
  6
CONTINUOUS
 10
-107.752815
 20
-355.08252
 30
0.0
 40
0.4
  0
CIRCLE
  5
5A3
  8
SIZE
  6
CONTINUOUS
 10
-107.752815
 20
-355.08252
 30
0.0
 40
0.3
  0
CIRCLE
  5
5A4
  8
SIZE
  6
CONTINUOUS
 10
-107.752815
 20
-355.08252
 30
0.0
 40
0.2
  0
CIRCLE
  5
5A5
  8
SIZE
  6
CONTINUOUS
 10
-107.752815
 20
-355.08252
 30
0.0
 40
0.1
  0
CIRCLE
  5
5A6
  8
SIZE
  6
CONTINUOUS
 10
0.27027
 20
-355.08252
 30
0.0
 40
0.5
  0
CIRCLE
  5
5A7
  8
SIZE
  6
CONTINUOUS
 10
0.27027
 20
-355.08252
 30
0.0
 40
0.4
  0
CIRCLE
  5
5A8
  8
SIZE
  6
CONTINUOUS
 10
0.27027
 20
-355.08252
 30
0.0
 40
0.3
  0
CIRCLE
  5
5A9
  8
SIZE
  6
CONTINUOUS
 10
0.27027
 20
-355.08252
 30
0.0
 40
0.2
  0
CIRCLE
  5
5AA
  8
SIZE
  6
CONTINUOUS
 10
0.27027
 20
-355.08252
 30
0.0
 40
0.1
  0
POINT
  5
5AB
  8
DEFPOINTS
  6
BYBLOCK
 10
0.27027
 20
-50.540539
 30
0.0
  0
POINT
  5
5AC
  8
DEFPOINTS
  6
BYBLOCK
 10
-107.752815
 20
152.459457
 30
0.0
  0
POINT
  5
5AD
  8
DEFPOINTS
  6
BYBLOCK
 10
-107.752815
 20
-355.08252
 30
0.0
  0
ENDBLK
  5
5AE
  8
SIZE
  0
BLOCK
  8
SIZE
  2
*D3
 70
     1
 10
0.0
 20
0.0
 30
0.0
  3
*D3
  1

  0
TEXT
  5
5B1
  8
SIZE
  6
CONTINUOUS
 10
-2.66973
 20
2380.459375
 30
0.0
 40
2.8
  1
630
 50
0.000003
 41
0.7
  7
STANDARD1
  0
LINE
  5
5B2
  8
SIZE
  6
CONTINUOUS
 10
-314.729736
 20
2030.459473
 30
0.0
 11
-314.729736
 21
2381.459473
 31
0.0
  0
LINE
  5
5B3
  8
SIZE
  6
CONTINUOUS
 10
315.270264
 20
2030.459473
 30
0.0
 11
315.270264
 21
2381.459473
 31
0.0
  0
LINE
  5
5B4
  8
SIZE
  6
CONTINUOUS
 10
-314.729736
 20
2379.459473
 30
0.0
 11
315.270264
 21
2379.459473
 31
0.0
  0
CIRCLE
  5
5B5
  8
SIZE
  6
CONTINUOUS
 10
-314.729736
 20
2379.459473
 30
0.0
 40
0.5
  0
CIRCLE
  5
5B6
  8
SIZE
  6
CONTINUOUS
 10
-314.729736
 20
2379.459473
 30
0.0
 40
0.4
  0
CIRCLE
  5
5B7
  8
SIZE
  6
CONTINUOUS
 10
-314.729736
 20
2379.459473
 30
0.0
 40
0.3
  0
CIRCLE
  5
5B8
  8
SIZE
  6
CONTINUOUS
 10
-314.729736
 20
2379.459473
 30
0.0
 40
0.2
  0
CIRCLE
  5
5B9
  8
SIZE
  6
CONTINUOUS
 10
-314.729736
 20
2379.459473
 30
0.0
 40
0.1
  0
CIRCLE
  5
5BA
  8
SIZE
  6
CONTINUOUS
 10
315.270264
 20
2379.459473
 30
0.0
 40
0.5
  0
CIRCLE
  5
5BB
  8
SIZE
  6
CONTINUOUS
 10
315.270264
 20
2379.459473
 30
0.0
 40
0.4
  0
CIRCLE
  5
5BC
  8
SIZE
  6
CONTINUOUS
 10
315.270264
 20
2379.459473
 30
0.0
 40
0.3
  0
CIRCLE
  5
5BD
  8
SIZE
  6
CONTINUOUS
 10
315.270264
 20
2379.459473
 30
0.0
 40
0.2
  0
CIRCLE
  5
5BE
  8
SIZE
  6
CONTINUOUS
 10
315.270264
 20
2379.459473
 30
0.0
 40
0.1
  0
POINT
  5
5BF
  8
DEFPOINTS
  6
BYBLOCK
 10
315.270264
 20
2029.459473
 30
0.0
  0
POINT
  5
5C0
  8
DEFPOINTS
  6
BYBLOCK
 10
-314.729736
 20
2029.459473
 30
0.0
  0
POINT
  5
5C1
  8
DEFPOINTS
  6
BYBLOCK
 10
-314.729736
 20
2379.459473
 30
0.0
  0
ENDBLK
  5
5C2
  8
SIZE
  0
BLOCK
  8
SIZE
  2
*D4
 70
     1
 10
0.0
 20
0.0
 30
0.0
  3
*D4
  1

  0
TEXT
  5
5C5
  8
SIZE
  6
CONTINUOUS
 10
-1.68973
 20
2230.459375
 30
0.0
 40
2.8
  1
90
 50
0.000003
 41
0.7
  7
STANDARD1
  0
LINE
  5
5C6
  8
SIZE
  6
CONTINUOUS
 10
-44.729729
 20
1870.459473
 30
0.0
 11
-44.729729
 21
2231.459473
 31
0.0
  0
LINE
  5
5C7
  8
SIZE
  6
CONTINUOUS
 10
45.270271
 20
1870.459473
 30
0.0
 11
45.270271
 21
2231.459473
 31
0.0
  0
LINE
  5
5C8
  8
SIZE
  6
CONTINUOUS
 10
-44.729729
 20
2229.459473
 30
0.0
 11
45.270271
 21
2229.459473
 31
0.0
  0
CIRCLE
  5
5C9
  8
SIZE
  6
CONTINUOUS
 10
-44.729729
 20
2229.459473
 30
0.0
 40
0.5
  0
CIRCLE
  5
5CA
  8
SIZE
  6
CONTINUOUS
 10
-44.729729
 20
2229.459473
 30
0.0
 40
0.4
  0
CIRCLE
  5
5CB
  8
SIZE
  6
CONTINUOUS
 10
-44.729729
 20
2229.459473
 30
0.0
 40
0.3
  0
CIRCLE
  5
5CC
  8
SIZE
  6
CONTINUOUS
 10
-44.729729
 20
2229.459473
 30
0.0
 40
0.2
  0
CIRCLE
  5
5CD
  8
SIZE
  6
CONTINUOUS
 10
-44.729729
 20
2229.459473
 30
0.0
 40
0.1
  0
CIRCLE
  5
5CE
  8
SIZE
  6
CONTINUOUS
 10
45.270271
 20
2229.459473
 30
0.0
 40
0.5
  0
CIRCLE
  5
5CF
  8
SIZE
  6
CONTINUOUS
 10
45.270271
 20
2229.459473
 30
0.0
 40
0.4
  0
CIRCLE
  5
5D0
  8
SIZE
  6
CONTINUOUS
 10
45.270271
 20
2229.459473
 30
0.0
 40
0.3
  0
CIRCLE
  5
5D1
  8
SIZE
  6
CONTINUOUS
 10
45.270271
 20
2229.459473
 30
0.0
 40
0.2
  0
CIRCLE
  5
5D2
  8
SIZE
  6
CONTINUOUS
 10
45.270271
 20
2229.459473
 30
0.0
 40
0.1
  0
POINT
  5
5D3
  8
DEFPOINTS
  6
BYBLOCK
 10
45.270271
 20
1869.459473
 30
0.0
  0
POINT
  5
5D4
  8
DEFPOINTS
  6
BYBLOCK
 10
-44.729729
 20
1869.459473
 30
0.0
  0
POINT
  5
5D5
  8
DEFPOINTS
  6
BYBLOCK
 10
-44.729729
 20
2229.459473
 30
0.0
  0
ENDBLK
  5
5D6
  8
SIZE
  0
BLOCK
  8
SIZE
  2
*D5
 70
     1
 10
0.0
 20
0.0
 30
0.0
  3
*D5
  1

  0
TEXT
  5
5D9
  8
SIZE
  6
CONTINUOUS
 10
-1.68973
 20
2130.459375
 30
0.0
 40
2.8
  1
60
 50
0.000003
 41
0.7
  7
STANDARD1
  0
LINE
  5
5DA
  8
SIZE
  6
CONTINUOUS
 10
-29.729731
 20
1873.459473
 30
0.0
 11
-29.729731
 21
2131.459473
 31
0.0
  0
LINE
  5
5DB
  8
SIZE
  6
CONTINUOUS
 10
30.270269
 20
1873.459473
 30
0.0
 11
30.270269
 21
2131.459473
 31
0.0
  0
LINE
  5
5DC
  8
SIZE
  6
CONTINUOUS
 10
-29.729731
 20
2129.459473
 30
0.0
 11
30.270269
 21
2129.459473
 31
0.0
  0
CIRCLE
  5
5DD
  8
SIZE
  6
CONTINUOUS
 10
-29.729731
 20
2129.459473
 30
0.0
 40
0.5
  0
CIRCLE
  5
5DE
  8
SIZE
  6
CONTINUOUS
 10
-29.729731
 20
2129.459473
 30
0.0
 40
0.4
  0
CIRCLE
  5
5DF
  8
SIZE
  6
CONTINUOUS
 10
-29.729731
 20
2129.459473
 30
0.0
 40
0.3
  0
CIRCLE
  5
5E0
  8
SIZE
  6
CONTINUOUS
 10
-29.729731
 20
2129.459473
 30
0.0
 40
0.2
  0
CIRCLE
  5
5E1
  8
SIZE
  6
CONTINUOUS
 10
-29.729731
 20
2129.459473
 30
0.0
 40
0.1
  0
CIRCLE
  5
5E2
  8
SIZE
  6
CONTINUOUS
 10
30.270269
 20
2129.459473
 30
0.0
 40
0.5
  0
CIRCLE
  5
5E3
  8
SIZE
  6
CONTINUOUS
 10
30.270269
 20
2129.459473
 30
0.0
 40
0.4
  0
CIRCLE
  5
5E4
  8
SIZE
  6
CONTINUOUS
 10
30.270269
 20
2129.459473
 30
0.0
 40
0.3
  0
CIRCLE
  5
5E5
  8
SIZE
  6
CONTINUOUS
 10
30.270269
 20
2129.459473
 30
0.0
 40
0.2
  0
CIRCLE
  5
5E6
  8
SIZE
  6
CONTINUOUS
 10
30.270269
 20
2129.459473
 30
0.0
 40
0.1
  0
POINT
  5
5E7
  8
DEFPOINTS
  6
BYBLOCK
 10
30.270269
 20
1872.459473
 30
0.0
  0
POINT
  5
5E8
  8
DEFPOINTS
  6
BYBLOCK
 10
-29.729731
 20
1872.459473
 30
0.0
  0
POINT
  5
5E9
  8
DEFPOINTS
  6
BYBLOCK
 10
-29.729731
 20
2129.459473
 30
0.0
  0
ENDBLK
  5
5EA
  8
SIZE
  0
BLOCK
  8
SIZE
  2
*D6
 70
     1
 10
0.0
 20
0.0
 30
0.0
  3
*D6
  1

  0
TEXT
  5
5ED
  8
SIZE
  6
CONTINUOUS
 10
864.270239
 20
1926.519531
 30
0.0
 40
2.8
  1
200
 50
90.00000499999999
 41
0.7
  7
STANDARD1
  0
LINE
  5
5EE
  8
SIZE
  6
CONTINUOUS
 10
316.270264
 20
1829.459473
 30
0.0
 11
867.270264
 21
1829.459473
 31
0.0
  0
LINE
  5
5EF
  8
SIZE
  6
CONTINUOUS
 10
316.270264
 20
2029.459473
 30
0.0
 11
867.270264
 21
2029.459473
 31
0.0
  0
LINE
  5
5F0
  8
SIZE
  6
CONTINUOUS
 10
865.270264
 20
1829.459473
 30
0.0
 11
865.270264
 21
2029.459473
 31
0.0
  0
CIRCLE
  5
5F1
  8
SIZE
  6
CONTINUOUS
 10
865.270264
 20
1829.459473
 30
0.0
 40
0.5
  0
CIRCLE
  5
5F2
  8
SIZE
  6
CONTINUOUS
 10
865.270264
 20
1829.459473
 30
0.0
 40
0.4
  0
CIRCLE
  5
5F3
  8
SIZE
  6
CONTINUOUS
 10
865.270264
 20
1829.459473
 30
0.0
 40
0.3
  0
CIRCLE
  5
5F4
  8
SIZE
  6
CONTINUOUS
 10
865.270264
 20
1829.459473
 30
0.0
 40
0.2
  0
CIRCLE
  5
5F5
  8
SIZE
  6
CONTINUOUS
 10
865.270264
 20
1829.459473
 30
0.0
 40
0.1
  0
CIRCLE
  5
5F6
  8
SIZE
  6
CONTINUOUS
 10
865.270264
 20
2029.459473
 30
0.0
 40
0.5
  0
CIRCLE
  5
5F7
  8
SIZE
  6
CONTINUOUS
 10
865.270264
 20
2029.459473
 30
0.0
 40
0.4
  0
CIRCLE
  5
5F8
  8
SIZE
  6
CONTINUOUS
 10
865.270264
 20
2029.459473
 30
0.0
 40
0.3
  0
CIRCLE
  5
5F9
  8
SIZE
  6
CONTINUOUS
 10
865.270264
 20
2029.459473
 30
0.0
 40
0.2
  0
CIRCLE
  5
5FA
  8
SIZE
  6
CONTINUOUS
 10
865.270264
 20
2029.459473
 30
0.0
 40
0.1
  0
POINT
  5
5FB
  8
DEFPOINTS
  6
BYBLOCK
 10
315.270264
 20
2029.459473
 30
0.0
  0
POINT
  5
5FC
  8
DEFPOINTS
  6
BYBLOCK
 10
315.270264
 20
1829.459473
 30
0.0
  0
POINT
  5
5FD
  8
DEFPOINTS
  6
BYBLOCK
 10
865.270264
 20
1829.459473
 30
0.0
  0
ENDBLK
  5
5FE
  8
SIZE
  0
BLOCK
  8
SIZE
  2
*D7
 70
     1
 10
0.0
 20
0.0
 30
0.0
  3
*D7
  1

  0
TEXT
  5
601
  8
SIZE
  6
CONTINUOUS
 10
764.270239
 20
1010.53949
 30
0.0
 40
2.8
  1
1630
 50
90.00000499999999
 41
0.7
  7
STANDARD1
  0
LINE
  5
602
  8
SIZE
  6
CONTINUOUS
 10
316.270264
 20
199.459457
 30
0.0
 11
767.270264
 21
199.459457
 31
0.0
  0
LINE
  5
603
  8
SIZE
  6
CONTINUOUS
 10
316.270264
 20
1829.459473
 30
0.0
 11
767.270264
 21
1829.459473
 31
0.0
  0
LINE
  5
604
  8
SIZE
  6
CONTINUOUS
 10
765.270264
 20
199.459457
 30
0.0
 11
765.270264
 21
1829.459473
 31
0.0
  0
CIRCLE
  5
605
  8
SIZE
  6
CONTINUOUS
 10
765.270264
 20
199.459457
 30
0.0
 40
0.5
  0
CIRCLE
  5
606
  8
SIZE
  6
CONTINUOUS
 10
765.270264
 20
199.459457
 30
0.0
 40
0.4
  0
CIRCLE
  5
607
  8
SIZE
  6
CONTINUOUS
 10
765.270264
 20
199.459457
 30
0.0
 40
0.3
  0
CIRCLE
  5
608
  8
SIZE
  6
CONTINUOUS
 10
765.270264
 20
199.459457
 30
0.0
 40
0.2
  0
CIRCLE
  5
609
  8
SIZE
  6
CONTINUOUS
 10
765.270264
 20
199.459457
 30
0.0
 40
0.1
  0
CIRCLE
  5
60A
  8
SIZE
  6
CONTINUOUS
 10
765.270264
 20
1829.459473
 30
0.0
 40
0.5
  0
CIRCLE
  5
60B
  8
SIZE
  6
CONTINUOUS
 10
765.270264
 20
1829.459473
 30
0.0
 40
0.4
  0
CIRCLE
  5
60C
  8
SIZE
  6
CONTINUOUS
 10
765.270264
 20
1829.459473
 30
0.0
 40
0.3
  0
CIRCLE
  5
60D
  8
SIZE
  6
CONTINUOUS
 10
765.270264
 20
1829.459473
 30
0.0
 40
0.2
  0
CIRCLE
  5
60E
  8
SIZE
  6
CONTINUOUS
 10
765.270264
 20
1829.459473
 30
0.0
 40
0.1
  0
POINT
  5
60F
  8
DEFPOINTS
  6
BYBLOCK
 10
315.270264
 20
1829.459473
 30
0.0
  0
POINT
  5
610
  8
DEFPOINTS
  6
BYBLOCK
 10
315.270264
 20
199.459457
 30
0.0
  0
POINT
  5
611
  8
DEFPOINTS
  6
BYBLOCK
 10
765.270264
 20
199.459457
 30
0.0
  0
ENDBLK
  5
612
  8
SIZE
  0
BLOCK
  8
SIZE
  2
*D8
 70
     1
 10
0.0
 20
0.0
 30
0.0
  3
*D8
  1

  0
TEXT
  5
615
  8
SIZE
  6
CONTINUOUS
 10
864.270239
 20
910.53949
 30
0.0
 40
2.8
  1
1830
 50
90.00000499999999
 41
0.7
  7
STANDARD1
  0
LINE
  5
616
  8
SIZE
  6
CONTINUOUS
 10
311.270264
 20
-0.540541
 30
0.0
 11
867.270264
 21
-0.540541
 31
0.0
  0
LINE
  5
617
  8
SIZE
  6
CONTINUOUS
 10
316.270264
 20
1829.459473
 30
0.0
 11
867.270264
 21
1829.459473
 31
0.0
  0
LINE
  5
618
  8
SIZE
  6
CONTINUOUS
 10
865.270264
 20
-0.540541
 30
0.0
 11
865.270264
 21
1829.459473
 31
0.0
  0
CIRCLE
  5
619
  8
SIZE
  6
CONTINUOUS
 10
865.270264
 20
-0.540541
 30
0.0
 40
0.5
  0
CIRCLE
  5
61A
  8
SIZE
  6
CONTINUOUS
 10
865.270264
 20
-0.540541
 30
0.0
 40
0.4
  0
CIRCLE
  5
61B
  8
SIZE
  6
CONTINUOUS
 10
865.270264
 20
-0.540541
 30
0.0
 40
0.3
  0
CIRCLE
  5
61C
  8
SIZE
  6
CONTINUOUS
 10
865.270264
 20
-0.540541
 30
0.0
 40
0.2
  0
CIRCLE
  5
61D
  8
SIZE
  6
CONTINUOUS
 10
865.270264
 20
-0.540541
 30
0.0
 40
0.1
  0
CIRCLE
  5
61E
  8
SIZE
  6
CONTINUOUS
 10
865.270264
 20
1829.459473
 30
0.0
 40
0.5
  0
CIRCLE
  5
61F
  8
SIZE
  6
CONTINUOUS
 10
865.270264
 20
1829.459473
 30
0.0
 40
0.4
  0
CIRCLE
  5
620
  8
SIZE
  6
CONTINUOUS
 10
865.270264
 20
1829.459473
 30
0.0
 40
0.3
  0
CIRCLE
  5
621
  8
SIZE
  6
CONTINUOUS
 10
865.270264
 20
1829.459473
 30
0.0
 40
0.2
  0
CIRCLE
  5
622
  8
SIZE
  6
CONTINUOUS
 10
865.270264
 20
1829.459473
 30
0.0
 40
0.1
  0
POINT
  5
623
  8
DEFPOINTS
  6
BYBLOCK
 10
315.270264
 20
1829.459473
 30
0.0
  0
POINT
  5
624
  8
DEFPOINTS
  6
BYBLOCK
 10
310.270264
 20
-0.540541
 30
0.0
  0
POINT
  5
625
  8
DEFPOINTS
  6
BYBLOCK
 10
865.270264
 20
-0.540541
 30
0.0
  0
ENDBLK
  5
626
  8
SIZE
  0
BLOCK
  8
SIZE
  2
*D9
 70
     1
 10
0.0
 20
0.0
 30
0.0
  3
*D9
  1

  0
TEXT
  5
629
  8
SIZE
  6
CONTINUOUS
 10
-893.339563
 20
221.463394
 30
0.0
 40
2.8
  1
400
 50
90.00000499999999
 41
0.7
  7
STANDARD1
  0
LINE
  5
62A
  8
SIZE
  6
CONTINUOUS
 10
-310.729736
 20
-0.540541
 30
0.0
 11
-894.339539
 21
-0.540541
 31
0.0
  0
LINE
  5
62B
  8
SIZE
  6
CONTINUOUS
 10
-315.729736
 20
399.459473
 30
0.0
 11
-894.339539
 21
399.459473
 31
0.0
  0
LINE
  5
62C
  8
SIZE
  6
CONTINUOUS
 10
-892.339539
 20
-0.540541
 30
0.0
 11
-892.339539
 21
399.459473
 31
0.0
  0
CIRCLE
  5
62D
  8
SIZE
  6
CONTINUOUS
 10
-892.339539
 20
-0.540541
 30
0.0
 40
0.5
  0
CIRCLE
  5
62E
  8
SIZE
  6
CONTINUOUS
 10
-892.339539
 20
-0.540541
 30
0.0
 40
0.4
  0
CIRCLE
  5
62F
  8
SIZE
  6
CONTINUOUS
 10
-892.339539
 20
-0.540541
 30
0.0
 40
0.3
  0
CIRCLE
  5
630
  8
SIZE
  6
CONTINUOUS
 10
-892.339539
 20
-0.540541
 30
0.0
 40
0.2
  0
CIRCLE
  5
631
  8
SIZE
  6
CONTINUOUS
 10
-892.339539
 20
-0.540541
 30
0.0
 40
0.1
  0
CIRCLE
  5
632
  8
SIZE
  6
CONTINUOUS
 10
-892.339539
 20
399.459473
 30
0.0
 40
0.5
  0
CIRCLE
  5
633
  8
SIZE
  6
CONTINUOUS
 10
-892.339539
 20
399.459473
 30
0.0
 40
0.4
  0
CIRCLE
  5
634
  8
SIZE
  6
CONTINUOUS
 10
-892.339539
 20
399.459473
 30
0.0
 40
0.3
  0
CIRCLE
  5
635
  8
SIZE
  6
CONTINUOUS
 10
-892.339539
 20
399.459473
 30
0.0
 40
0.2
  0
CIRCLE
  5
636
  8
SIZE
  6
CONTINUOUS
 10
-892.339539
 20
399.459473
 30
0.0
 40
0.1
  0
POINT
  5
637
  8
DEFPOINTS
  6
BYBLOCK
 10
-314.729736
 20
399.459473
 30
0.0
  0
POINT
  5
638
  8
DEFPOINTS
  6
BYBLOCK
 10
-309.729736
 20
-0.540541
 30
0.0
  0
POINT
  5
639
  8
DEFPOINTS
  6
BYBLOCK
 10
-892.339539
 20
-0.540541
 30
0.0
  0
ENDBLK
  5
63A
  8
SIZE
  0
BLOCK
  8
SIZE
  2
*D10
 70
     1
 10
0.0
 20
0.0
 30
0.0
  3
*D10
  1

  0
TEXT
  5
63D
  8
SIZE
  6
CONTINUOUS
 10
764.270239
 20
96.519455
 30
0.0
 40
2.8
  1
200
 50
90.00000499999999
 41
0.7
  7
STANDARD1
  0
LINE
  5
63E
  8
SIZE
  6
CONTINUOUS
 10
311.270264
 20
-0.540541
 30
0.0
 11
767.270264
 21
-0.540541
 31
0.0
  0
LINE
  5
63F
  8
SIZE
  6
CONTINUOUS
 10
316.270264
 20
199.459457
 30
0.0
 11
767.270264
 21
199.459457
 31
0.0
  0
LINE
  5
640
  8
SIZE
  6
CONTINUOUS
 10
765.270264
 20
-0.540541
 30
0.0
 11
765.270264
 21
199.459457
 31
0.0
  0
CIRCLE
  5
641
  8
SIZE
  6
CONTINUOUS
 10
765.270264
 20
-0.540541
 30
0.0
 40
0.5
  0
CIRCLE
  5
642
  8
SIZE
  6
CONTINUOUS
 10
765.270264
 20
-0.540541
 30
0.0
 40
0.4
  0
CIRCLE
  5
643
  8
SIZE
  6
CONTINUOUS
 10
765.270264
 20
-0.540541
 30
0.0
 40
0.3
  0
CIRCLE
  5
644
  8
SIZE
  6
CONTINUOUS
 10
765.270264
 20
-0.540541
 30
0.0
 40
0.2
  0
CIRCLE
  5
645
  8
SIZE
  6
CONTINUOUS
 10
765.270264
 20
-0.540541
 30
0.0
 40
0.1
  0
CIRCLE
  5
646
  8
SIZE
  6
CONTINUOUS
 10
765.270264
 20
199.459457
 30
0.0
 40
0.5
  0
CIRCLE
  5
647
  8
SIZE
  6
CONTINUOUS
 10
765.270264
 20
199.459457
 30
0.0
 40
0.4
  0
CIRCLE
  5
648
  8
SIZE
  6
CONTINUOUS
 10
765.270264
 20
199.459457
 30
0.0
 40
0.3
  0
CIRCLE
  5
649
  8
SIZE
  6
CONTINUOUS
 10
765.270264
 20
199.459457
 30
0.0
 40
0.2
  0
CIRCLE
  5
64A
  8
SIZE
  6
CONTINUOUS
 10
765.270264
 20
199.459457
 30
0.0
 40
0.1
  0
POINT
  5
64B
  8
DEFPOINTS
  6
BYBLOCK
 10
315.270264
 20
199.459457
 30
0.0
  0
POINT
  5
64C
  8
DEFPOINTS
  6
BYBLOCK
 10
310.270264
 20
-0.540541
 30
0.0
  0
POINT
  5
64D
  8
DEFPOINTS
  6
BYBLOCK
 10
765.270264
 20
-0.540541
 30
0.0
  0
ENDBLK
  5
64E
  8
SIZE
  0
BLOCK
  8
SIZE
  2
*D11
 70
     1
 10
0.0
 20
0.0
 30
0.0
  3
*D11
  1

  0
TEXT
  5
651
  8
SIZE
  6
CONTINUOUS
 10
-693.339563
 20
156.519455
 30
0.0
 40
2.8
  1
320
 50
90.00000499999999
 41
0.7
  7
STANDARD1
  0
LINE
  5
652
  8
SIZE
  6
CONTINUOUS
 10
-90.729729
 20
319.459473
 30
0.0
 11
-694.339539
 21
319.459473
 31
0.0
  0
LINE
  5
653
  8
SIZE
  6
CONTINUOUS
 10
-315.729736
 20
-0.540541
 30
0.0
 11
-694.339539
 21
-0.540541
 31
0.0
  0
LINE
  5
654
  8
SIZE
  6
CONTINUOUS
 10
-692.339539
 20
319.459473
 30
0.0
 11
-692.339539
 21
-0.540541
 31
0.0
  0
CIRCLE
  5
655
  8
SIZE
  6
CONTINUOUS
 10
-692.339539
 20
319.459473
 30
0.0
 40
0.5
  0
CIRCLE
  5
656
  8
SIZE
  6
CONTINUOUS
 10
-692.339539
 20
319.459473
 30
0.0
 40
0.4
  0
CIRCLE
  5
657
  8
SIZE
  6
CONTINUOUS
 10
-692.339539
 20
319.459473
 30
0.0
 40
0.3
  0
CIRCLE
  5
658
  8
SIZE
  6
CONTINUOUS
 10
-692.339539
 20
319.459473
 30
0.0
 40
0.2
  0
CIRCLE
  5
659
  8
SIZE
  6
CONTINUOUS
 10
-692.339539
 20
319.459473
 30
0.0
 40
0.1
  0
CIRCLE
  5
65A
  8
SIZE
  6
CONTINUOUS
 10
-692.339539
 20
-0.540541
 30
0.0
 40
0.5
  0
CIRCLE
  5
65B
  8
SIZE
  6
CONTINUOUS
 10
-692.339539
 20
-0.540541
 30
0.0
 40
0.4
  0
CIRCLE
  5
65C
  8
SIZE
  6
CONTINUOUS
 10
-692.339539
 20
-0.540541
 30
0.0
 40
0.3
  0
CIRCLE
  5
65D
  8
SIZE
  6
CONTINUOUS
 10
-692.339539
 20
-0.540541
 30
0.0
 40
0.2
  0
CIRCLE
  5
65E
  8
SIZE
  6
CONTINUOUS
 10
-692.339539
 20
-0.540541
 30
0.0
 40
0.1
  0
POINT
  5
65F
  8
DEFPOINTS
  6
BYBLOCK
 10
-314.729736
 20
-0.540541
 30
0.0
  0
POINT
  5
660
  8
DEFPOINTS
  6
BYBLOCK
 10
-89.729729
 20
319.459473
 30
0.0
  0
POINT
  5
661
  8
DEFPOINTS
  6
BYBLOCK
 10
-692.339539
 20
319.459473
 30
0.0
  0
ENDBLK
  5
662
  8
SIZE
  0
BLOCK
  8
SIZE
  2
*D12
 70
     1
 10
0.0
 20
0.0
 30
0.0
  3
*D12
  1

  0
TEXT
  5
665
  8
SIZE
  6
CONTINUOUS
 10
-1093.339624
 20
933.03949
 30
0.0
 40
2.8
  1
1875
 50
90.00000499999999
 41
0.7
  7
STANDARD1
  0
LINE
  5
666
  8
SIZE
  6
CONTINUOUS
 10
-310.729736
 20
-0.540541
 30
0.0
 11
-1094.3396
 21
-0.540541
 31
0.0
  0
LINE
  5
667
  8
SIZE
  6
CONTINUOUS
 10
-40.729729
 20
1874.459473
 30
0.0
 11
-1094.3396
 21
1874.459473
 31
0.0
  0
LINE
  5
668
  8
SIZE
  6
CONTINUOUS
 10
-1092.3396
 20
-0.540541
 30
0.0
 11
-1092.3396
 21
1874.459473
 31
0.0
  0
CIRCLE
  5
669
  8
SIZE
  6
CONTINUOUS
 10
-1092.3396
 20
-0.540541
 30
0.0
 40
0.5
  0
CIRCLE
  5
66A
  8
SIZE
  6
CONTINUOUS
 10
-1092.3396
 20
-0.540541
 30
0.0
 40
0.4
  0
CIRCLE
  5
66B
  8
SIZE
  6
CONTINUOUS
 10
-1092.3396
 20
-0.540541
 30
0.0
 40
0.3
  0
CIRCLE
  5
66C
  8
SIZE
  6
CONTINUOUS
 10
-1092.3396
 20
-0.540541
 30
0.0
 40
0.2
  0
CIRCLE
  5
66D
  8
SIZE
  6
CONTINUOUS
 10
-1092.3396
 20
-0.540541
 30
0.0
 40
0.1
  0
CIRCLE
  5
66E
  8
SIZE
  6
CONTINUOUS
 10
-1092.3396
 20
1874.459473
 30
0.0
 40
0.5
  0
CIRCLE
  5
66F
  8
SIZE
  6
CONTINUOUS
 10
-1092.3396
 20
1874.459473
 30
0.0
 40
0.4
  0
CIRCLE
  5
670
  8
SIZE
  6
CONTINUOUS
 10
-1092.3396
 20
1874.459473
 30
0.0
 40
0.3
  0
CIRCLE
  5
671
  8
SIZE
  6
CONTINUOUS
 10
-1092.3396
 20
1874.459473
 30
0.0
 40
0.2
  0
CIRCLE
  5
672
  8
SIZE
  6
CONTINUOUS
 10
-1092.3396
 20
1874.459473
 30
0.0
 40
0.1
  0
POINT
  5
673
  8
DEFPOINTS
  6
BYBLOCK
 10
-39.729729
 20
1874.459473
 30
0.0
  0
POINT
  5
674
  8
DEFPOINTS
  6
BYBLOCK
 10
-309.729736
 20
-0.540541
 30
0.0
  0
POINT
  5
675
  8
DEFPOINTS
  6
BYBLOCK
 10
-1092.3396
 20
-0.540541
 30
0.0
  0
ENDBLK
  5
676
  8
SIZE
  0
BLOCK
  8
SIZE
  2
*D13
 70
     1
 10
0.0
 20
0.0
 30
0.0
  3
*D13
  1

  0
TEXT
  5
679
  8
SIZE
  6
CONTINUOUS
 10
-993.339563
 20
922.03949
 30
0.0
 40
2.8
  1
1853
 50
90.00000499999999
 41
0.7
  7
STANDARD1
  0
LINE
  5
67A
  8
SIZE
  6
CONTINUOUS
 10
-310.729736
 20
-0.540541
 30
0.0
 11
-994.339539
 21
-0.540541
 31
0.0
  0
LINE
  5
67B
  8
SIZE
  6
CONTINUOUS
 10
-50.729729
 20
1852.459473
 30
0.0
 11
-994.339539
 21
1852.459473
 31
0.0
  0
LINE
  5
67C
  8
SIZE
  6
CONTINUOUS
 10
-992.339539
 20
-0.540541
 30
0.0
 11
-992.339539
 21
1852.459473
 31
0.0
  0
CIRCLE
  5
67D
  8
SIZE
  6
CONTINUOUS
 10
-992.339539
 20
-0.540541
 30
0.0
 40
0.5
  0
CIRCLE
  5
67E
  8
SIZE
  6
CONTINUOUS
 10
-992.339539
 20
-0.540541
 30
0.0
 40
0.4
  0
CIRCLE
  5
67F
  8
SIZE
  6
CONTINUOUS
 10
-992.339539
 20
-0.540541
 30
0.0
 40
0.3
  0
CIRCLE
  5
680
  8
SIZE
  6
CONTINUOUS
 10
-992.339539
 20
-0.540541
 30
0.0
 40
0.2
  0
CIRCLE
  5
681
  8
SIZE
  6
CONTINUOUS
 10
-992.339539
 20
-0.540541
 30
0.0
 40
0.1
  0
CIRCLE
  5
682
  8
SIZE
  6
CONTINUOUS
 10
-992.339539
 20
1852.459473
 30
0.0
 40
0.5
  0
CIRCLE
  5
683
  8
SIZE
  6
CONTINUOUS
 10
-992.339539
 20
1852.459473
 30
0.0
 40
0.4
  0
CIRCLE
  5
684
  8
SIZE
  6
CONTINUOUS
 10
-992.339539
 20
1852.459473
 30
0.0
 40
0.3
  0
CIRCLE
  5
685
  8
SIZE
  6
CONTINUOUS
 10
-992.339539
 20
1852.459473
 30
0.0
 40
0.2
  0
CIRCLE
  5
686
  8
SIZE
  6
CONTINUOUS
 10
-992.339539
 20
1852.459473
 30
0.0
 40
0.1
  0
POINT
  5
687
  8
DEFPOINTS
  6
BYBLOCK
 10
-49.729729
 20
1852.459473
 30
0.0
  0
POINT
  5
688
  8
DEFPOINTS
  6
BYBLOCK
 10
-309.729736
 20
-0.540541
 30
0.0
  0
POINT
  5
689
  8
DEFPOINTS
  6
BYBLOCK
 10
-992.339539
 20
-0.540541
 30
0.0
  0
ENDBLK
  5
68A
  8
SIZE
  0
BLOCK
  8
SIZE
  2
*D14
 70
     1
 10
0.0
 20
0.0
 30
0.0
  3
*D14
  1

  0
TEXT
  5
68D
  8
SIZE
  6
CONTINUOUS
 10
-36.689728
 20
-254.082541
 30
0.0
 40
2.8
  1
70
 50
0.000003
 41
0.7
  7
STANDARD1
  0
LINE
  5
68E
  8
SIZE
  6
CONTINUOUS
 10
0.27027
 20
-51.540539
 30
0.0
 11
0.27027
 21
-257.08252
 31
0.0
  0
LINE
  5
68F
  8
SIZE
  6
CONTINUOUS
 10
-69.729729
 20
298.459473
 30
0.0
 11
-69.729729
 21
-257.08252
 31
0.0
  0
LINE
  5
690
  8
SIZE
  6
CONTINUOUS
 10
0.27027
 20
-255.082535
 30
0.0
 11
-69.729729
 21
-255.082535
 31
0.0
  0
CIRCLE
  5
691
  8
SIZE
  6
CONTINUOUS
 10
0.27027
 20
-255.082535
 30
0.0
 40
0.5
  0
CIRCLE
  5
692
  8
SIZE
  6
CONTINUOUS
 10
0.27027
 20
-255.082535
 30
0.0
 40
0.4
  0
CIRCLE
  5
693
  8
SIZE
  6
CONTINUOUS
 10
0.27027
 20
-255.082535
 30
0.0
 40
0.3
  0
CIRCLE
  5
694
  8
SIZE
  6
CONTINUOUS
 10
0.27027
 20
-255.082535
 30
0.0
 40
0.2
  0
CIRCLE
  5
695
  8
SIZE
  6
CONTINUOUS
 10
0.27027
 20
-255.082535
 30
0.0
 40
0.1
  0
CIRCLE
  5
696
  8
SIZE
  6
CONTINUOUS
 10
-69.729729
 20
-255.082535
 30
0.0
 40
0.5
  0
CIRCLE
  5
697
  8
SIZE
  6
CONTINUOUS
 10
-69.729729
 20
-255.082535
 30
0.0
 40
0.4
  0
CIRCLE
  5
698
  8
SIZE
  6
CONTINUOUS
 10
-69.729729
 20
-255.082535
 30
0.0
 40
0.3
  0
CIRCLE
  5
699
  8
SIZE
  6
CONTINUOUS
 10
-69.729729
 20
-255.082535
 30
0.0
 40
0.2
  0
CIRCLE
  5
69A
  8
SIZE
  6
CONTINUOUS
 10
-69.729729
 20
-255.082535
 30
0.0
 40
0.1
  0
POINT
  5
69B
  8
DEFPOINTS
  6
BYBLOCK
 10
-69.729729
 20
299.459473
 30
0.0
  0
POINT
  5
69C
  8
DEFPOINTS
  6
BYBLOCK
 10
0.27027
 20
-50.540539
 30
0.0
  0
POINT
  5
69D
  8
DEFPOINTS
  6
BYBLOCK
 10
0.27027
 20
-255.082535
 30
0.0
  0
ENDBLK
  5
69E
  8
SIZE
  0
BLOCK
  8
SIZE
  2
*D15
 70
     1
 10
0.0
 20
0.0
 30
0.0
  3
*D15
  1

  0
TEXT
  5
6A1
  8
SIZE
  6
CONTINUOUS
 10
87.330269
 20
-254.082541
 30
0.0
 40
2.8
  1
180
 50
0.000003
 41
0.7
  7
STANDARD1
  0
LINE
  5
6A2
  8
SIZE
  6
CONTINUOUS
 10
0.27027
 20
-51.540539
 30
0.0
 11
0.27027
 21
-257.08252
 31
0.0
  0
LINE
  5
6A3
  8
SIZE
  6
CONTINUOUS
 10
180.270264
 20
378.459473
 30
0.0
 11
180.270264
 21
-257.08252
 31
0.0
  0
LINE
  5
6A4
  8
SIZE
  6
CONTINUOUS
 10
0.27027
 20
-255.082535
 30
0.0
 11
180.270264
 21
-255.082535
 31
0.0
  0
CIRCLE
  5
6A5
  8
SIZE
  6
CONTINUOUS
 10
0.27027
 20
-255.082535
 30
0.0
 40
0.5
  0
CIRCLE
  5
6A6
  8
SIZE
  6
CONTINUOUS
 10
0.27027
 20
-255.082535
 30
0.0
 40
0.4
  0
CIRCLE
  5
6A7
  8
SIZE
  6
CONTINUOUS
 10
0.27027
 20
-255.082535
 30
0.0
 40
0.3
  0
CIRCLE
  5
6A8
  8
SIZE
  6
CONTINUOUS
 10
0.27027
 20
-255.082535
 30
0.0
 40
0.2
  0
CIRCLE
  5
6A9
  8
SIZE
  6
CONTINUOUS
 10
0.27027
 20
-255.082535
 30
0.0
 40
0.1
  0
CIRCLE
  5
6AA
  8
SIZE
  6
CONTINUOUS
 10
180.270264
 20
-255.082535
 30
0.0
 40
0.5
  0
CIRCLE
  5
6AB
  8
SIZE
  6
CONTINUOUS
 10
180.270264
 20
-255.082535
 30
0.0
 40
0.4
  0
CIRCLE
  5
6AC
  8
SIZE
  6
CONTINUOUS
 10
180.270264
 20
-255.082535
 30
0.0
 40
0.3
  0
CIRCLE
  5
6AD
  8
SIZE
  6
CONTINUOUS
 10
180.270264
 20
-255.082535
 30
0.0
 40
0.2
  0
CIRCLE
  5
6AE
  8
SIZE
  6
CONTINUOUS
 10
180.270264
 20
-255.082535
 30
0.0
 40
0.1
  0
POINT
  5
6AF
  8
DEFPOINTS
  6
BYBLOCK
 10
180.270264
 20
379.459473
 30
0.0
  0
POINT
  5
6B0
  8
DEFPOINTS
  6
BYBLOCK
 10
0.27027
 20
-50.540539
 30
0.0
  0
POINT
  5
6B1
  8
DEFPOINTS
  6
BYBLOCK
 10
0.27027
 20
-255.082535
 30
0.0
  0
ENDBLK
  5
6B2
  8
SIZE
  0
BLOCK
  8
SIZE
  2
*D16
 70
     1
 10
0.0
 20
0.0
 30
0.0
  3
*D16
  1

  0
TEXT
  5
6B5
  8
SIZE
  6
CONTINUOUS
 10
91.330269
 20
-354.082526
 30
0.0
 40
2.8
  1
188
 50
0.000003
 41
0.7
  7
STANDARD1
  0
LINE
  5
6B6
  8
SIZE
  6
CONTINUOUS
 10
0.27027
 20
-51.540539
 30
0.0
 11
0.27027
 21
-357.08252
 31
0.0
  0
LINE
  5
6B7
  8
SIZE
  6
CONTINUOUS
 10
188.270264
 20
133.459457
 30
0.0
 11
188.270264
 21
-357.08252
 31
0.0
  0
LINE
  5
6B8
  8
SIZE
  6
CONTINUOUS
 10
0.27027
 20
-355.08252
 30
0.0
 11
188.270264
 21
-355.08252
 31
0.0
  0
CIRCLE
  5
6B9
  8
SIZE
  6
CONTINUOUS
 10
0.27027
 20
-355.08252
 30
0.0
 40
0.5
  0
CIRCLE
  5
6BA
  8
SIZE
  6
CONTINUOUS
 10
0.27027
 20
-355.08252
 30
0.0
 40
0.4
  0
CIRCLE
  5
6BB
  8
SIZE
  6
CONTINUOUS
 10
0.27027
 20
-355.08252
 30
0.0
 40
0.3
  0
CIRCLE
  5
6BC
  8
SIZE
  6
CONTINUOUS
 10
0.27027
 20
-355.08252
 30
0.0
 40
0.2
  0
CIRCLE
  5
6BD
  8
SIZE
  6
CONTINUOUS
 10
0.27027
 20
-355.08252
 30
0.0
 40
0.1
  0
CIRCLE
  5
6BE
  8
SIZE
  6
CONTINUOUS
 10
188.270264
 20
-355.08252
 30
0.0
 40
0.5
  0
CIRCLE
  5
6BF
  8
SIZE
  6
CONTINUOUS
 10
188.270264
 20
-355.08252
 30
0.0
 40
0.4
  0
CIRCLE
  5
6C0
  8
SIZE
  6
CONTINUOUS
 10
188.270264
 20
-355.08252
 30
0.0
 40
0.3
  0
CIRCLE
  5
6C1
  8
SIZE
  6
CONTINUOUS
 10
188.270264
 20
-355.08252
 30
0.0
 40
0.2
  0
CIRCLE
  5
6C2
  8
SIZE
  6
CONTINUOUS
 10
188.270264
 20
-355.08252
 30
0.0
 40
0.1
  0
POINT
  5
6C3
  8
DEFPOINTS
  6
BYBLOCK
 10
188.270264
 20
134.459457
 30
0.0
  0
POINT
  5
6C4
  8
DEFPOINTS
  6
BYBLOCK
 10
0.27027
 20
-50.540539
 30
0.0
  0
POINT
  5
6C5
  8
DEFPOINTS
  6
BYBLOCK
 10
0.27027
 20
-355.08252
 30
0.0
  0
ENDBLK
  5
6C6
  8
SIZE
  0
BLOCK
  8
SIZE
  2
*D17
 70
     1
 10
0.0
 20
0.0
 30
0.0
  3
*D17
  1

  0
TEXT
  5
6C9
  8
SIZE
  6
CONTINUOUS
 10
-130.169723
 20
-454.082526
 30
0.0
 40
2.8
  1
255
 50
0.000003
 41
0.7
  7
STANDARD1
  0
LINE
  5
6CA
  8
SIZE
  6
CONTINUOUS
 10
0.27027
 20
-51.540539
 30
0.0
 11
0.27027
 21
-457.08252
 31
0.0
  0
LINE
  5
6CB
  8
SIZE
  6
CONTINUOUS
 10
-254.729736
 20
338.459473
 30
0.0
 11
-254.729736
 21
-457.08252
 31
0.0
  0
LINE
  5
6CC
  8
SIZE
  6
CONTINUOUS
 10
0.27027
 20
-455.08252
 30
0.0
 11
-254.729736
 21
-455.08252
 31
0.0
  0
CIRCLE
  5
6CD
  8
SIZE
  6
CONTINUOUS
 10
0.27027
 20
-455.08252
 30
0.0
 40
0.5
  0
CIRCLE
  5
6CE
  8
SIZE
  6
CONTINUOUS
 10
0.27027
 20
-455.08252
 30
0.0
 40
0.4
  0
CIRCLE
  5
6CF
  8
SIZE
  6
CONTINUOUS
 10
0.27027
 20
-455.08252
 30
0.0
 40
0.3
  0
CIRCLE
  5
6D0
  8
SIZE
  6
CONTINUOUS
 10
0.27027
 20
-455.08252
 30
0.0
 40
0.2
  0
CIRCLE
  5
6D1
  8
SIZE
  6
CONTINUOUS
 10
0.27027
 20
-455.08252
 30
0.0
 40
0.1
  0
CIRCLE
  5
6D2
  8
SIZE
  6
CONTINUOUS
 10
-254.729736
 20
-455.08252
 30
0.0
 40
0.5
  0
CIRCLE
  5
6D3
  8
SIZE
  6
CONTINUOUS
 10
-254.729736
 20
-455.08252
 30
0.0
 40
0.4
  0
CIRCLE
  5
6D4
  8
SIZE
  6
CONTINUOUS
 10
-254.729736
 20
-455.08252
 30
0.0
 40
0.3
  0
CIRCLE
  5
6D5
  8
SIZE
  6
CONTINUOUS
 10
-254.729736
 20
-455.08252
 30
0.0
 40
0.2
  0
CIRCLE
  5
6D6
  8
SIZE
  6
CONTINUOUS
 10
-254.729736
 20
-455.08252
 30
0.0
 40
0.1
  0
POINT
  5
6D7
  8
DEFPOINTS
  6
BYBLOCK
 10
-254.729736
 20
339.459473
 30
0.0
  0
POINT
  5
6D8
  8
DEFPOINTS
  6
BYBLOCK
 10
0.27027
 20
-50.540539
 30
0.0
  0
POINT
  5
6D9
  8
DEFPOINTS
  6
BYBLOCK
 10
0.27027
 20
-455.08252
 30
0.0
  0
ENDBLK
  5
6DA
  8
SIZE
  0
BLOCK
  8
SIZE
  2
*D18
 70
     1
 10
0.0
 20
0.0
 30
0.0
  3
*D18
  1

  0
TEXT
  5
6DD
  8
SIZE
  6
CONTINUOUS
 10
112.330269
 20
-454.082526
 30
0.0
 40
2.8
  1
230
 50
0.000003
 41
0.7
  7
STANDARD1
  0
LINE
  5
6DE
  8
SIZE
  6
CONTINUOUS
 10
0.27027
 20
-51.540539
 30
0.0
 11
0.27027
 21
-457.08252
 31
0.0
  0
LINE
  5
6DF
  8
SIZE
  6
CONTINUOUS
 10
230.270264
 20
298.459473
 30
0.0
 11
230.270264
 21
-457.08252
 31
0.0
  0
LINE
  5
6E0
  8
SIZE
  6
CONTINUOUS
 10
0.27027
 20
-455.08252
 30
0.0
 11
230.270264
 21
-455.08252
 31
0.0
  0
CIRCLE
  5
6E1
  8
SIZE
  6
CONTINUOUS
 10
0.27027
 20
-455.08252
 30
0.0
 40
0.5
  0
CIRCLE
  5
6E2
  8
SIZE
  6
CONTINUOUS
 10
0.27027
 20
-455.08252
 30
0.0
 40
0.4
  0
CIRCLE
  5
6E3
  8
SIZE
  6
CONTINUOUS
 10
0.27027
 20
-455.08252
 30
0.0
 40
0.3
  0
CIRCLE
  5
6E4
  8
SIZE
  6
CONTINUOUS
 10
0.27027
 20
-455.08252
 30
0.0
 40
0.2
  0
CIRCLE
  5
6E5
  8
SIZE
  6
CONTINUOUS
 10
0.27027
 20
-455.08252
 30
0.0
 40
0.1
  0
CIRCLE
  5
6E6
  8
SIZE
  6
CONTINUOUS
 10
230.270264
 20
-455.08252
 30
0.0
 40
0.5
  0
CIRCLE
  5
6E7
  8
SIZE
  6
CONTINUOUS
 10
230.270264
 20
-455.08252
 30
0.0
 40
0.4
  0
CIRCLE
  5
6E8
  8
SIZE
  6
CONTINUOUS
 10
230.270264
 20
-455.08252
 30
0.0
 40
0.3
  0
CIRCLE
  5
6E9
  8
SIZE
  6
CONTINUOUS
 10
230.270264
 20
-455.08252
 30
0.0
 40
0.2
  0
CIRCLE
  5
6EA
  8
SIZE
  6
CONTINUOUS
 10
230.270264
 20
-455.08252
 30
0.0
 40
0.1
  0
POINT
  5
6EB
  8
DEFPOINTS
  6
BYBLOCK
 10
230.270264
 20
299.459473
 30
0.0
  0
POINT
  5
6EC
  8
DEFPOINTS
  6
BYBLOCK
 10
0.27027
 20
-50.540539
 30
0.0
  0
POINT
  5
6ED
  8
DEFPOINTS
  6
BYBLOCK
 10
0.27027
 20
-455.08252
 30
0.0
  0
ENDBLK
  5
6EE
  8
SIZE
  0
BLOCK
  8
SIZE
  2
*D19
 70
     1
 10
0.0
 20
0.0
 30
0.0
  3
*D19
  1

  0
TEXT
  5
6F1
  8
SIZE
  6
CONTINUOUS
 10
134.830261
 20
-554.082495
 30
0.0
 40
2.8
  1
275
 50
0.000003
 41
0.7
  7
STANDARD1
  0
LINE
  5
6F2
  8
SIZE
  6
CONTINUOUS
 10
0.27027
 20
-51.540539
 30
0.0
 11
0.27027
 21
-557.08252
 31
0.0
  0
LINE
  5
6F3
  8
SIZE
  6
CONTINUOUS
 10
275.270264
 20
378.459473
 30
0.0
 11
275.270264
 21
-557.08252
 31
0.0
  0
LINE
  5
6F4
  8
SIZE
  6
CONTINUOUS
 10
0.27027
 20
-555.08252
 30
0.0
 11
275.270264
 21
-555.08252
 31
0.0
  0
CIRCLE
  5
6F5
  8
SIZE
  6
CONTINUOUS
 10
0.27027
 20
-555.08252
 30
0.0
 40
0.5
  0
CIRCLE
  5
6F6
  8
SIZE
  6
CONTINUOUS
 10
0.27027
 20
-555.08252
 30
0.0
 40
0.4
  0
CIRCLE
  5
6F7
  8
SIZE
  6
CONTINUOUS
 10
0.27027
 20
-555.08252
 30
0.0
 40
0.3
  0
CIRCLE
  5
6F8
  8
SIZE
  6
CONTINUOUS
 10
0.27027
 20
-555.08252
 30
0.0
 40
0.2
  0
CIRCLE
  5
6F9
  8
SIZE
  6
CONTINUOUS
 10
0.27027
 20
-555.08252
 30
0.0
 40
0.1
  0
CIRCLE
  5
6FA
  8
SIZE
  6
CONTINUOUS
 10
275.270264
 20
-555.08252
 30
0.0
 40
0.5
  0
CIRCLE
  5
6FB
  8
SIZE
  6
CONTINUOUS
 10
275.270264
 20
-555.08252
 30
0.0
 40
0.4
  0
CIRCLE
  5
6FC
  8
SIZE
  6
CONTINUOUS
 10
275.270264
 20
-555.08252
 30
0.0
 40
0.3
  0
CIRCLE
  5
6FD
  8
SIZE
  6
CONTINUOUS
 10
275.270264
 20
-555.08252
 30
0.0
 40
0.2
  0
CIRCLE
  5
6FE
  8
SIZE
  6
CONTINUOUS
 10
275.270264
 20
-555.08252
 30
0.0
 40
0.1
  0
POINT
  5
6FF
  8
DEFPOINTS
  6
BYBLOCK
 10
275.270264
 20
379.459473
 30
0.0
  0
POINT
  5
700
  8
DEFPOINTS
  6
BYBLOCK
 10
0.27027
 20
-50.540539
 30
0.0
  0
POINT
  5
701
  8
DEFPOINTS
  6
BYBLOCK
 10
0.27027
 20
-555.08252
 30
0.0
  0
ENDBLK
  5
702
  8
SIZE
  0
BLOCK
  8
SIZE
  2
*D20
 70
     1
 10
0.0
 20
0.0
 30
0.0
  3
*D20
  1

  0
TEXT
  5
705
  8
SIZE
  6
CONTINUOUS
 10
-2.66973
 20
-654.082495
 30
0.0
 40
2.8
  1
496
 50
0.000003
 41
0.7
  7
STANDARD1
  0
LINE
  5
706
  8
SIZE
  6
CONTINUOUS
 10
248.270264
 20
-21.540541
 30
0.0
 11
248.270264
 21
-657.08252
 31
0.0
  0
LINE
  5
707
  8
SIZE
  6
CONTINUOUS
 10
-247.729736
 20
-21.540541
 30
0.0
 11
-247.729736
 21
-657.08252
 31
0.0
  0
LINE
  5
708
  8
SIZE
  6
CONTINUOUS
 10
248.270264
 20
-655.08252
 30
0.0
 11
-247.729736
 21
-655.08252
 31
0.0
  0
CIRCLE
  5
709
  8
SIZE
  6
CONTINUOUS
 10
248.270264
 20
-655.08252
 30
0.0
 40
0.5
  0
CIRCLE
  5
70A
  8
SIZE
  6
CONTINUOUS
 10
248.270264
 20
-655.08252
 30
0.0
 40
0.4
  0
CIRCLE
  5
70B
  8
SIZE
  6
CONTINUOUS
 10
248.270264
 20
-655.08252
 30
0.0
 40
0.3
  0
CIRCLE
  5
70C
  8
SIZE
  6
CONTINUOUS
 10
248.270264
 20
-655.08252
 30
0.0
 40
0.2
  0
CIRCLE
  5
70D
  8
SIZE
  6
CONTINUOUS
 10
248.270264
 20
-655.08252
 30
0.0
 40
0.1
  0
CIRCLE
  5
70E
  8
SIZE
  6
CONTINUOUS
 10
-247.729736
 20
-655.08252
 30
0.0
 40
0.5
  0
CIRCLE
  5
70F
  8
SIZE
  6
CONTINUOUS
 10
-247.729736
 20
-655.08252
 30
0.0
 40
0.4
  0
CIRCLE
  5
710
  8
SIZE
  6
CONTINUOUS
 10
-247.729736
 20
-655.08252
 30
0.0
 40
0.3
  0
CIRCLE
  5
711
  8
SIZE
  6
CONTINUOUS
 10
-247.729736
 20
-655.08252
 30
0.0
 40
0.2
  0
CIRCLE
  5
712
  8
SIZE
  6
CONTINUOUS
 10
-247.729736
 20
-655.08252
 30
0.0
 40
0.1
  0
POINT
  5
713
  8
DEFPOINTS
  6
BYBLOCK
 10
-247.729736
 20
-20.540541
 30
0.0
  0
POINT
  5
714
  8
DEFPOINTS
  6
BYBLOCK
 10
248.270264
 20
-20.540541
 30
0.0
  0
POINT
  5
715
  8
DEFPOINTS
  6
BYBLOCK
 10
248.270264
 20
-655.08252
 30
0.0
  0
ENDBLK
  5
716
  8
SIZE
  0
BLOCK
  8
SIZE
  2
*D21
 70
     1
 10
0.0
 20
0.0
 30
0.0
  3
*D21
  1

  0
TEXT
  5
719
  8
SIZE
  6
CONTINUOUS
 10
-2.66973
 20
-754.082495
 30
0.0
 40
2.8
  1
402
 50
0.000003
 41
0.7
  7
STANDARD1
  0
LINE
  5
71A
  8
SIZE
  6
CONTINUOUS
 10
201.270264
 20
-21.540541
 30
0.0
 11
201.270264
 21
-757.08252
 31
0.0
  0
LINE
  5
71B
  8
SIZE
  6
CONTINUOUS
 10
-200.729736
 20
-21.540541
 30
0.0
 11
-200.729736
 21
-757.08252
 31
0.0
  0
LINE
  5
71C
  8
SIZE
  6
CONTINUOUS
 10
201.270264
 20
-755.08252
 30
0.0
 11
-200.729736
 21
-755.08252
 31
0.0
  0
CIRCLE
  5
71D
  8
SIZE
  6
CONTINUOUS
 10
201.270264
 20
-755.08252
 30
0.0
 40
0.5
  0
CIRCLE
  5
71E
  8
SIZE
  6
CONTINUOUS
 10
201.270264
 20
-755.08252
 30
0.0
 40
0.4
  0
CIRCLE
  5
71F
  8
SIZE
  6
CONTINUOUS
 10
201.270264
 20
-755.08252
 30
0.0
 40
0.3
  0
CIRCLE
  5
720
  8
SIZE
  6
CONTINUOUS
 10
201.270264
 20
-755.08252
 30
0.0
 40
0.2
  0
CIRCLE
  5
721
  8
SIZE
  6
CONTINUOUS
 10
201.270264
 20
-755.08252
 30
0.0
 40
0.1
  0
CIRCLE
  5
722
  8
SIZE
  6
CONTINUOUS
 10
-200.729736
 20
-755.08252
 30
0.0
 40
0.5
  0
CIRCLE
  5
723
  8
SIZE
  6
CONTINUOUS
 10
-200.729736
 20
-755.08252
 30
0.0
 40
0.4
  0
CIRCLE
  5
724
  8
SIZE
  6
CONTINUOUS
 10
-200.729736
 20
-755.08252
 30
0.0
 40
0.3
  0
CIRCLE
  5
725
  8
SIZE
  6
CONTINUOUS
 10
-200.729736
 20
-755.08252
 30
0.0
 40
0.2
  0
CIRCLE
  5
726
  8
SIZE
  6
CONTINUOUS
 10
-200.729736
 20
-755.08252
 30
0.0
 40
0.1
  0
POINT
  5
727
  8
DEFPOINTS
  6
BYBLOCK
 10
-200.729736
 20
-20.540541
 30
0.0
  0
POINT
  5
728
  8
DEFPOINTS
  6
BYBLOCK
 10
201.270264
 20
-20.540541
 30
0.0
  0
POINT
  5
729
  8
DEFPOINTS
  6
BYBLOCK
 10
201.270264
 20
-755.08252
 30
0.0
  0
ENDBLK
  5
72A
  8
SIZE
  0
BLOCK
  8
SIZE
  2
*D22
 70
     1
 10
0.0
 20
0.0
 30
0.0
  3
*D22
  1

  0
TEXT
  5
72D
  8
SIZE
  6
CONTINUOUS
 10
-249.689743
 20
-754.082495
 30
0.0
 40
2.8
  1
94
 50
0.000003
 41
0.7
  7
STANDARD1
  0
LINE
  5
72E
  8
SIZE
  6
CONTINUOUS
 10
-200.729736
 20
-21.540541
 30
0.0
 11
-200.729736
 21
-757.08252
 31
0.0
  0
LINE
  5
72F
  8
SIZE
  6
CONTINUOUS
 10
-294.729736
 20
-21.540541
 30
0.0
 11
-294.729736
 21
-757.08252
 31
0.0
  0
LINE
  5
730
  8
SIZE
  6
CONTINUOUS
 10
-200.729736
 20
-755.08252
 30
0.0
 11
-294.729736
 21
-755.08252
 31
0.0
  0
CIRCLE
  5
731
  8
SIZE
  6
CONTINUOUS
 10
-200.729736
 20
-755.08252
 30
0.0
 40
0.5
  0
CIRCLE
  5
732
  8
SIZE
  6
CONTINUOUS
 10
-200.729736
 20
-755.08252
 30
0.0
 40
0.4
  0
CIRCLE
  5
733
  8
SIZE
  6
CONTINUOUS
 10
-200.729736
 20
-755.08252
 30
0.0
 40
0.3
  0
CIRCLE
  5
734
  8
SIZE
  6
CONTINUOUS
 10
-200.729736
 20
-755.08252
 30
0.0
 40
0.2
  0
CIRCLE
  5
735
  8
SIZE
  6
CONTINUOUS
 10
-200.729736
 20
-755.08252
 30
0.0
 40
0.1
  0
CIRCLE
  5
736
  8
SIZE
  6
CONTINUOUS
 10
-294.729736
 20
-755.08252
 30
0.0
 40
0.5
  0
CIRCLE
  5
737
  8
SIZE
  6
CONTINUOUS
 10
-294.729736
 20
-755.08252
 30
0.0
 40
0.4
  0
CIRCLE
  5
738
  8
SIZE
  6
CONTINUOUS
 10
-294.729736
 20
-755.08252
 30
0.0
 40
0.3
  0
CIRCLE
  5
739
  8
SIZE
  6
CONTINUOUS
 10
-294.729736
 20
-755.08252
 30
0.0
 40
0.2
  0
CIRCLE
  5
73A
  8
SIZE
  6
CONTINUOUS
 10
-294.729736
 20
-755.08252
 30
0.0
 40
0.1
  0
POINT
  5
73B
  8
DEFPOINTS
  6
BYBLOCK
 10
-294.729736
 20
-20.540541
 30
0.0
  0
POINT
  5
73C
  8
DEFPOINTS
  6
BYBLOCK
 10
-200.729736
 20
-20.540541
 30
0.0
  0
POINT
  5
73D
  8
DEFPOINTS
  6
BYBLOCK
 10
-200.729736
 20
-755.08252
 30
0.0
  0
ENDBLK
  5
73E
  8
SIZE
  0
BLOCK
  8
SIZE
  2
*D23
 70
     1
 10
0.0
 20
0.0
 30
0.0
  3
*D23
  1

  0
TEXT
  5
741
  8
SIZE
  6
CONTINUOUS
 10
246.310257
 20
-754.082495
 30
0.0
 40
2.8
  1
94
 50
0.000003
 41
0.7
  7
STANDARD1
  0
LINE
  5
742
  8
SIZE
  6
CONTINUOUS
 10
201.270264
 20
-21.540541
 30
0.0
 11
201.270264
 21
-757.08252
 31
0.0
  0
LINE
  5
743
  8
SIZE
  6
CONTINUOUS
 10
295.270264
 20
-21.540541
 30
0.0
 11
295.270264
 21
-757.08252
 31
0.0
  0
LINE
  5
744
  8
SIZE
  6
CONTINUOUS
 10
201.270264
 20
-755.08252
 30
0.0
 11
295.270264
 21
-755.08252
 31
0.0
  0
CIRCLE
  5
745
  8
SIZE
  6
CONTINUOUS
 10
201.270264
 20
-755.08252
 30
0.0
 40
0.5
  0
CIRCLE
  5
746
  8
SIZE
  6
CONTINUOUS
 10
201.270264
 20
-755.08252
 30
0.0
 40
0.4
  0
CIRCLE
  5
747
  8
SIZE
  6
CONTINUOUS
 10
201.270264
 20
-755.08252
 30
0.0
 40
0.3
  0
CIRCLE
  5
748
  8
SIZE
  6
CONTINUOUS
 10
201.270264
 20
-755.08252
 30
0.0
 40
0.2
  0
CIRCLE
  5
749
  8
SIZE
  6
CONTINUOUS
 10
201.270264
 20
-755.08252
 30
0.0
 40
0.1
  0
CIRCLE
  5
74A
  8
SIZE
  6
CONTINUOUS
 10
295.270264
 20
-755.08252
 30
0.0
 40
0.5
  0
CIRCLE
  5
74B
  8
SIZE
  6
CONTINUOUS
 10
295.270264
 20
-755.08252
 30
0.0
 40
0.4
  0
CIRCLE
  5
74C
  8
SIZE
  6
CONTINUOUS
 10
295.270264
 20
-755.08252
 30
0.0
 40
0.3
  0
CIRCLE
  5
74D
  8
SIZE
  6
CONTINUOUS
 10
295.270264
 20
-755.08252
 30
0.0
 40
0.2
  0
CIRCLE
  5
74E
  8
SIZE
  6
CONTINUOUS
 10
295.270264
 20
-755.08252
 30
0.0
 40
0.1
  0
POINT
  5
74F
  8
DEFPOINTS
  6
BYBLOCK
 10
295.270264
 20
-20.540541
 30
0.0
  0
POINT
  5
750
  8
DEFPOINTS
  6
BYBLOCK
 10
201.270264
 20
-20.540541
 30
0.0
  0
POINT
  5
751
  8
DEFPOINTS
  6
BYBLOCK
 10
201.270264
 20
-755.08252
 30
0.0
  0
ENDBLK
  5
752
  8
SIZE
  0
BLOCK
  8
SIZE
  2
*D24
 70
     1
 10
0.0
 20
0.0
 30
0.0
  3
*D24
  1

  0
TEXT
  5
755
  8
SIZE
  6
CONTINUOUS
 10
-2.66973
 20
-854.082495
 30
0.0
 40
2.8
  1
630
 50
0.000003
 41
0.7
  7
STANDARD1
  0
LINE
  5
756
  8
SIZE
  6
CONTINUOUS
 10
315.270264
 20
198.459457
 30
0.0
 11
315.270264
 21
-857.08252
 31
0.0
  0
LINE
  5
757
  8
SIZE
  6
CONTINUOUS
 10
-314.729736
 20
198.459457
 30
0.0
 11
-314.729736
 21
-857.08252
 31
0.0
  0
LINE
  5
758
  8
SIZE
  6
CONTINUOUS
 10
315.270264
 20
-855.08252
 30
0.0
 11
-314.729736
 21
-855.08252
 31
0.0
  0
CIRCLE
  5
759
  8
SIZE
  6
CONTINUOUS
 10
315.270264
 20
-855.08252
 30
0.0
 40
0.5
  0
CIRCLE
  5
75A
  8
SIZE
  6
CONTINUOUS
 10
315.270264
 20
-855.08252
 30
0.0
 40
0.4
  0
CIRCLE
  5
75B
  8
SIZE
  6
CONTINUOUS
 10
315.270264
 20
-855.08252
 30
0.0
 40
0.3
  0
CIRCLE
  5
75C
  8
SIZE
  6
CONTINUOUS
 10
315.270264
 20
-855.08252
 30
0.0
 40
0.2
  0
CIRCLE
  5
75D
  8
SIZE
  6
CONTINUOUS
 10
315.270264
 20
-855.08252
 30
0.0
 40
0.1
  0
CIRCLE
  5
75E
  8
SIZE
  6
CONTINUOUS
 10
-314.729736
 20
-855.08252
 30
0.0
 40
0.5
  0
CIRCLE
  5
75F
  8
SIZE
  6
CONTINUOUS
 10
-314.729736
 20
-855.08252
 30
0.0
 40
0.4
  0
CIRCLE
  5
760
  8
SIZE
  6
CONTINUOUS
 10
-314.729736
 20
-855.08252
 30
0.0
 40
0.3
  0
CIRCLE
  5
761
  8
SIZE
  6
CONTINUOUS
 10
-314.729736
 20
-855.08252
 30
0.0
 40
0.2
  0
CIRCLE
  5
762
  8
SIZE
  6
CONTINUOUS
 10
-314.729736
 20
-855.08252
 30
0.0
 40
0.1
  0
POINT
  5
763
  8
DEFPOINTS
  6
BYBLOCK
 10
-314.729736
 20
199.459457
 30
0.0
  0
POINT
  5
764
  8
DEFPOINTS
  6
BYBLOCK
 10
315.270264
 20
199.459457
 30
0.0
  0
POINT
  5
765
  8
DEFPOINTS
  6
BYBLOCK
 10
315.270264
 20
-855.08252
 30
0.0
  0
ENDBLK
  5
766
  8
SIZE
  0
BLOCK
  8
SIZE
  2
*D25
 70
     1
 10
0.0
 20
0.0
 30
0.0
  3
*D25
  1

  0
TEXT
  5
769
  8
SIZE
  6
CONTINUOUS
 10
464.27027
 20
74.019455
 30
0.0
 40
2.8
  1
155
 50
90.00000499999999
 41
0.7
  7
STANDARD1
  0
LINE
  5
76A
  8
SIZE
  6
CONTINUOUS
 10
311.270264
 20
-0.540541
 30
0.0
 11
467.270264
 21
-0.540541
 31
0.0
  0
LINE
  5
76B
  8
SIZE
  6
CONTINUOUS
 10
209.270264
 20
154.459457
 30
0.0
 11
467.270264
 21
154.459457
 31
0.0
  0
LINE
  5
76C
  8
SIZE
  6
CONTINUOUS
 10
465.270264
 20
-0.540541
 30
0.0
 11
465.270264
 21
154.459457
 31
0.0
  0
CIRCLE
  5
76D
  8
SIZE
  6
CONTINUOUS
 10
465.270264
 20
-0.540541
 30
0.0
 40
0.5
  0
CIRCLE
  5
76E
  8
SIZE
  6
CONTINUOUS
 10
465.270264
 20
-0.540541
 30
0.0
 40
0.4
  0
CIRCLE
  5
76F
  8
SIZE
  6
CONTINUOUS
 10
465.270264
 20
-0.540541
 30
0.0
 40
0.3
  0
CIRCLE
  5
770
  8
SIZE
  6
CONTINUOUS
 10
465.270264
 20
-0.540541
 30
0.0
 40
0.2
  0
CIRCLE
  5
771
  8
SIZE
  6
CONTINUOUS
 10
465.270264
 20
-0.540541
 30
0.0
 40
0.1
  0
CIRCLE
  5
772
  8
SIZE
  6
CONTINUOUS
 10
465.270264
 20
154.459457
 30
0.0
 40
0.5
  0
CIRCLE
  5
773
  8
SIZE
  6
CONTINUOUS
 10
465.270264
 20
154.459457
 30
0.0
 40
0.4
  0
CIRCLE
  5
774
  8
SIZE
  6
CONTINUOUS
 10
465.270264
 20
154.459457
 30
0.0
 40
0.3
  0
CIRCLE
  5
775
  8
SIZE
  6
CONTINUOUS
 10
465.270264
 20
154.459457
 30
0.0
 40
0.2
  0
CIRCLE
  5
776
  8
SIZE
  6
CONTINUOUS
 10
465.270264
 20
154.459457
 30
0.0
 40
0.1
  0
POINT
  5
777
  8
DEFPOINTS
  6
BYBLOCK
 10
208.270264
 20
154.459457
 30
0.0
  0
POINT
  5
778
  8
DEFPOINTS
  6
BYBLOCK
 10
310.270264
 20
-0.540541
 30
0.0
  0
POINT
  5
779
  8
DEFPOINTS
  6
BYBLOCK
 10
465.270264
 20
-0.540541
 30
0.0
  0
ENDBLK
  5
77A
  8
SIZE
  0
BLOCK
  8
SIZE
  2
*D26
 70
     1
 10
0.0
 20
0.0
 30
0.0
  3
*D26
  1

  0
TEXT
  5
77D
  8
SIZE
  6
CONTINUOUS
 10
564.270239
 20
156.519455
 30
0.0
 40
2.8
  1
320
 50
90.00000499999999
 41
0.7
  7
STANDARD1
  0
LINE
  5
77E
  8
SIZE
  6
CONTINUOUS
 10
251.270264
 20
319.459473
 30
0.0
 11
567.270264
 21
319.459473
 31
0.0
  0
LINE
  5
77F
  8
SIZE
  6
CONTINUOUS
 10
311.270264
 20
-0.540541
 30
0.0
 11
567.270264
 21
-0.540541
 31
0.0
  0
LINE
  5
780
  8
SIZE
  6
CONTINUOUS
 10
565.270264
 20
319.459473
 30
0.0
 11
565.270264
 21
-0.540541
 31
0.0
  0
CIRCLE
  5
781
  8
SIZE
  6
CONTINUOUS
 10
565.270264
 20
319.459473
 30
0.0
 40
0.5
  0
CIRCLE
  5
782
  8
SIZE
  6
CONTINUOUS
 10
565.270264
 20
319.459473
 30
0.0
 40
0.4
  0
CIRCLE
  5
783
  8
SIZE
  6
CONTINUOUS
 10
565.270264
 20
319.459473
 30
0.0
 40
0.3
  0
CIRCLE
  5
784
  8
SIZE
  6
CONTINUOUS
 10
565.270264
 20
319.459473
 30
0.0
 40
0.2
  0
CIRCLE
  5
785
  8
SIZE
  6
CONTINUOUS
 10
565.270264
 20
319.459473
 30
0.0
 40
0.1
  0
CIRCLE
  5
786
  8
SIZE
  6
CONTINUOUS
 10
565.270264
 20
-0.540541
 30
0.0
 40
0.5
  0
CIRCLE
  5
787
  8
SIZE
  6
CONTINUOUS
 10
565.270264
 20
-0.540541
 30
0.0
 40
0.4
  0
CIRCLE
  5
788
  8
SIZE
  6
CONTINUOUS
 10
565.270264
 20
-0.540541
 30
0.0
 40
0.3
  0
CIRCLE
  5
789
  8
SIZE
  6
CONTINUOUS
 10
565.270264
 20
-0.540541
 30
0.0
 40
0.2
  0
CIRCLE
  5
78A
  8
SIZE
  6
CONTINUOUS
 10
565.270264
 20
-0.540541
 30
0.0
 40
0.1
  0
POINT
  5
78B
  8
DEFPOINTS
  6
BYBLOCK
 10
310.270264
 20
-0.540541
 30
0.0
  0
POINT
  5
78C
  8
DEFPOINTS
  6
BYBLOCK
 10
250.270264
 20
319.459473
 30
0.0
  0
POINT
  5
78D
  8
DEFPOINTS
  6
BYBLOCK
 10
565.270264
 20
319.459473
 30
0.0
  0
ENDBLK
  5
78E
  8
SIZE
  0
BLOCK
  8
SIZE
  2
*D27
 70
     1
 10
0.0
 20
0.0
 30
0.0
  3
*D27
  1

  0
TEXT
  5
791
  8
SIZE
  6
CONTINUOUS
 10
667.315894
 20
160.833252
 30
0.0
 40
2.8
  1
400
 50
90.00000499999999
 41
0.7
  7
STANDARD1
  0
LINE
  5
792
  8
SIZE
  6
CONTINUOUS
 10
316.270264
 20
399.459473
 30
0.0
 11
670.315918
 21
399.459473
 31
0.0
  0
LINE
  5
793
  8
SIZE
  6
CONTINUOUS
 10
311.270264
 20
-0.540541
 30
0.0
 11
670.315918
 21
-0.540541
 31
0.0
  0
LINE
  5
794
  8
SIZE
  6
CONTINUOUS
 10
668.315918
 20
399.459473
 30
0.0
 11
668.315918
 21
-0.540541
 31
0.0
  0
CIRCLE
  5
795
  8
SIZE
  6
CONTINUOUS
 10
668.315918
 20
399.459473
 30
0.0
 40
0.5
  0
CIRCLE
  5
796
  8
SIZE
  6
CONTINUOUS
 10
668.315918
 20
399.459473
 30
0.0
 40
0.4
  0
CIRCLE
  5
797
  8
SIZE
  6
CONTINUOUS
 10
668.315918
 20
399.459473
 30
0.0
 40
0.3
  0
CIRCLE
  5
798
  8
SIZE
  6
CONTINUOUS
 10
668.315918
 20
399.459473
 30
0.0
 40
0.2
  0
CIRCLE
  5
799
  8
SIZE
  6
CONTINUOUS
 10
668.315918
 20
399.459473
 30
0.0
 40
0.1
  0
CIRCLE
  5
79A
  8
SIZE
  6
CONTINUOUS
 10
668.315918
 20
-0.540541
 30
0.0
 40
0.5
  0
CIRCLE
  5
79B
  8
SIZE
  6
CONTINUOUS
 10
668.315918
 20
-0.540541
 30
0.0
 40
0.4
  0
CIRCLE
  5
79C
  8
SIZE
  6
CONTINUOUS
 10
668.315918
 20
-0.540541
 30
0.0
 40
0.3
  0
CIRCLE
  5
79D
  8
SIZE
  6
CONTINUOUS
 10
668.315918
 20
-0.540541
 30
0.0
 40
0.2
  0
CIRCLE
  5
79E
  8
SIZE
  6
CONTINUOUS
 10
668.315918
 20
-0.540541
 30
0.0
 40
0.1
  0
POINT
  5
79F
  8
DEFPOINTS
  6
BYBLOCK
 10
310.270264
 20
-0.540541
 30
0.0
  0
POINT
  5
7A0
  8
DEFPOINTS
  6
BYBLOCK
 10
315.270264
 20
399.459473
 30
0.0
  0
POINT
  5
7A1
  8
DEFPOINTS
  6
BYBLOCK
 10
668.315918
 20
399.459473
 30
0.0
  0
ENDBLK
  5
7A2
  8
SIZE
  0
BLOCK
  8
0
  2
_ORIGIN
 70
     0
 10
0.0
 20
0.0
 30
0.0
  3
_ORIGIN
  1

  0
CIRCLE
  5
7A5
  8
0
  6
BYBLOCK
 62
     0
 10
0.0
 20
0.0
 30
0.0
 40
0.5
  0
LINE
  5
7A6
  8
0
  6
BYBLOCK
 62
     0
 10
0.0
 20
0.0
 30
0.0
 11
-1.0
 21
0.0
 31
0.0
  0
ENDBLK
  5
7A7
  8
0
  0
BLOCK
  8
0
  2
*D29
 70
     1
 10
0.0
 20
0.0
 30
0.0
  3
*D29
  1

  0
LINE
  5
7AA
  8
0
  6
BYBLOCK
 62
     0
 10
320.270264
 20
-0.540541
 30
0.0
 11
678.415918
 21
-0.540541
 31
0.0
  0
LINE
  5
7AB
  8
0
  6
BYBLOCK
 62
     0
 10
325.270264
 20
399.459473
 30
0.0
 11
678.415918
 21
399.459473
 31
0.0
  0
LINE
  5
7AC
  8
0
  6
BYBLOCK
 62
     0
 10
665.915918
 20
9.459459
 30
0.0
 11
665.915918
 21
389.459473
 31
0.0
  0
INSERT
  5
7AD
  8
0
  6
BYBLOCK
 62
     0
  2
_ORIGIN
 10
665.915918
 20
-0.540541
 30
0.0
 41
10.0
 42
10.0
 43
10.0
 50
270.0
  0
INSERT
  5
7AE
  8
0
  6
BYBLOCK
 62
     0
  2
_ORIGIN
 10
665.915918
 20
399.459473
 30
0.0
 41
10.0
 42
10.0
 43
10.0
 50
90.0
  0
TEXT
  5
7AF
  8
0
  6
BYBLOCK
 62
     0
 10
655.915918
 20
123.873254
 30
0.0
 40
30.0
  1
400
 50
90.0
 72
     1
 11
655.915918
 21
163.773254
 31
0.0
  0
POINT
  5
7B0
  8
DEFPOINTS
  6
BYBLOCK
 62
     0
 10
310.270264
 20
-0.540541
 30
0.0
  0
POINT
  5
7B1
  8
DEFPOINTS
  6
BYBLOCK
 62
     0
 10
315.270264
 20
399.459473
 30
0.0
  0
POINT
  5
7B2
  8
DEFPOINTS
  6
BYBLOCK
 62
     0
 10
665.915918
 20
399.459473
 30
0.0
  0
ENDBLK
  5
7B3
  8
0
  0
BLOCK
  8
0
  2
*D30
 70
     1
 10
0.0
 20
0.0
 30
0.0
  3
*D30
  1

  0
LINE
  5
7B6
  8
0
  6
BYBLOCK
 62
     0
 10
320.270264
 20
-0.540541
 30
0.0
 11
575.370264
 21
-0.540541
 31
0.0
  0
LINE
  5
7B7
  8
0
  6
BYBLOCK
 62
     0
 10
260.270264
 20
319.459473
 30
0.0
 11
575.370264
 21
319.459473
 31
0.0
  0
LINE
  5
7B8
  8
0
  6
BYBLOCK
 62
     0
 10
562.870264
 20
9.459459
 30
0.0
 11
562.870264
 21
309.459473
 31
0.0
  0
INSERT
  5
7B9
  8
0
  6
BYBLOCK
 62
     0
  2
_ORIGIN
 10
562.870264
 20
-0.540541
 30
0.0
 41
10.0
 42
10.0
 43
10.0
 50
270.0
  0
INSERT
  5
7BA
  8
0
  6
BYBLOCK
 62
     0
  2
_ORIGIN
 10
562.870264
 20
319.459473
 30
0.0
 41
10.0
 42
10.0
 43
10.0
 50
90.0
  0
TEXT
  5
7BB
  8
0
  6
BYBLOCK
 62
     0
 10
552.870264
 20
117.009457
 30
0.0
 40
30.0
  1
320
 50
90.0
 72
     1
 11
552.870264
 21
159.459457
 31
0.0
  0
POINT
  5
7BC
  8
DEFPOINTS
  6
BYBLOCK
 62
     0
 10
310.270264
 20
-0.540541
 30
0.0
  0
POINT
  5
7BD
  8
DEFPOINTS
  6
BYBLOCK
 62
     0
 10
250.270264
 20
319.459473
 30
0.0
  0
POINT
  5
7BE
  8
DEFPOINTS
  6
BYBLOCK
 62
     0
 10
562.870264
 20
319.459473
 30
0.0
  0
ENDBLK
  5
7BF
  8
0
  0
BLOCK
  8
0
  2
*D31
 70
     1
 10
0.0
 20
0.0
 30
0.0
  3
*D31
  1

  0
LINE
  5
7C2
  8
0
  6
BYBLOCK
 62
     0
 10
218.270264
 20
154.459457
 30
0.0
 11
475.370264
 21
154.459457
 31
0.0
  0
LINE
  5
7C3
  8
0
  6
BYBLOCK
 62
     0
 10
320.270264
 20
-0.540541
 30
0.0
 11
475.370264
 21
-0.540541
 31
0.0
  0
LINE
  5
7C4
  8
0
  6
BYBLOCK
 62
     0
 10
462.870264
 20
144.459457
 30
0.0
 11
462.870264
 21
9.459459
 31
0.0
  0
INSERT
  5
7C5
  8
0
  6
BYBLOCK
 62
     0
  2
_ORIGIN
 10
462.870264
 20
154.459457
 30
0.0
 41
10.0
 42
10.0
 43
10.0
 50
90.0
  0
INSERT
  5
7C6
  8
0
  6
BYBLOCK
 62
     0
  2
_ORIGIN
 10
462.870264
 20
-0.540541
 30
0.0
 41
10.0
 42
10.0
 43
10.0
 50
270.0
  0
TEXT
  5
7C7
  8
0
  6
BYBLOCK
 62
     0
 10
452.870264
 20
37.209457
 30
0.0
 40
30.0
  1
155
 50
90.0
 72
     1
 11
452.870264
 21
76.959457
 31
0.0
  0
POINT
  5
7C8
  8
DEFPOINTS
  6
BYBLOCK
 62
     0
 10
208.270264
 20
154.459457
 30
0.0
  0
POINT
  5
7C9
  8
DEFPOINTS
  6
BYBLOCK
 62
     0
 10
310.270264
 20
-0.540541
 30
0.0
  0
POINT
  5
7CA
  8
DEFPOINTS
  6
BYBLOCK
 62
     0
 10
462.870264
 20
-0.540541
 30
0.0
  0
ENDBLK
  5
7CB
  8
0
  0
BLOCK
  8
0
  2
*D32
 70
     1
 10
0.0
 20
0.0
 30
0.0
  3
*D32
  1

  0
LINE
  5
7CE
  8
0
  6
BYBLOCK
 62
     0
 10
-314.729736
 20
189.459457
 30
0.0
 11
-314.729736
 21
-865.18252
 31
0.0
  0
LINE
  5
7CF
  8
0
  6
BYBLOCK
 62
     0
 10
315.270264
 20
189.459457
 30
0.0
 11
315.270264
 21
-865.18252
 31
0.0
  0
LINE
  5
7D0
  8
0
  6
BYBLOCK
 62
     0
 10
-304.729736
 20
-852.68252
 30
0.0
 11
305.270264
 21
-852.68252
 31
0.0
  0
INSERT
  5
7D1
  8
0
  6
BYBLOCK
 62
     0
  2
_ORIGIN
 10
-314.729736
 20
-852.68252
 30
0.0
 41
10.0
 42
10.0
 43
10.0
 50
180.0
  0
INSERT
  5
7D2
  8
0
  6
BYBLOCK
 62
     0
  2
_ORIGIN
 10
315.270264
 20
-852.68252
 30
0.0
 41
10.0
 42
10.0
 43
10.0
  0
TEXT
  5
7D3
  8
0
  6
BYBLOCK
 62
     0
 10
-42.17973
 20
-842.68252
 30
0.0
 40
30.0
  1
630
 72
     1
 11
0.27027
 21
-842.68252
 31
0.0
  0
POINT
  5
7D4
  8
DEFPOINTS
  6
BYBLOCK
 62
     0
 10
-314.729736
 20
199.459457
 30
0.0
  0
POINT
  5
7D5
  8
DEFPOINTS
  6
BYBLOCK
 62
     0
 10
315.270264
 20
199.459457
 30
0.0
  0
POINT
  5
7D6
  8
DEFPOINTS
  6
BYBLOCK
 62
     0
 10
315.270264
 20
-852.68252
 30
0.0
  0
ENDBLK
  5
7D7
  8
0
  0
BLOCK
  8
0
  2
*D33
 70
     1
 10
0.0
 20
0.0
 30
0.0
  3
*D33
  1

  0
LINE
  5
7DA
  8
0
  6
BYBLOCK
 62
     0
 10
295.270264
 20
-30.540541
 30
0.0
 11
295.270264
 21
-765.18252
 31
0.0
  0
LINE
  5
7DB
  8
0
  6
BYBLOCK
 62
     0
 10
201.270264
 20
-30.540541
 30
0.0
 11
201.270264
 21
-765.18252
 31
0.0
  0
LINE
  5
7DC
  8
0
  6
BYBLOCK
 62
     0
 10
285.270264
 20
-752.68252
 30
0.0
 11
211.270264
 21
-752.68252
 31
0.0
  0
INSERT
  5
7DD
  8
0
  6
BYBLOCK
 62
     0
  2
_ORIGIN
 10
295.270264
 20
-752.68252
 30
0.0
 41
10.0
 42
10.0
 43
10.0
  0
INSERT
  5
7DE
  8
0
  6
BYBLOCK
 62
     0
  2
_ORIGIN
 10
201.270264
 20
-752.68252
 30
0.0
 41
10.0
 42
10.0
 43
10.0
 50
180.0
  0
TEXT
  5
7DF
  8
0
  6
BYBLOCK
 62
     0
 10
218.270264
 20
-742.68252
 30
0.0
 40
30.0
  1
94
 72
     1
 11
248.270264
 21
-742.68252
 31
0.0
  0
POINT
  5
7E0
  8
DEFPOINTS
  6
BYBLOCK
 62
     0
 10
295.270264
 20
-20.540541
 30
0.0
  0
POINT
  5
7E1
  8
DEFPOINTS
  6
BYBLOCK
 62
     0
 10
201.270264
 20
-20.540541
 30
0.0
  0
POINT
  5
7E2
  8
DEFPOINTS
  6
BYBLOCK
 62
     0
 10
201.270264
 20
-752.68252
 30
0.0
  0
ENDBLK
  5
7E3
  8
0
  0
BLOCK
  8
0
  2
*D34
 70
     1
 10
0.0
 20
0.0
 30
0.0
  3
*D34
  1

  0
LINE
  5
7E6
  8
0
  6
BYBLOCK
 62
     0
 10
-294.729736
 20
-30.540541
 30
0.0
 11
-294.729736
 21
-765.18252
 31
0.0
  0
LINE
  5
7E7
  8
0
  6
BYBLOCK
 62
     0
 10
-200.729736
 20
-30.540541
 30
0.0
 11
-200.729736
 21
-765.18252
 31
0.0
  0
LINE
  5
7E8
  8
0
  6
BYBLOCK
 62
     0
 10
-284.729736
 20
-752.68252
 30
0.0
 11
-210.729736
 21
-752.68252
 31
0.0
  0
INSERT
  5
7E9
  8
0
  6
BYBLOCK
 62
     0
  2
_ORIGIN
 10
-294.729736
 20
-752.68252
 30
0.0
 41
10.0
 42
10.0
 43
10.0
 50
180.0
  0
INSERT
  5
7EA
  8
0
  6
BYBLOCK
 62
     0
  2
_ORIGIN
 10
-200.729736
 20
-752.68252
 30
0.0
 41
10.0
 42
10.0
 43
10.0
  0
TEXT
  5
7EB
  8
0
  6
BYBLOCK
 62
     0
 10
-277.729736
 20
-742.68252
 30
0.0
 40
30.0
  1
94
 72
     1
 11
-247.729736
 21
-742.68252
 31
0.0
  0
POINT
  5
7EC
  8
DEFPOINTS
  6
BYBLOCK
 62
     0
 10
-294.729736
 20
-20.540541
 30
0.0
  0
POINT
  5
7ED
  8
DEFPOINTS
  6
BYBLOCK
 62
     0
 10
-200.729736
 20
-20.540541
 30
0.0
  0
POINT
  5
7EE
  8
DEFPOINTS
  6
BYBLOCK
 62
     0
 10
-200.729736
 20
-752.68252
 30
0.0
  0
ENDBLK
  5
7EF
  8
0
  0
BLOCK
  8
0
  2
*D35
 70
     1
 10
0.0
 20
0.0
 30
0.0
  3
*D35
  1

  0
LINE
  5
7F2
  8
0
  6
BYBLOCK
 62
     0
 10
-200.729736
 20
-30.540541
 30
0.0
 11
-200.729736
 21
-765.18252
 31
0.0
  0
LINE
  5
7F3
  8
0
  6
BYBLOCK
 62
     0
 10
201.270264
 20
-30.540541
 30
0.0
 11
201.270264
 21
-765.18252
 31
0.0
  0
LINE
  5
7F4
  8
0
  6
BYBLOCK
 62
     0
 10
-190.729736
 20
-752.68252
 30
0.0
 11
191.270264
 21
-752.68252
 31
0.0
  0
INSERT
  5
7F5
  8
0
  6
BYBLOCK
 62
     0
  2
_ORIGIN
 10
-200.729736
 20
-752.68252
 30
0.0
 41
10.0
 42
10.0
 43
10.0
 50
180.0
  0
INSERT
  5
7F6
  8
0
  6
BYBLOCK
 62
     0
  2
_ORIGIN
 10
201.270264
 20
-752.68252
 30
0.0
 41
10.0
 42
10.0
 43
10.0
  0
TEXT
  5
7F7
  8
0
  6
BYBLOCK
 62
     0
 10
-42.17973
 20
-742.68252
 30
0.0
 40
30.0
  1
402
 72
     1
 11
0.27027
 21
-742.68252
 31
0.0
  0
POINT
  5
7F8
  8
DEFPOINTS
  6
BYBLOCK
 62
     0
 10
-200.729736
 20
-20.540541
 30
0.0
  0
POINT
  5
7F9
  8
DEFPOINTS
  6
BYBLOCK
 62
     0
 10
201.270264
 20
-20.540541
 30
0.0
  0
POINT
  5
7FA
  8
DEFPOINTS
  6
BYBLOCK
 62
     0
 10
201.270264
 20
-752.68252
 30
0.0
  0
ENDBLK
  5
7FB
  8
0
  0
BLOCK
  8
0
  2
*D36
 70
     1
 10
0.0
 20
0.0
 30
0.0
  3
*D36
  1

  0
LINE
  5
7FE
  8
0
  6
BYBLOCK
 62
     0
 10
-247.729736
 20
-30.540541
 30
0.0
 11
-247.729736
 21
-665.18252
 31
0.0
  0
LINE
  5
7FF
  8
0
  6
BYBLOCK
 62
     0
 10
248.270264
 20
-30.540541
 30
0.0
 11
248.270264
 21
-665.18252
 31
0.0
  0
LINE
  5
800
  8
0
  6
BYBLOCK
 62
     0
 10
-237.729736
 20
-652.68252
 30
0.0
 11
238.270264
 21
-652.68252
 31
0.0
  0
INSERT
  5
801
  8
0
  6
BYBLOCK
 62
     0
  2
_ORIGIN
 10
-247.729736
 20
-652.68252
 30
0.0
 41
10.0
 42
10.0
 43
10.0
 50
180.0
  0
INSERT
  5
802
  8
0
  6
BYBLOCK
 62
     0
  2
_ORIGIN
 10
248.270264
 20
-652.68252
 30
0.0
 41
10.0
 42
10.0
 43
10.0
  0
TEXT
  5
803
  8
0
  6
BYBLOCK
 62
     0
 10
-44.72973
 20
-642.68252
 30
0.0
 40
30.0
  1
496
 72
     1
 11
0.27027
 21
-642.68252
 31
0.0
  0
POINT
  5
804
  8
DEFPOINTS
  6
BYBLOCK
 62
     0
 10
-247.729736
 20
-20.540541
 30
0.0
  0
POINT
  5
805
  8
DEFPOINTS
  6
BYBLOCK
 62
     0
 10
248.270264
 20
-20.540541
 30
0.0
  0
POINT
  5
806
  8
DEFPOINTS
  6
BYBLOCK
 62
     0
 10
248.270264
 20
-652.68252
 30
0.0
  0
ENDBLK
  5
807
  8
0
  0
BLOCK
  8
0
  2
*D37
 70
     1
 10
0.0
 20
0.0
 30
0.0
  3
*D37
  1

  0
LINE
  5
80A
  8
0
  6
BYBLOCK
 62
     0
 10
275.270264
 20
369.459473
 30
0.0
 11
275.270264
 21
-565.18252
 31
0.0
  0
LINE
  5
80B
  8
0
  6
BYBLOCK
 62
     0
 10
0.27027
 20
-60.540539
 30
0.0
 11
0.27027
 21
-565.18252
 31
0.0
  0
LINE
  5
80C
  8
0
  6
BYBLOCK
 62
     0
 10
265.270264
 20
-552.68252
 30
0.0
 11
10.27027
 21
-552.68252
 31
0.0
  0
INSERT
  5
80D
  8
0
  6
BYBLOCK
 62
     0
  2
_ORIGIN
 10
275.270264
 20
-552.68252
 30
0.0
 41
10.0
 42
10.0
 43
10.0
  0
INSERT
  5
80E
  8
0
  6
BYBLOCK
 62
     0
  2
_ORIGIN
 10
0.27027
 20
-552.68252
 30
0.0
 41
10.0
 42
10.0
 43
10.0
 50
180.0
  0
TEXT
  5
80F
  8
0
  6
BYBLOCK
 62
     0
 10
92.770264
 20
-542.68252
 30
0.0
 40
30.0
  1
275
 72
     1
 11
137.770264
 21
-542.68252
 31
0.0
  0
POINT
  5
810
  8
DEFPOINTS
  6
BYBLOCK
 62
     0
 10
275.270264
 20
379.459473
 30
0.0
  0
POINT
  5
811
  8
DEFPOINTS
  6
BYBLOCK
 62
     0
 10
0.27027
 20
-50.540539
 30
0.0
  0
POINT
  5
812
  8
DEFPOINTS
  6
BYBLOCK
 62
     0
 10
0.27027
 20
-552.68252
 30
0.0
  0
ENDBLK
  5
813
  8
0
  0
BLOCK
  8
0
  2
*D38
 70
     1
 10
0.0
 20
0.0
 30
0.0
  3
*D38
  1

  0
LINE
  5
816
  8
0
  6
BYBLOCK
 62
     0
 10
230.270264
 20
289.459473
 30
0.0
 11
230.270264
 21
-465.18252
 31
0.0
  0
LINE
  5
817
  8
0
  6
BYBLOCK
 62
     0
 10
0.27027
 20
-60.540539
 30
0.0
 11
0.27027
 21
-465.18252
 31
0.0
  0
LINE
  5
818
  8
0
  6
BYBLOCK
 62
     0
 10
220.270264
 20
-452.68252
 30
0.0
 11
10.27027
 21
-452.68252
 31
0.0
  0
INSERT
  5
819
  8
0
  6
BYBLOCK
 62
     0
  2
_ORIGIN
 10
230.270264
 20
-452.68252
 30
0.0
 41
10.0
 42
10.0
 43
10.0
  0
INSERT
  5
81A
  8
0
  6
BYBLOCK
 62
     0
  2
_ORIGIN
 10
0.27027
 20
-452.68252
 30
0.0
 41
10.0
 42
10.0
 43
10.0
 50
180.0
  0
TEXT
  5
81B
  8
0
  6
BYBLOCK
 62
     0
 10
72.820271
 20
-442.68252
 30
0.0
 40
30.0
  1
230
 72
     1
 11
115.270271
 21
-442.68252
 31
0.0
  0
POINT
  5
81C
  8
DEFPOINTS
  6
BYBLOCK
 62
     0
 10
230.270264
 20
299.459473
 30
0.0
  0
POINT
  5
81D
  8
DEFPOINTS
  6
BYBLOCK
 62
     0
 10
0.27027
 20
-50.540539
 30
0.0
  0
POINT
  5
81E
  8
DEFPOINTS
  6
BYBLOCK
 62
     0
 10
0.27027
 20
-452.68252
 30
0.0
  0
ENDBLK
  5
81F
  8
0
  0
BLOCK
  8
0
  2
*D39
 70
     1
 10
0.0
 20
0.0
 30
0.0
  3
*D39
  1

  0
LINE
  5
822
  8
0
  6
BYBLOCK
 62
     0
 10
-254.729736
 20
329.459473
 30
0.0
 11
-254.729736
 21
-465.18252
 31
0.0
  0
LINE
  5
823
  8
0
  6
BYBLOCK
 62
     0
 10
0.27027
 20
-60.540539
 30
0.0
 11
0.27027
 21
-465.18252
 31
0.0
  0
LINE
  5
824
  8
0
  6
BYBLOCK
 62
     0
 10
-244.729736
 20
-452.68252
 30
0.0
 11
-9.72973
 21
-452.68252
 31
0.0
  0
INSERT
  5
825
  8
0
  6
BYBLOCK
 62
     0
  2
_ORIGIN
 10
-254.729736
 20
-452.68252
 30
0.0
 41
10.0
 42
10.0
 43
10.0
 50
180.0
  0
INSERT
  5
826
  8
0
  6
BYBLOCK
 62
     0
  2
_ORIGIN
 10
0.27027
 20
-452.68252
 30
0.0
 41
10.0
 42
10.0
 43
10.0
  0
TEXT
  5
827
  8
0
  6
BYBLOCK
 62
     0
 10
-172.229729
 20
-442.68252
 30
0.0
 40
30.0
  1
255
 72
     1
 11
-127.229729
 21
-442.68252
 31
0.0
  0
POINT
  5
828
  8
DEFPOINTS
  6
BYBLOCK
 62
     0
 10
-254.729736
 20
339.459473
 30
0.0
  0
POINT
  5
829
  8
DEFPOINTS
  6
BYBLOCK
 62
     0
 10
0.27027
 20
-50.540539
 30
0.0
  0
POINT
  5
82A
  8
DEFPOINTS
  6
BYBLOCK
 62
     0
 10
0.27027
 20
-452.68252
 30
0.0
  0
ENDBLK
  5
82B
  8
0
  0
BLOCK
  8
0
  2
*D40
 70
     1
 10
0.0
 20
0.0
 30
0.0
  3
*D40
  1

  0
LINE
  5
82E
  8
0
  6
BYBLOCK
 62
     0
 10
188.270264
 20
124.459457
 30
0.0
 11
188.270264
 21
-365.18252
 31
0.0
  0
LINE
  5
82F
  8
0
  6
BYBLOCK
 62
     0
 10
0.27027
 20
-60.540539
 30
0.0
 11
0.27027
 21
-365.18252
 31
0.0
  0
LINE
  5
830
  8
0
  6
BYBLOCK
 62
     0
 10
178.270264
 20
-352.68252
 30
0.0
 11
10.27027
 21
-352.68252
 31
0.0
  0
INSERT
  5
831
  8
0
  6
BYBLOCK
 62
     0
  2
_ORIGIN
 10
188.270264
 20
-352.68252
 30
0.0
 41
10.0
 42
10.0
 43
10.0
  0
INSERT
  5
832
  8
0
  6
BYBLOCK
 62
     0
  2
_ORIGIN
 10
0.27027
 20
-352.68252
 30
0.0
 41
10.0
 42
10.0
 43
10.0
 50
180.0
  0
TEXT
  5
833
  8
0
  6
BYBLOCK
 62
     0
 10
54.520271
 20
-342.68252
 30
0.0
 40
30.0
  1
188
 72
     1
 11
94.270271
 21
-342.68252
 31
0.0
  0
POINT
  5
834
  8
DEFPOINTS
  6
BYBLOCK
 62
     0
 10
188.270264
 20
134.459457
 30
0.0
  0
POINT
  5
835
  8
DEFPOINTS
  6
BYBLOCK
 62
     0
 10
0.27027
 20
-50.540539
 30
0.0
  0
POINT
  5
836
  8
DEFPOINTS
  6
BYBLOCK
 62
     0
 10
0.27027
 20
-352.68252
 30
0.0
  0
ENDBLK
  5
837
  8
0
  0
BLOCK
  8
0
  2
*D41
 70
     1
 10
0.0
 20
0.0
 30
0.0
  3
*D41
  1

  0
LINE
  5
83A
  8
0
  6
BYBLOCK
 62
     0
 10
180.270264
 20
369.459473
 30
0.0
 11
180.270264
 21
-265.182535
 31
0.0
  0
LINE
  5
83B
  8
0
  6
BYBLOCK
 62
     0
 10
0.27027
 20
-60.540539
 30
0.0
 11
0.27027
 21
-265.182535
 31
0.0
  0
LINE
  5
83C
  8
0
  6
BYBLOCK
 62
     0
 10
170.270264
 20
-252.682535
 30
0.0
 11
10.27027
 21
-252.682535
 31
0.0
  0
INSERT
  5
83D
  8
0
  6
BYBLOCK
 62
     0
  2
_ORIGIN
 10
180.270264
 20
-252.682535
 30
0.0
 41
10.0
 42
10.0
 43
10.0
  0
INSERT
  5
83E
  8
0
  6
BYBLOCK
 62
     0
  2
_ORIGIN
 10
0.27027
 20
-252.682535
 30
0.0
 41
10.0
 42
10.0
 43
10.0
 50
180.0
  0
TEXT
  5
83F
  8
0
  6
BYBLOCK
 62
     0
 10
53.070271
 20
-242.682535
 30
0.0
 40
30.0
  1
180
 72
     1
 11
90.270271
 21
-242.682535
 31
0.0
  0
POINT
  5
840
  8
DEFPOINTS
  6
BYBLOCK
 62
     0
 10
180.270264
 20
379.459473
 30
0.0
  0
POINT
  5
841
  8
DEFPOINTS
  6
BYBLOCK
 62
     0
 10
0.27027
 20
-50.540539
 30
0.0
  0
POINT
  5
842
  8
DEFPOINTS
  6
BYBLOCK
 62
     0
 10
0.27027
 20
-252.682535
 30
0.0
  0
ENDBLK
  5
843
  8
0
  0
BLOCK
  8
0
  2
*D42
 70
     1
 10
0.0
 20
0.0
 30
0.0
  3
*D42
  1

  0
LINE
  5
846
  8
0
  6
BYBLOCK
 62
     0
 10
-69.729729
 20
289.459473
 30
0.0
 11
-69.729729
 21
-265.182535
 31
0.0
  0
LINE
  5
847
  8
0
  6
BYBLOCK
 62
     0
 10
0.27027
 20
-60.540539
 30
0.0
 11
0.27027
 21
-265.182535
 31
0.0
  0
LINE
  5
848
  8
0
  6
BYBLOCK
 62
     0
 10
-59.729729
 20
-252.682535
 30
0.0
 11
-9.72973
 21
-252.682535
 31
0.0
  0
INSERT
  5
849
  8
0
  6
BYBLOCK
 62
     0
  2
_ORIGIN
 10
-69.729729
 20
-252.682535
 30
0.0
 41
10.0
 42
10.0
 43
10.0
 50
180.0
  0
INSERT
  5
84A
  8
0
  6
BYBLOCK
 62
     0
  2
_ORIGIN
 10
0.27027
 20
-252.682535
 30
0.0
 41
10.0
 42
10.0
 43
10.0
  0
TEXT
  5
84B
  8
0
  6
BYBLOCK
 62
     0
 10
-62.179729
 20
-242.682535
 30
0.0
 40
30.0
  1
70
 72
     1
 11
-34.729729
 21
-242.682535
 31
0.0
  0
POINT
  5
84C
  8
DEFPOINTS
  6
BYBLOCK
 62
     0
 10
-69.729729
 20
299.459473
 30
0.0
  0
POINT
  5
84D
  8
DEFPOINTS
  6
BYBLOCK
 62
     0
 10
0.27027
 20
-50.540539
 30
0.0
  0
POINT
  5
84E
  8
DEFPOINTS
  6
BYBLOCK
 62
     0
 10
0.27027
 20
-252.682535
 30
0.0
  0
ENDBLK
  5
84F
  8
0
  0
BLOCK
  8
0
  2
*D43
 70
     1
 10
0.0
 20
0.0
 30
0.0
  3
*D43
  1

  0
LINE
  5
852
  8
0
  6
BYBLOCK
 62
     0
 10
-59.729729
 20
1852.459473
 30
0.0
 11
-1007.239539
 21
1852.459473
 31
0.0
  0
LINE
  5
853
  8
0
  6
BYBLOCK
 62
     0
 10
-319.729736
 20
-0.540541
 30
0.0
 11
-1007.239539
 21
-0.540541
 31
0.0
  0
LINE
  5
854
  8
0
  6
BYBLOCK
 62
     0
 10
-994.739539
 20
1842.459473
 30
0.0
 11
-994.739539
 21
9.459459
 31
0.0
  0
INSERT
  5
855
  8
0
  6
BYBLOCK
 62
     0
  2
_ORIGIN
 10
-994.739539
 20
1852.459473
 30
0.0
 41
10.0
 42
10.0
 43
10.0
 50
90.0
  0
INSERT
  5
856
  8
0
  6
BYBLOCK
 62
     0
  2
_ORIGIN
 10
-994.739539
 20
-0.540541
 30
0.0
 41
10.0
 42
10.0
 43
10.0
 50
270.0
  0
TEXT
  5
857
  8
0
  6
BYBLOCK
 62
     0
 10
-1004.739539
 20
871.209473
 30
0.0
 40
30.0
  1
1853
 50
90.0
 72
     1
 11
-1004.739539
 21
925.959473
 31
0.0
  0
POINT
  5
858
  8
DEFPOINTS
  6
BYBLOCK
 62
     0
 10
-49.729729
 20
1852.459473
 30
0.0
  0
POINT
  5
859
  8
DEFPOINTS
  6
BYBLOCK
 62
     0
 10
-309.729736
 20
-0.540541
 30
0.0
  0
POINT
  5
85A
  8
DEFPOINTS
  6
BYBLOCK
 62
     0
 10
-994.739539
 20
-0.540541
 30
0.0
  0
ENDBLK
  5
85B
  8
0
  0
BLOCK
  8
0
  2
*D44
 70
     1
 10
0.0
 20
0.0
 30
0.0
  3
*D44
  1

  0
LINE
  5
85E
  8
0
  6
BYBLOCK
 62
     0
 10
-49.729729
 20
1874.459473
 30
0.0
 11
-1107.2396
 21
1874.459473
 31
0.0
  0
LINE
  5
85F
  8
0
  6
BYBLOCK
 62
     0
 10
-319.729736
 20
-0.540541
 30
0.0
 11
-1107.2396
 21
-0.540541
 31
0.0
  0
LINE
  5
860
  8
0
  6
BYBLOCK
 62
     0
 10
-1094.7396
 20
1864.459473
 30
0.0
 11
-1094.7396
 21
9.459459
 31
0.0
  0
INSERT
  5
861
  8
0
  6
BYBLOCK
 62
     0
  2
_ORIGIN
 10
-1094.7396
 20
1874.459473
 30
0.0
 41
10.0
 42
10.0
 43
10.0
 50
90.0
  0
INSERT
  5
862
  8
0
  6
BYBLOCK
 62
     0
  2
_ORIGIN
 10
-1094.7396
 20
-0.540541
 30
0.0
 41
10.0
 42
10.0
 43
10.0
 50
270.0
  0
TEXT
  5
863
  8
0
  6
BYBLOCK
 62
     0
 10
-1104.7396
 20
882.209473
 30
0.0
 40
30.0
  1
1875
 50
90.0
 72
     1
 11
-1104.7396
 21
936.959473
 31
0.0
  0
POINT
  5
864
  8
DEFPOINTS
  6
BYBLOCK
 62
     0
 10
-39.729729
 20
1874.459473
 30
0.0
  0
POINT
  5
865
  8
DEFPOINTS
  6
BYBLOCK
 62
     0
 10
-309.729736
 20
-0.540541
 30
0.0
  0
POINT
  5
866
  8
DEFPOINTS
  6
BYBLOCK
 62
     0
 10
-1094.7396
 20
-0.540541
 30
0.0
  0
ENDBLK
  5
867
  8
0
  0
BLOCK
  8
0
  2
*D45
 70
     1
 10
0.0
 20
0.0
 30
0.0
  3
*D45
  1

  0
LINE
  5
86A
  8
0
  6
BYBLOCK
 62
     0
 10
-324.729736
 20
-0.540541
 30
0.0
 11
-707.239539
 21
-0.540541
 31
0.0
  0
LINE
  5
86B
  8
0
  6
BYBLOCK
 62
     0
 10
-99.729729
 20
319.459473
 30
0.0
 11
-707.239539
 21
319.459473
 31
0.0
  0
LINE
  5
86C
  8
0
  6
BYBLOCK
 62
     0
 10
-694.739539
 20
9.459459
 30
0.0
 11
-694.739539
 21
309.459473
 31
0.0
  0
INSERT
  5
86D
  8
0
  6
BYBLOCK
 62
     0
  2
_ORIGIN
 10
-694.739539
 20
-0.540541
 30
0.0
 41
10.0
 42
10.0
 43
10.0
 50
270.0
  0
INSERT
  5
86E
  8
0
  6
BYBLOCK
 62
     0
  2
_ORIGIN
 10
-694.739539
 20
319.459473
 30
0.0
 41
10.0
 42
10.0
 43
10.0
 50
90.0
  0
TEXT
  5
86F
  8
0
  6
BYBLOCK
 62
     0
 10
-704.739539
 20
117.009457
 30
0.0
 40
30.0
  1
320
 50
90.0
 72
     1
 11
-704.739539
 21
159.459457
 31
0.0
  0
POINT
  5
870
  8
DEFPOINTS
  6
BYBLOCK
 62
     0
 10
-314.729736
 20
-0.540541
 30
0.0
  0
POINT
  5
871
  8
DEFPOINTS
  6
BYBLOCK
 62
     0
 10
-89.729729
 20
319.459473
 30
0.0
  0
POINT
  5
872
  8
DEFPOINTS
  6
BYBLOCK
 62
     0
 10
-694.739539
 20
319.459473
 30
0.0
  0
ENDBLK
  5
873
  8
0
  0
BLOCK
  8
0
  2
*D46
 70
     1
 10
0.0
 20
0.0
 30
0.0
  3
*D46
  1

  0
LINE
  5
876
  8
0
  6
BYBLOCK
 62
     0
 10
325.270264
 20
199.459457
 30
0.0
 11
775.370264
 21
199.459457
 31
0.0
  0
LINE
  5
877
  8
0
  6
BYBLOCK
 62
     0
 10
320.270264
 20
-0.540541
 30
0.0
 11
775.370264
 21
-0.540541
 31
0.0
  0
LINE
  5
878
  8
0
  6
BYBLOCK
 62
     0
 10
762.870264
 20
189.459457
 30
0.0
 11
762.870264
 21
9.459459
 31
0.0
  0
INSERT
  5
879
  8
0
  6
BYBLOCK
 62
     0
  2
_ORIGIN
 10
762.870264
 20
199.459457
 30
0.0
 41
10.0
 42
10.0
 43
10.0
 50
90.0
  0
INSERT
  5
87A
  8
0
  6
BYBLOCK
 62
     0
  2
_ORIGIN
 10
762.870264
 20
-0.540541
 30
0.0
 41
10.0
 42
10.0
 43
10.0
 50
270.0
  0
TEXT
  5
87B
  8
0
  6
BYBLOCK
 62
     0
 10
752.870264
 20
59.559457
 30
0.0
 40
30.0
  1
200
 50
90.0
 72
     1
 11
752.870264
 21
99.459457
 31
0.0
  0
POINT
  5
87C
  8
DEFPOINTS
  6
BYBLOCK
 62
     0
 10
315.270264
 20
199.459457
 30
0.0
  0
POINT
  5
87D
  8
DEFPOINTS
  6
BYBLOCK
 62
     0
 10
310.270264
 20
-0.540541
 30
0.0
  0
POINT
  5
87E
  8
DEFPOINTS
  6
BYBLOCK
 62
     0
 10
762.870264
 20
-0.540541
 30
0.0
  0
ENDBLK
  5
87F
  8
0
  0
BLOCK
  8
0
  2
*D47
 70
     1
 10
0.0
 20
0.0
 30
0.0
  3
*D47
  1

  0
LINE
  5
882
  8
0
  6
BYBLOCK
 62
     0
 10
-324.729736
 20
399.459473
 30
0.0
 11
-907.239539
 21
399.459473
 31
0.0
  0
LINE
  5
883
  8
0
  6
BYBLOCK
 62
     0
 10
-319.729736
 20
-0.540541
 30
0.0
 11
-907.239539
 21
-0.540541
 31
0.0
  0
LINE
  5
884
  8
0
  6
BYBLOCK
 62
     0
 10
-894.739539
 20
389.459473
 30
0.0
 11
-894.739539
 21
9.459459
 31
0.0
  0
INSERT
  5
885
  8
0
  6
BYBLOCK
 62
     0
  2
_ORIGIN
 10
-894.739539
 20
399.459473
 30
0.0
 41
10.0
 42
10.0
 43
10.0
 50
90.0
  0
INSERT
  5
886
  8
0
  6
BYBLOCK
 62
     0
  2
_ORIGIN
 10
-894.739539
 20
-0.540541
 30
0.0
 41
10.0
 42
10.0
 43
10.0
 50
270.0
  0
TEXT
  5
887
  8
0
  6
BYBLOCK
 62
     0
 10
-904.739539
 20
184.503396
 30
0.0
 40
30.0
  1
400
 50
90.0
 72
     1
 11
-904.739539
 21
224.403396
 31
0.0
  0
POINT
  5
888
  8
DEFPOINTS
  6
BYBLOCK
 62
     0
 10
-314.729736
 20
399.459473
 30
0.0
  0
POINT
  5
889
  8
DEFPOINTS
  6
BYBLOCK
 62
     0
 10
-309.729736
 20
-0.540541
 30
0.0
  0
POINT
  5
88A
  8
DEFPOINTS
  6
BYBLOCK
 62
     0
 10
-894.739539
 20
-0.540541
 30
0.0
  0
ENDBLK
  5
88B
  8
0
  0
BLOCK
  8
0
  2
*D48
 70
     1
 10
0.0
 20
0.0
 30
0.0
  3
*D48
  1

  0
LINE
  5
88E
  8
0
  6
BYBLOCK
 62
     0
 10
325.270264
 20
1829.459473
 30
0.0
 11
875.370264
 21
1829.459473
 31
0.0
  0
LINE
  5
88F
  8
0
  6
BYBLOCK
 62
     0
 10
320.270264
 20
-0.540541
 30
0.0
 11
875.370264
 21
-0.540541
 31
0.0
  0
LINE
  5
890
  8
0
  6
BYBLOCK
 62
     0
 10
862.870264
 20
1819.459473
 30
0.0
 11
862.870264
 21
9.459459
 31
0.0
  0
INSERT
  5
891
  8
0
  6
BYBLOCK
 62
     0
  2
_ORIGIN
 10
862.870264
 20
1829.459473
 30
0.0
 41
10.0
 42
10.0
 43
10.0
 50
90.0
  0
INSERT
  5
892
  8
0
  6
BYBLOCK
 62
     0
  2
_ORIGIN
 10
862.870264
 20
-0.540541
 30
0.0
 41
10.0
 42
10.0
 43
10.0
 50
270.0
  0
TEXT
  5
893
  8
0
  6
BYBLOCK
 62
     0
 10
852.870264
 20
862.259473
 30
0.0
 40
30.0
  1
1830
 50
90.0
 72
     1
 11
852.870264
 21
914.459473
 31
0.0
  0
POINT
  5
894
  8
DEFPOINTS
  6
BYBLOCK
 62
     0
 10
315.270264
 20
1829.459473
 30
0.0
  0
POINT
  5
895
  8
DEFPOINTS
  6
BYBLOCK
 62
     0
 10
310.270264
 20
-0.540541
 30
0.0
  0
POINT
  5
896
  8
DEFPOINTS
  6
BYBLOCK
 62
     0
 10
862.870264
 20
-0.540541
 30
0.0
  0
ENDBLK
  5
897
  8
0
  0
BLOCK
  8
0
  2
*D49
 70
     1
 10
0.0
 20
0.0
 30
0.0
  3
*D49
  1

  0
LINE
  5
89A
  8
0
  6
BYBLOCK
 62
     0
 10
325.270264
 20
1829.459473
 30
0.0
 11
775.370264
 21
1829.459473
 31
0.0
  0
LINE
  5
89B
  8
0
  6
BYBLOCK
 62
     0
 10
325.270264
 20
199.459457
 30
0.0
 11
775.370264
 21
199.459457
 31
0.0
  0
LINE
  5
89C
  8
0
  6
BYBLOCK
 62
     0
 10
762.870264
 20
1819.459473
 30
0.0
 11
762.870264
 21
209.459457
 31
0.0
  0
INSERT
  5
89D
  8
0
  6
BYBLOCK
 62
     0
  2
_ORIGIN
 10
762.870264
 20
1829.459473
 30
0.0
 41
10.0
 42
10.0
 43
10.0
 50
90.0
  0
INSERT
  5
89E
  8
0
  6
BYBLOCK
 62
     0
  2
_ORIGIN
 10
762.870264
 20
199.459457
 30
0.0
 41
10.0
 42
10.0
 43
10.0
 50
270.0
  0
TEXT
  5
89F
  8
0
  6
BYBLOCK
 62
     0
 10
752.870264
 20
962.259473
 30
0.0
 40
30.0
  1
1630
 50
90.0
 72
     1
 11
752.870264
 21
1014.459473
 31
0.0
  0
POINT
  5
8A0
  8
DEFPOINTS
  6
BYBLOCK
 62
     0
 10
315.270264
 20
1829.459473
 30
0.0
  0
POINT
  5
8A1
  8
DEFPOINTS
  6
BYBLOCK
 62
     0
 10
315.270264
 20
199.459457
 30
0.0
  0
POINT
  5
8A2
  8
DEFPOINTS
  6
BYBLOCK
 62
     0
 10
762.870264
 20
199.459457
 30
0.0
  0
ENDBLK
  5
8A3
  8
0
  0
BLOCK
  8
0
  2
*D50
 70
     1
 10
0.0
 20
0.0
 30
0.0
  3
*D50
  1

  0
LINE
  5
8A6
  8
0
  6
BYBLOCK
 62
     0
 10
325.270264
 20
2029.459473
 30
0.0
 11
875.370264
 21
2029.459473
 31
0.0
  0
LINE
  5
8A7
  8
0
  6
BYBLOCK
 62
     0
 10
325.270264
 20
1829.459473
 30
0.0
 11
875.370264
 21
1829.459473
 31
0.0
  0
LINE
  5
8A8
  8
0
  6
BYBLOCK
 62
     0
 10
862.870264
 20
2019.459473
 30
0.0
 11
862.870264
 21
1839.459473
 31
0.0
  0
INSERT
  5
8A9
  8
0
  6
BYBLOCK
 62
     0
  2
_ORIGIN
 10
862.870264
 20
2029.459473
 30
0.0
 41
10.0
 42
10.0
 43
10.0
 50
90.0
  0
INSERT
  5
8AA
  8
0
  6
BYBLOCK
 62
     0
  2
_ORIGIN
 10
862.870264
 20
1829.459473
 30
0.0
 41
10.0
 42
10.0
 43
10.0
 50
270.0
  0
TEXT
  5
8AB
  8
0
  6
BYBLOCK
 62
     0
 10
852.870264
 20
1889.559473
 30
0.0
 40
30.0
  1
200
 50
90.0
 72
     1
 11
852.870264
 21
1929.459473
 31
0.0
  0
POINT
  5
8AC
  8
DEFPOINTS
  6
BYBLOCK
 62
     0
 10
315.270264
 20
2029.459473
 30
0.0
  0
POINT
  5
8AD
  8
DEFPOINTS
  6
BYBLOCK
 62
     0
 10
315.270264
 20
1829.459473
 30
0.0
  0
POINT
  5
8AE
  8
DEFPOINTS
  6
BYBLOCK
 62
     0
 10
862.870264
 20
1829.459473
 30
0.0
  0
ENDBLK
  5
8AF
  8
0
  0
BLOCK
  8
0
  2
*D51
 70
     1
 10
0.0
 20
0.0
 30
0.0
  3
*D51
  1

  0
LINE
  5
8B2
  8
0
  6
BYBLOCK
 62
     0
 10
30.270269
 20
1882.459473
 30
0.0
 11
30.270269
 21
2144.359473
 31
0.0
  0
LINE
  5
8B3
  8
0
  6
BYBLOCK
 62
     0
 10
-29.729731
 20
1882.459473
 30
0.0
 11
-29.729731
 21
2144.359473
 31
0.0
  0
LINE
  5
8B4
  8
0
  6
BYBLOCK
 62
     0
 10
20.270269
 20
2131.859473
 30
0.0
 11
-19.729731
 21
2131.859473
 31
0.0
  0
INSERT
  5
8B5
  8
0
  6
BYBLOCK
 62
     0
  2
_ORIGIN
 10
30.270269
 20
2131.859473
 30
0.0
 41
10.0
 42
10.0
 43
10.0
  0
INSERT
  5
8B6
  8
0
  6
BYBLOCK
 62
     0
  2
_ORIGIN
 10
-29.729731
 20
2131.859473
 30
0.0
 41
10.0
 42
10.0
 43
10.0
 50
180.0
  0
TEXT
  5
8B7
  8
0
  6
BYBLOCK
 62
     0
 10
-27.179731
 20
2141.859473
 30
0.0
 40
30.0
  1
60
 72
     1
 11
0.270269
 21
2141.859473
 31
0.0
  0
POINT
  5
8B8
  8
DEFPOINTS
  6
BYBLOCK
 62
     0
 10
30.270269
 20
1872.459473
 30
0.0
  0
POINT
  5
8B9
  8
DEFPOINTS
  6
BYBLOCK
 62
     0
 10
-29.729731
 20
1872.459473
 30
0.0
  0
POINT
  5
8BA
  8
DEFPOINTS
  6
BYBLOCK
 62
     0
 10
-29.729731
 20
2131.859473
 30
0.0
  0
ENDBLK
  5
8BB
  8
0
  0
BLOCK
  8
0
  2
*D52
 70
     1
 10
0.0
 20
0.0
 30
0.0
  3
*D52
  1

  0
LINE
  5
8BE
  8
0
  6
BYBLOCK
 62
     0
 10
45.270271
 20
1879.459473
 30
0.0
 11
45.270271
 21
2244.359473
 31
0.0
  0
LINE
  5
8BF
  8
0
  6
BYBLOCK
 62
     0
 10
-44.729729
 20
1879.459473
 30
0.0
 11
-44.729729
 21
2244.359473
 31
0.0
  0
LINE
  5
8C0
  8
0
  6
BYBLOCK
 62
     0
 10
35.270271
 20
2231.859473
 30
0.0
 11
-34.729729
 21
2231.859473
 31
0.0
  0
INSERT
  5
8C1
  8
0
  6
BYBLOCK
 62
     0
  2
_ORIGIN
 10
45.270271
 20
2231.859473
 30
0.0
 41
10.0
 42
10.0
 43
10.0
  0
INSERT
  5
8C2
  8
0
  6
BYBLOCK
 62
     0
  2
_ORIGIN
 10
-44.729729
 20
2231.859473
 30
0.0
 41
10.0
 42
10.0
 43
10.0
 50
180.0
  0
TEXT
  5
8C3
  8
0
  6
BYBLOCK
 62
     0
 10
-27.17973
 20
2241.859473
 30
0.0
 40
30.0
  1
90
 72
     1
 11
0.27027
 21
2241.859473
 31
0.0
  0
POINT
  5
8C4
  8
DEFPOINTS
  6
BYBLOCK
 62
     0
 10
45.270271
 20
1869.459473
 30
0.0
  0
POINT
  5
8C5
  8
DEFPOINTS
  6
BYBLOCK
 62
     0
 10
-44.729729
 20
1869.459473
 30
0.0
  0
POINT
  5
8C6
  8
DEFPOINTS
  6
BYBLOCK
 62
     0
 10
-44.729729
 20
2231.859473
 30
0.0
  0
ENDBLK
  5
8C7
  8
0
  0
BLOCK
  8
0
  2
*D53
 70
     1
 10
0.0
 20
0.0
 30
0.0
  3
*D53
  1

  0
LINE
  5
8CA
  8
0
  6
BYBLOCK
 62
     0
 10
315.270264
 20
2039.459473
 30
0.0
 11
315.270264
 21
2394.359473
 31
0.0
  0
LINE
  5
8CB
  8
0
  6
BYBLOCK
 62
     0
 10
-314.729736
 20
2039.459473
 30
0.0
 11
-314.729736
 21
2394.359473
 31
0.0
  0
LINE
  5
8CC
  8
0
  6
BYBLOCK
 62
     0
 10
305.270264
 20
2381.859473
 30
0.0
 11
-304.729736
 21
2381.859473
 31
0.0
  0
INSERT
  5
8CD
  8
0
  6
BYBLOCK
 62
     0
  2
_ORIGIN
 10
315.270264
 20
2381.859473
 30
0.0
 41
10.0
 42
10.0
 43
10.0
  0
INSERT
  5
8CE
  8
0
  6
BYBLOCK
 62
     0
  2
_ORIGIN
 10
-314.729736
 20
2381.859473
 30
0.0
 41
10.0
 42
10.0
 43
10.0
 50
180.0
  0
TEXT
  5
8CF
  8
0
  6
BYBLOCK
 62
     0
 10
-42.17973
 20
2391.859473
 30
0.0
 40
30.0
  1
630
 72
     1
 11
0.27027
 21
2391.859473
 31
0.0
  0
POINT
  5
8D0
  8
DEFPOINTS
  6
BYBLOCK
 62
     0
 10
315.270264
 20
2029.459473
 30
0.0
  0
POINT
  5
8D1
  8
DEFPOINTS
  6
BYBLOCK
 62
     0
 10
-314.729736
 20
2029.459473
 30
0.0
  0
POINT
  5
8D2
  8
DEFPOINTS
  6
BYBLOCK
 62
     0
 10
-314.729736
 20
2381.859473
 30
0.0
  0
ENDBLK
  5
8D3
  8
0
  0
BLOCK
  8
0
  2
*D54
 70
     1
 10
0.0
 20
0.0
 30
0.0
  3
*D54
  1

  0
LINE
  5
8D6
  8
0
  6
BYBLOCK
 62
     0
 10
0.27027
 20
-60.540539
 30
0.0
 11
0.27027
 21
-365.18252
 31
0.0
  0
LINE
  5
8D7
  8
0
  6
BYBLOCK
 62
     0
 10
-107.752815
 20
142.459457
 30
0.0
 11
-107.752815
 21
-365.18252
 31
0.0
  0
LINE
  5
8D8
  8
0
  6
BYBLOCK
 62
     0
 10
-9.72973
 20
-352.68252
 30
0.0
 11
-97.752815
 21
-352.68252
 31
0.0
  0
INSERT
  5
8D9
  8
0
  6
BYBLOCK
 62
     0
  2
_ORIGIN
 10
0.27027
 20
-352.68252
 30
0.0
 41
10.0
 42
10.0
 43
10.0
  0
INSERT
  5
8DA
  8
0
  6
BYBLOCK
 62
     0
  2
_ORIGIN
 10
-107.752815
 20
-352.68252
 30
0.0
 41
10.0
 42
10.0
 43
10.0
 50
180.0
  0
TEXT
  5
8DB
  8
0
  6
BYBLOCK
 62
     0
 10
-90.941272
 20
-342.68252
 30
0.0
 40
30.0
  1
108
 72
     1
 11
-53.741272
 21
-342.68252
 31
0.0
  0
POINT
  5
8DC
  8
DEFPOINTS
  6
BYBLOCK
 62
     0
 10
0.27027
 20
-50.540539
 30
0.0
  0
POINT
  5
8DD
  8
DEFPOINTS
  6
BYBLOCK
 62
     0
 10
-107.752815
 20
152.459457
 30
0.0
  0
POINT
  5
8DE
  8
DEFPOINTS
  6
BYBLOCK
 62
     0
 10
-107.752815
 20
-352.68252
 30
0.0
  0
ENDBLK
  5
8DF
  8
0
  0
BLOCK
  8
0
  2
*D55
 70
     1
 10
0.0
 20
0.0
 30
0.0
  3
*D55
  1

  0
LINE
  5
8E2
  8
0
  6
BYBLOCK
 62
     0
 10
-319.729736
 20
-0.540541
 30
0.0
 11
-607.239539
 21
-0.540541
 31
0.0
  0
LINE
  5
8E3
  8
0
  6
BYBLOCK
 62
     0
 10
-137.752815
 20
172.459457
 30
0.0
 11
-607.239539
 21
172.459457
 31
0.0
  0
LINE
  5
8E4
  8
0
  6
BYBLOCK
 62
     0
 10
-594.739539
 20
9.459459
 30
0.0
 11
-594.739539
 21
162.459457
 31
0.0
  0
INSERT
  5
8E5
  8
0
  6
BYBLOCK
 62
     0
  2
_ORIGIN
 10
-594.739539
 20
-0.540541
 30
0.0
 41
10.0
 42
10.0
 43
10.0
 50
270.0
  0
INSERT
  5
8E6
  8
0
  6
BYBLOCK
 62
     0
  2
_ORIGIN
 10
-594.739539
 20
172.459457
 30
0.0
 41
10.0
 42
10.0
 43
10.0
 50
90.0
  0
TEXT
  5
8E7
  8
0
  6
BYBLOCK
 62
     0
 10
-604.739539
 20
46.209457
 30
0.0
 40
30.0
  1
173
 50
90.0
 72
     1
 11
-604.739539
 21
85.959457
 31
0.0
  0
POINT
  5
8E8
  8
DEFPOINTS
  6
BYBLOCK
 62
     0
 10
-309.729736
 20
-0.540541
 30
0.0
  0
POINT
  5
8E9
  8
DEFPOINTS
  6
BYBLOCK
 62
     0
 10
-127.752815
 20
172.459457
 30
0.0
  0
POINT
  5
8EA
  8
DEFPOINTS
  6
BYBLOCK
 62
     0
 10
-594.739539
 20
172.459457
 30
0.0
  0
ENDBLK
  5
8EB
  8
0
  0
BLOCK
  8
0
  2
*D56
 70
     1
 10
0.0
 20
0.0
 30
0.0
  3
*D56
  1

  0
LINE
  5
8EE
  8
0
  6
BYBLOCK
 62
     0
 10
-310.729736
 20
-0.540541
 30
0.0
 11
-807.395483
 21
-0.540541
 31
0.0
  0
LINE
  5
8EF
  8
0
  6
BYBLOCK
 62
     0
 10
-284.729736
 20
359.459473
 30
0.0
 11
-807.395483
 21
359.459473
 31
0.0
  0
LINE
  5
8F0
  8
0
  6
BYBLOCK
 62
     0
 10
-794.895483
 20
9.459459
 30
0.0
 11
-794.895483
 21
349.459473
 31
0.0
  0
INSERT
  5
8F1
  8
0
  6
BYBLOCK
 62
     0
  2
_ORIGIN
 10
-794.895483
 20
-0.540541
 30
0.0
 41
10.0
 42
10.0
 43
10.0
 50
270.0
  0
INSERT
  5
8F2
  8
0
  6
BYBLOCK
 62
     0
  2
_ORIGIN
 10
-794.895483
 20
359.459473
 30
0.0
 41
10.0
 42
10.0
 43
10.0
 50
90.0
  0
TEXT
  5
8F3
  8
0
  6
BYBLOCK
 62
     0
 10
-804.895483
 20
137.009457
 30
0.0
 40
30.0
  1
360
 50
90.0
 72
     1
 11
-804.895483
 21
179.459457
 31
0.0
  0
POINT
  5
8F4
  8
DEFPOINTS
  6
BYBLOCK
 62
     0
 10
-300.729736
 20
-0.540541
 30
0.0
  0
POINT
  5
8F5
  8
DEFPOINTS
  6
BYBLOCK
 62
     0
 10
-274.729736
 20
359.459473
 30
0.0
  0
POINT
  5
8F6
  8
DEFPOINTS
  6
BYBLOCK
 62
     0
 10
-794.895483
 20
359.459473
 30
0.0
  0
ENDBLK
  5
8F7
  8
0
  0
ENDSEC
  0
SECTION
  2
ENTITIES
  0
LINE
  5
8F8
  8
OUTLINE
  6
CONTINUOUS
 10
211.5
 20
162.5
 30
0.0
 11
211.5
 21
0.0
 31
0.0
  0
LINE
  5
8F9
  8
OUTLINE
  6
CONTINUOUS
 10
-284.5
 20
0.0
 30
0.0
 11
-211.5
 21
0.0
 31
0.0
  0
LINE
  5
8FA
  8
OUTLINE
  6
CONTINUOUS
 10
-315.0
 20
200.0
 30
0.0
 11
315.0
 21
200.0
 31
0.0
  0
LINE
  5
8FB
  8
OUTLINE
  6
CONTINUOUS
 10
-315.0
 20
1830.0
 30
0.0
 11
315.0
 21
1830.0
 31
0.0
  0
LINE
  5
8FC
  8
OUTLINE
  6
CONTINUOUS
 10
-315.0
 20
200.0
 30
0.0
 11
-315.0
 21
1830.0
 31
0.0
  0
LINE
  5
8FD
  8
OUTLINE
  6
CONTINUOUS
 10
315.0
 20
1830.0
 30
0.0
 11
315.0
 21
200.0
 31
0.0
  0
LINE
  5
8FE
  8
OUTLINE
  6
CONTINUOUS
 10
-284.5
 20
200.0
 30
0.0
 11
-284.5
 21
0.0
 31
0.0
  0
LINE
  5
8FF
  8
OUTLINE
  6
CONTINUOUS
 10
-211.5
 20
200.0
 30
0.0
 11
-211.5
 21
0.0
 31
0.0
  0
LINE
  5
900
  8
OUTLINE
  6
CONTINUOUS
 10
-36.5
 20
200.0
 30
0.0
 11
-36.5
 21
0.0
 31
0.0
  0
LINE
  5
901
  8
OUTLINE
  6
CONTINUOUS
 10
-36.5
 20
0.0
 30
0.0
 11
36.5
 21
0.0
 31
0.0
  0
LINE
  5
902
  8
OUTLINE
  6
CONTINUOUS
 10
284.5
 20
200.0
 30
0.0
 11
284.5
 21
0.0
 31
0.0
  0
LINE
  5
903
  8
OUTLINE
  6
CONTINUOUS
 10
211.5
 20
200.0
 30
0.0
 11
211.5
 21
162.5
 31
0.0
  0
LINE
  5
904
  8
OUTLINE
  6
CONTINUOUS
 10
284.5
 20
0.0
 30
0.0
 11
211.5
 21
0.0
 31
0.0
  0
LINE
  5
905
  8
OUTLINE
  6
CONTINUOUS
 10
36.5
 20
200.0
 30
0.0
 11
36.5
 21
0.0
 31
0.0
  0
LINE
  5
906
  8
DETAIL
  6
CONTINUOUS
 10
-242.481749
 20
1782.006087
 30
0.0
 11
-242.481749
 21
1756.006087
 31
0.0
  0
ARC
  5
907
  8
DETAIL
  6
CONTINUOUS
 10
-150.481749
 20
1756.006087
 30
0.0
 40
13.0
 50
270.0
 51
0.0
  0
LINE
  5
908
  8
DETAIL
  6
CONTINUOUS
 10
-137.481749
 20
1782.006087
 30
0.0
 11
-137.481749
 21
1756.006087
 31
0.0
  0
ARC
  5
909
  8
DETAIL
  6
CONTINUOUS
 10
-150.481749
 20
1782.006087
 30
0.0
 40
13.0
 50
0.0
 51
90.0
  0
LINE
  5
90A
  8
DETAIL
  6
CONTINUOUS
 10
-150.481749
 20
1795.006087
 30
0.0
 11
-229.481749
 21
1795.006087
 31
0.0
  0
ARC
  5
90B
  8
DETAIL
  6
CONTINUOUS
 10
-229.481749
 20
1782.006087
 30
0.0
 40
13.0
 50
90.0
 51
180.0
  0
ARC
  5
90C
  8
DETAIL
  6
CONTINUOUS
 10
-225.481749
 20
1762.006087
 30
0.0
 40
7.0
 50
180.0
 51
270.0
  0
LINE
  5
90D
  8
DETAIL
  6
CONTINUOUS
 10
-154.481749
 20
1755.006087
 30
0.0
 11
-225.481749
 21
1755.006087
 31
0.0
  0
LINE
  5
90E
  8
DETAIL
  6
CONTINUOUS
 10
-232.481749
 20
1781.006087
 30
0.0
 11
-232.481749
 21
1762.006087
 31
0.0
  0
ARC
  5
90F
  8
DETAIL
  6
CONTINUOUS
 10
-154.481749
 20
1762.006087
 30
0.0
 40
7.0
 50
270.0
 51
0.0
  0
LINE
  5
910
  8
DETAIL
  6
CONTINUOUS
 10
-147.481749
 20
1781.006087
 30
0.0
 11
-147.481749
 21
1762.006087
 31
0.0
  0
ARC
  5
911
  8
DETAIL
  6
CONTINUOUS
 10
-154.481749
 20
1781.006087
 30
0.0
 40
7.0
 50
0.0
 51
90.0
  0
ARC
  5
912
  8
DETAIL
  6
CONTINUOUS
 10
-225.481749
 20
1781.006087
 30
0.0
 40
7.0
 50
90.0
 51
180.0
  0
LINE
  5
913
  8
DETAIL
  6
CONTINUOUS
 10
-150.481749
 20
1743.006087
 30
0.0
 11
-229.481749
 21
1743.006087
 31
0.0
  0
ARC
  5
914
  8
DETAIL
  6
CONTINUOUS
 10
-229.481749
 20
1756.006087
 30
0.0
 40
13.0
 50
180.0
 51
270.0
  0
LINE
  5
915
  8
DETAIL
  6
CONTINUOUS
 10
-154.481749
 20
1788.006087
 30
0.0
 11
-225.481749
 21
1788.006087
 31
0.0
  0
LINE
  5
916
  8
DETAIL
  6
CONTINUOUS
 10
242.481749
 20
1782.006087
 30
0.0
 11
242.481749
 21
1756.006087
 31
0.0
  0
ARC
  5
917
  8
DETAIL
  6
CONTINUOUS
 10
150.481749
 20
1756.006087
 30
0.0
 40
13.0
 50
180.0
 51
270.0
  0
LINE
  5
918
  8
DETAIL
  6
CONTINUOUS
 10
137.481749
 20
1782.006087
 30
0.0
 11
137.481749
 21
1756.006087
 31
0.0
  0
ARC
  5
919
  8
DETAIL
  6
CONTINUOUS
 10
150.481749
 20
1782.006087
 30
0.0
 40
13.0
 50
90.0
 51
180.0
  0
LINE
  5
91A
  8
DETAIL
  6
CONTINUOUS
 10
150.481749
 20
1795.006087
 30
0.0
 11
229.481749
 21
1795.006087
 31
0.0
  0
ARC
  5
91B
  8
DETAIL
  6
CONTINUOUS
 10
229.481749
 20
1782.006087
 30
0.0
 40
13.0
 50
0.0
 51
90.0
  0
ARC
  5
91C
  8
DETAIL
  6
CONTINUOUS
 10
225.481749
 20
1762.006087
 30
0.0
 40
7.0
 50
270.0
 51
0.0
  0
LINE
  5
91D
  8
DETAIL
  6
CONTINUOUS
 10
154.481749
 20
1755.006087
 30
0.0
 11
225.481749
 21
1755.006087
 31
0.0
  0
LINE
  5
91E
  8
DETAIL
  6
CONTINUOUS
 10
232.481749
 20
1781.006087
 30
0.0
 11
232.481749
 21
1762.006087
 31
0.0
  0
ARC
  5
91F
  8
DETAIL
  6
CONTINUOUS
 10
154.481749
 20
1762.006087
 30
0.0
 40
7.0
 50
180.0
 51
270.0
  0
LINE
  5
920
  8
DETAIL
  6
CONTINUOUS
 10
147.481749
 20
1781.006087
 30
0.0
 11
147.481749
 21
1762.006087
 31
0.0
  0
ARC
  5
921
  8
DETAIL
  6
CONTINUOUS
 10
154.481749
 20
1781.006087
 30
0.0
 40
7.0
 50
90.0
 51
180.0
  0
LINE
  5
922
  8
DETAIL
  6
CONTINUOUS
 10
154.481749
 20
1788.006087
 30
0.0
 11
225.481749
 21
1788.006087
 31
0.0
  0
ARC
  5
923
  8
DETAIL
  6
CONTINUOUS
 10
225.481749
 20
1781.006087
 30
0.0
 40
7.0
 50
0.0
 51
90.0
  0
LINE
  5
924
  8
DETAIL
  6
CONTINUOUS
 10
150.481749
 20
1743.006087
 30
0.0
 11
229.481749
 21
1743.006087
 31
0.0
  0
ARC
  5
925
  8
DETAIL
  6
CONTINUOUS
 10
229.481749
 20
1756.006087
 30
0.0
 40
13.0
 50
270.0
 51
0.0
  0
LINE
  5
926
  8
DETAIL
  6
CONTINUOUS
 10
174.4
 20
167.0
 30
0.0
 11
175.1
 21
155.0
 31
0.0
  0
LINE
  5
927
  8
DETAIL
  6
CONTINUOUS
 10
201.6
 20
167.0
 30
0.0
 11
200.9
 21
155.0
 31
0.0
  0
LINE
  5
928
  8
DETAIL
  6
CONTINUOUS
 10
205.8
 20
167.0
 30
0.0
 11
205.8
 21
180.0
 31
0.0
  0
LINE
  5
929
  8
DETAIL
  6
CONTINUOUS
 10
170.2
 20
167.0
 30
0.0
 11
170.2
 21
180.0
 31
0.0
  0
LINE
  5
92A
  8
DETAIL
  6
CONTINUOUS
 10
170.2
 20
167.0
 30
0.0
 11
205.8
 21
167.0
 31
0.0
  0
LINE
  5
92B
  8
DETAIL
  6
CONTINUOUS
 10
211.5
 20
184.0
 30
0.0
 11
208.0
 21
180.0
 31
0.0
  0
LINE
  5
92C
  8
DETAIL
  6
CONTINUOUS
 10
163.0
 20
184.0
 30
0.0
 11
168.0
 21
180.0
 31
0.0
  0
LINE
  5
92D
  8
DETAIL
  6
CONTINUOUS
 10
163.0
 20
184.0
 30
0.0
 11
211.5
 21
184.0
 31
0.0
  0
LINE
  5
92E
  8
DETAIL
  6
CONTINUOUS
 10
211.5
 20
184.0
 30
0.0
 11
211.5
 21
0.0
 31
0.0
  0
LINE
  5
92F
  8
DETAIL
  6
CONTINUOUS
 10
211.5
 20
200.0
 30
0.0
 11
211.5
 21
184.0
 31
0.0
  0
LINE
  5
930
  8
DETAIL
  6
CONTINUOUS
 10
211.5
 20
162.5
 30
0.0
 11
211.2
 21
155.0
 31
0.0
  0
LINE
  5
931
  8
DETAIL
  6
CONTINUOUS
 10
168.0
 20
180.0
 30
0.0
 11
208.0
 21
180.0
 31
0.0
  0
ARC
  5
932
  8
DETAIL
  6
CONTINUOUS
 10
-125.2
 20
143.5
 30
0.0
 40
4.0
 50
269.999829
 51
359.8599380000034
  0
LINE
  5
933
  8
DETAIL
  6
CONTINUOUS
 10
-121.2
 20
143.5
 30
0.0
 11
-121.2
 21
150.5
 31
0.0
  0
POLYLINE
  5
934
  8
DETAIL
  6
CONTINUOUS
 66
     1
 10
0.0
 20
0.0
 30
0.0
  0
VERTEX
  5
BD8
  8
DETAIL
  6
CONTINUOUS
 10
-108.023085
 20
164.992321
 30
0.0
  0
VERTEX
  5
BD9
  8
DETAIL
  6
CONTINUOUS
 10
-107.242724
 20
165.146187
 30
0.0
  0
VERTEX
  5
BDA
  8
DETAIL
  6
CONTINUOUS
 10
-106.492351
 20
165.60187
 30
0.0
  0
VERTEX
  5
BDB
  8
DETAIL
  6
CONTINUOUS
 10
-105.800804
 20
166.341859
 30
0.0
  0
VERTEX
  5
BDC
  8
DETAIL
  6
CONTINUOUS
 10
-105.194658
 20
167.337716
 30
0.0
  0
VERTEX
  5
BDD
  8
DETAIL
  6
CONTINUOUS
 10
-104.697207
 20
168.551172
 30
0.0
  0
VERTEX
  5
BDE
  8
DETAIL
  6
CONTINUOUS
 10
-104.327567
 20
169.935594
 30
0.0
  0
VERTEX
  5
BDF
  8
DETAIL
  6
CONTINUOUS
 10
-104.099944
 20
171.43778
 30
0.0
  0
VERTEX
  5
BE0
  8
DETAIL
  6
CONTINUOUS
 10
-104.023085
 20
173.0
 30
0.0
  0
VERTEX
  5
BE1
  8
DETAIL
  6
CONTINUOUS
 10
-104.099944
 20
174.562221
 30
0.0
  0
VERTEX
  5
BE2
  8
DETAIL
  6
CONTINUOUS
 10
-104.327567
 20
176.064407
 30
0.0
  0
VERTEX
  5
BE3
  8
DETAIL
  6
CONTINUOUS
 10
-104.697207
 20
177.448829
 30
0.0
  0
VERTEX
  5
BE4
  8
DETAIL
  6
CONTINUOUS
 10
-105.194658
 20
178.662285
 30
0.0
  0
VERTEX
  5
BE5
  8
DETAIL
  6
CONTINUOUS
 10
-105.800804
 20
179.658142
 30
0.0
  0
VERTEX
  5
BE6
  8
DETAIL
  6
CONTINUOUS
 10
-106.492351
 20
180.398131
 30
0.0
  0
VERTEX
  5
BE7
  8
DETAIL
  6
CONTINUOUS
 10
-107.242724
 20
180.853814
 30
0.0
  0
VERTEX
  5
BE8
  8
DETAIL
  6
CONTINUOUS
 10
-108.023085
 20
181.00768
 30
0.0
  0
SEQEND
  5
BFB
  8
DETAIL
  6
CONTINUOUS
  0
LINE
  5
947
  8
DETAIL
  6
CONTINUOUS
 10
-108.023085
 20
164.992321
 30
0.0
 11
-107.553212
 21
165.1
 31
0.0
  0
LINE
  5
948
  8
DETAIL
  6
CONTINUOUS
 10
-108.023085
 20
181.00768
 30
0.0
 11
-107.553212
 21
180.9
 31
0.0
  0
LINE
  5
949
  8
DETAIL
  6
CONTINUOUS
 10
-112.353212
 20
164.0
 30
0.0
 11
-108.023085
 21
164.992321
 31
0.0
  0
LINE
  5
94A
  8
DETAIL
  6
CONTINUOUS
 10
-112.353212
 20
182.0
 30
0.0
 11
-108.023085
 21
181.00768
 31
0.0
  0
LINE
  5
94B
  8
DETAIL
  6
CONTINUOUS
 10
-121.2
 20
182.0
 30
0.0
 11
-121.2
 21
189.0
 31
0.0
  0
POLYLINE
  5
94C
  8
DETAIL
  6
CONTINUOUS
 66
     1
 10
0.0
 20
0.0
 30
0.0
  0
VERTEX
  5
BE9
  8
DETAIL
  6
CONTINUOUS
 10
-110.647003
 20
139.542737
 30
0.0
  0
VERTEX
  5
BEA
  8
DETAIL
  6
CONTINUOUS
 10
-110.16604
 20
139.62851
 30
0.0
  0
VERTEX
  5
BEB
  8
DETAIL
  6
CONTINUOUS
 10
-109.700852
 20
139.90071
 30
0.0
  0
VERTEX
  5
BEC
  8
DETAIL
  6
CONTINUOUS
 10
-109.267459
 20
140.349965
 30
0.0
  0
VERTEX
  5
BED
  8
DETAIL
  6
CONTINUOUS
 10
-108.880782
 20
140.960804
 30
0.0
  0
VERTEX
  5
BEE
  8
DETAIL
  6
CONTINUOUS
 10
-108.554139
 20
141.712196
 30
0.0
  0
VERTEX
  5
BEF
  8
DETAIL
  6
CONTINUOUS
 10
-108.298775
 20
142.578264
 30
0.0
  0
VERTEX
  5
BF0
  8
DETAIL
  6
CONTINUOUS
 10
-108.123486
 20
143.529188
 30
0.0
  0
VERTEX
  5
BF1
  8
DETAIL
  6
CONTINUOUS
 10
-108.034305
 20
144.532222
 30
0.0
  0
VERTEX
  5
BF2
  8
DETAIL
  6
CONTINUOUS
 10
-108.034305
 20
145.552829
 30
0.0
  0
VERTEX
  5
BF3
  8
DETAIL
  6
CONTINUOUS
 10
-108.123486
 20
146.555863
 30
0.0
  0
VERTEX
  5
BF4
  8
DETAIL
  6
CONTINUOUS
 10
-108.298775
 20
147.506787
 30
0.0
  0
VERTEX
  5
BF5
  8
DETAIL
  6
CONTINUOUS
 10
-108.554139
 20
148.372856
 30
0.0
  0
VERTEX
  5
BF6
  8
DETAIL
  6
CONTINUOUS
 10
-108.880782
 20
149.124247
 30
0.0
  0
VERTEX
  5
BF7
  8
DETAIL
  6
CONTINUOUS
 10
-109.267459
 20
149.735087
 30
0.0
  0
VERTEX
  5
BF8
  8
DETAIL
  6
CONTINUOUS
 10
-109.700852
 20
150.184341
 30
0.0
  0
VERTEX
  5
BF9
  8
DETAIL
  6
CONTINUOUS
 10
-110.16604
 20
150.456542
 30
0.0
  0
VERTEX
  5
BFA
  8
DETAIL
  6
CONTINUOUS
 10
-110.647003
 20
150.542314
 30
0.0
  0
SEQEND
  5
BFC
  8
DETAIL
  6
CONTINUOUS
  0
LINE
  5
960
  8
DETAIL
  6
CONTINUOUS
 10
-121.2
 20
139.5
 30
0.0
 11
-153.2
 21
139.5
 31
0.0
  0
LINE
  5
961
  8
DETAIL
  6
CONTINUOUS
 10
-121.2
 20
150.5
 30
0.0
 11
-121.2
 21
164.0
 31
0.0
  0
LINE
  5
962
  8
DETAIL
  6
CONTINUOUS
 10
-36.5
 20
0.0
 30
0.0
 11
36.5
 21
0.0
 31
0.0
  0
LINE
  5
963
  8
DETAIL
  6
CONTINUOUS
 10
211.5
 20
0.0
 30
0.0
 11
284.5
 21
0.0
 31
0.0
  0
LINE
  5
964
  8
DETAIL
  6
CONTINUOUS
 10
221.5
 20
0.0
 30
0.0
 11
186.0
 21
0.0
 31
0.0
  0
LINE
  5
965
  8
DETAIL
  6
CONTINUOUS
 10
186.0
 20
0.0
 30
0.0
 11
186.0
 21
3.2
 31
0.0
  0
LINE
  5
966
  8
DETAIL
  6
CONTINUOUS
 10
186.0
 20
0.0
 30
0.0
 11
186.0
 21
3.2
 31
0.0
  0
LINE
  5
967
  8
DETAIL
  6
CONTINUOUS
 10
221.5
 20
0.0
 30
0.0
 11
186.0
 21
0.0
 31
0.0
  0
LINE
  5
968
  8
DETAIL
  6
CONTINUOUS
 10
227.7
 20
18.0
 30
0.0
 11
268.3
 21
18.0
 31
0.0
  0
LINE
  5
969
  8
DETAIL
  6
CONTINUOUS
 10
273.0
 20
4.7
 30
0.0
 11
273.0
 21
13.3
 31
0.0
  0
LINE
  5
96A
  8
DETAIL
  6
CONTINUOUS
 10
227.7
 20
14.8
 30
0.0
 11
268.3
 21
14.8
 31
0.0
  0
LINE
  5
96B
  8
DETAIL
  6
CONTINUOUS
 10
269.8
 20
4.7
 30
0.0
 11
269.8
 21
13.3
 31
0.0
  0
LINE
  5
96C
  8
DETAIL
  6
CONTINUOUS
 10
221.5
 20
3.2
 30
0.0
 11
186.0
 21
3.2
 31
0.0
  0
LINE
  5
96D
  8
DETAIL
  6
CONTINUOUS
 10
226.2
 20
4.7
 30
0.0
 11
226.2
 21
13.3
 31
0.0
  0
LINE
  5
96E
  8
DETAIL
  6
CONTINUOUS
 10
223.0
 20
4.7
 30
0.0
 11
223.0
 21
13.3
 31
0.0
  0
ARC
  5
96F
  8
DETAIL
  6
CONTINUOUS
 10
268.3
 20
13.3
 30
0.0
 40
1.5
 50
0.0
 51
90.0
  0
ARC
  5
970
  8
DETAIL
  6
CONTINUOUS
 10
227.7
 20
13.3
 30
0.0
 40
1.5
 50
90.0
 51
180.0
  0
ARC
  5
971
  8
DETAIL
  6
CONTINUOUS
 10
274.5
 20
4.7
 30
0.0
 40
1.5
 50
180.0
 51
270.0
  0
ARC
  5
972
  8
DETAIL
  6
CONTINUOUS
 10
221.5
 20
4.7
 30
0.0
 40
1.5
 50
270.0
 51
0.0
  0
ARC
  5
973
  8
DETAIL
  6
CONTINUOUS
 10
268.3
 20
13.3
 30
0.0
 40
4.7
 50
0.0
 51
90.0
  0
ARC
  5
974
  8
DETAIL
  6
CONTINUOUS
 10
227.7
 20
13.3
 30
0.0
 40
4.7
 50
90.0
 51
180.0
  0
ARC
  5
975
  8
DETAIL
  6
CONTINUOUS
 10
221.5
 20
4.7
 30
0.0
 40
4.7
 50
270.0
 51
0.0
  0
ARC
  5
976
  8
DETAIL
  6
CONTINUOUS
 10
274.5
 20
4.7
 30
0.0
 40
4.7
 50
180.0
 51
270.0
  0
ARC
  5
977
  8
DETAIL
  6
CONTINUOUS
 10
274.5
 20
4.7
 30
0.0
 40
4.7
 50
180.0
 51
270.0
  0
ARC
  5
978
  8
DETAIL
  6
CONTINUOUS
 10
221.5
 20
4.7
 30
0.0
 40
4.7
 50
270.0
 51
0.0
  0
ARC
  5
979
  8
DETAIL
  6
CONTINUOUS
 10
227.7
 20
13.3
 30
0.0
 40
4.7
 50
90.0
 51
180.0
  0
ARC
  5
97A
  8
DETAIL
  6
CONTINUOUS
 10
268.3
 20
13.3
 30
0.0
 40
4.7
 50
0.0
 51
90.0
  0
ARC
  5
97B
  8
DETAIL
  6
CONTINUOUS
 10
221.5
 20
4.7
 30
0.0
 40
1.5
 50
270.0
 51
0.0
  0
ARC
  5
97C
  8
DETAIL
  6
CONTINUOUS
 10
274.5
 20
4.7
 30
0.0
 40
1.5
 50
180.0
 51
270.0
  0
ARC
  5
97D
  8
DETAIL
  6
CONTINUOUS
 10
227.7
 20
13.3
 30
0.0
 40
1.5
 50
90.0
 51
180.0
  0
ARC
  5
97E
  8
DETAIL
  6
CONTINUOUS
 10
268.3
 20
13.3
 30
0.0
 40
1.5
 50
0.0
 51
90.0
  0
LINE
  5
97F
  8
DETAIL
  6
CONTINUOUS
 10
223.0
 20
4.7
 30
0.0
 11
223.0
 21
13.3
 31
0.0
  0
LINE
  5
980
  8
DETAIL
  6
CONTINUOUS
 10
226.2
 20
4.7
 30
0.0
 11
226.2
 21
13.3
 31
0.0
  0
LINE
  5
981
  8
DETAIL
  6
CONTINUOUS
 10
221.5
 20
3.2
 30
0.0
 11
186.0
 21
3.2
 31
0.0
  0
LINE
  5
982
  8
DETAIL
  6
CONTINUOUS
 10
269.8
 20
4.7
 30
0.0
 11
269.8
 21
13.3
 31
0.0
  0
LINE
  5
983
  8
DETAIL
  6
CONTINUOUS
 10
227.7
 20
14.8
 30
0.0
 11
268.3
 21
14.8
 31
0.0
  0
LINE
  5
984
  8
DETAIL
  6
CONTINUOUS
 10
273.0
 20
4.7
 30
0.0
 11
273.0
 21
13.3
 31
0.0
  0
LINE
  5
985
  8
DETAIL
  6
CONTINUOUS
 10
227.7
 20
18.0
 30
0.0
 11
268.3
 21
18.0
 31
0.0
  0
LINE
  5
986
  8
DETAIL
  6
CONTINUOUS
 10
274.5
 20
0.0
 30
0.0
 11
310.0
 21
0.0
 31
0.0
  0
LINE
  5
987
  8
DETAIL
  6
CONTINUOUS
 10
310.0
 20
0.0
 30
0.0
 11
310.0
 21
3.2
 31
0.0
  0
LINE
  5
988
  8
DETAIL
  6
CONTINUOUS
 10
274.5
 20
3.2
 30
0.0
 11
310.0
 21
3.2
 31
0.0
  0
LINE
  5
989
  8
DETAIL
  6
CONTINUOUS
 10
274.5
 20
3.2
 30
0.0
 11
310.0
 21
3.2
 31
0.0
  0
LINE
  5
98A
  8
DETAIL
  6
CONTINUOUS
 10
310.0
 20
0.0
 30
0.0
 11
310.0
 21
3.2
 31
0.0
  0
LINE
  5
98B
  8
DETAIL
  6
CONTINUOUS
 10
274.5
 20
0.0
 30
0.0
 11
310.0
 21
0.0
 31
0.0
  0
LINE
  5
98C
  8
DETAIL
  6
CONTINUOUS
 10
-284.5
 20
0.0
 30
0.0
 11
-211.5
 21
0.0
 31
0.0
  0
LINE
  5
98D
  8
DETAIL
  6
CONTINUOUS
 10
-274.5
 20
0.0
 30
0.0
 11
-310.0
 21
0.0
 31
0.0
  0
LINE
  5
98E
  8
DETAIL
  6
CONTINUOUS
 10
-310.0
 20
0.0
 30
0.0
 11
-310.0
 21
3.2
 31
0.0
  0
LINE
  5
98F
  8
DETAIL
  6
CONTINUOUS
 10
-310.0
 20
0.0
 30
0.0
 11
-310.0
 21
3.2
 31
0.0
  0
LINE
  5
990
  8
DETAIL
  6
CONTINUOUS
 10
-274.5
 20
0.0
 30
0.0
 11
-310.0
 21
0.0
 31
0.0
  0
LINE
  5
991
  8
DETAIL
  6
CONTINUOUS
 10
-268.3
 20
18.0
 30
0.0
 11
-227.7
 21
18.0
 31
0.0
  0
LINE
  5
992
  8
DETAIL
  6
CONTINUOUS
 10
-223.0
 20
4.7
 30
0.0
 11
-223.0
 21
13.3
 31
0.0
  0
LINE
  5
993
  8
DETAIL
  6
CONTINUOUS
 10
-268.3
 20
14.8
 30
0.0
 11
-227.7
 21
14.8
 31
0.0
  0
LINE
  5
994
  8
DETAIL
  6
CONTINUOUS
 10
-226.2
 20
4.7
 30
0.0
 11
-226.2
 21
13.3
 31
0.0
  0
LINE
  5
995
  8
DETAIL
  6
CONTINUOUS
 10
-274.5
 20
3.2
 30
0.0
 11
-310.0
 21
3.2
 31
0.0
  0
LINE
  5
996
  8
DETAIL
  6
CONTINUOUS
 10
-269.8
 20
4.7
 30
0.0
 11
-269.8
 21
13.3
 31
0.0
  0
LINE
  5
997
  8
DETAIL
  6
CONTINUOUS
 10
-273.0
 20
4.7
 30
0.0
 11
-273.0
 21
13.3
 31
0.0
  0
ARC
  5
998
  8
DETAIL
  6
CONTINUOUS
 10
-227.7
 20
13.3
 30
0.0
 40
1.5
 50
0.0
 51
90.0
  0
ARC
  5
999
  8
DETAIL
  6
CONTINUOUS
 10
-268.3
 20
13.3
 30
0.0
 40
1.5
 50
90.0
 51
180.0
  0
ARC
  5
99A
  8
DETAIL
  6
CONTINUOUS
 10
-221.5
 20
4.7
 30
0.0
 40
1.5
 50
180.0
 51
270.0
  0
ARC
  5
99B
  8
DETAIL
  6
CONTINUOUS
 10
-274.5
 20
4.7
 30
0.0
 40
1.5
 50
270.0
 51
0.0
  0
ARC
  5
99C
  8
DETAIL
  6
CONTINUOUS
 10
-227.7
 20
13.3
 30
0.0
 40
4.7
 50
0.0
 51
90.0
  0
ARC
  5
99D
  8
DETAIL
  6
CONTINUOUS
 10
-268.3
 20
13.3
 30
0.0
 40
4.7
 50
90.0
 51
180.0
  0
ARC
  5
99E
  8
DETAIL
  6
CONTINUOUS
 10
-274.5
 20
4.7
 30
0.0
 40
4.7
 50
270.0
 51
0.0
  0
ARC
  5
99F
  8
DETAIL
  6
CONTINUOUS
 10
-221.5
 20
4.7
 30
0.0
 40
4.7
 50
180.0
 51
270.0
  0
ARC
  5
9A0
  8
DETAIL
  6
CONTINUOUS
 10
-221.5
 20
4.7
 30
0.0
 40
4.7
 50
180.0
 51
270.0
  0
ARC
  5
9A1
  8
DETAIL
  6
CONTINUOUS
 10
-274.5
 20
4.7
 30
0.0
 40
4.7
 50
270.0
 51
0.0
  0
ARC
  5
9A2
  8
DETAIL
  6
CONTINUOUS
 10
-268.3
 20
13.3
 30
0.0
 40
4.7
 50
90.0
 51
180.0
  0
ARC
  5
9A3
  8
DETAIL
  6
CONTINUOUS
 10
-227.7
 20
13.3
 30
0.0
 40
4.7
 50
0.0
 51
90.0
  0
ARC
  5
9A4
  8
DETAIL
  6
CONTINUOUS
 10
-274.5
 20
4.7
 30
0.0
 40
1.5
 50
270.0
 51
0.0
  0
ARC
  5
9A5
  8
DETAIL
  6
CONTINUOUS
 10
-221.5
 20
4.7
 30
0.0
 40
1.5
 50
180.0
 51
270.0
  0
ARC
  5
9A6
  8
DETAIL
  6
CONTINUOUS
 10
-268.3
 20
13.3
 30
0.0
 40
1.5
 50
90.0
 51
180.0
  0
ARC
  5
9A7
  8
DETAIL
  6
CONTINUOUS
 10
-227.7
 20
13.3
 30
0.0
 40
1.5
 50
0.0
 51
90.0
  0
LINE
  5
9A8
  8
DETAIL
  6
CONTINUOUS
 10
-273.0
 20
4.7
 30
0.0
 11
-273.0
 21
13.3
 31
0.0
  0
LINE
  5
9A9
  8
DETAIL
  6
CONTINUOUS
 10
-269.8
 20
4.7
 30
0.0
 11
-269.8
 21
13.3
 31
0.0
  0
LINE
  5
9AA
  8
DETAIL
  6
CONTINUOUS
 10
-274.5
 20
3.2
 30
0.0
 11
-310.0
 21
3.2
 31
0.0
  0
LINE
  5
9AB
  8
DETAIL
  6
CONTINUOUS
 10
-226.2
 20
4.7
 30
0.0
 11
-226.2
 21
13.3
 31
0.0
  0
LINE
  5
9AC
  8
DETAIL
  6
CONTINUOUS
 10
-268.3
 20
14.8
 30
0.0
 11
-227.7
 21
14.8
 31
0.0
  0
LINE
  5
9AD
  8
DETAIL
  6
CONTINUOUS
 10
-223.0
 20
4.7
 30
0.0
 11
-223.0
 21
13.3
 31
0.0
  0
LINE
  5
9AE
  8
DETAIL
  6
CONTINUOUS
 10
-268.3
 20
18.0
 30
0.0
 11
-227.7
 21
18.0
 31
0.0
  0
LINE
  5
9AF
  8
DETAIL
  6
CONTINUOUS
 10
-221.5
 20
0.0
 30
0.0
 11
-186.0
 21
0.0
 31
0.0
  0
LINE
  5
9B0
  8
DETAIL
  6
CONTINUOUS
 10
-186.0
 20
0.0
 30
0.0
 11
-186.0
 21
3.2
 31
0.0
  0
LINE
  5
9B1
  8
DETAIL
  6
CONTINUOUS
 10
-221.5
 20
3.2
 30
0.0
 11
-186.0
 21
3.2
 31
0.0
  0
LINE
  5
9B2
  8
DETAIL
  6
CONTINUOUS
 10
-221.5
 20
3.2
 30
0.0
 11
-186.0
 21
3.2
 31
0.0
  0
LINE
  5
9B3
  8
DETAIL
  6
CONTINUOUS
 10
-186.0
 20
0.0
 30
0.0
 11
-186.0
 21
3.2
 31
0.0
  0
LINE
  5
9B4
  8
DETAIL
  6
CONTINUOUS
 10
-221.5
 20
0.0
 30
0.0
 11
-186.0
 21
0.0
 31
0.0
  0
LINE
  5
9B5
  8
DETAIL
  6
CONTINUOUS
 10
-275.0
 20
1804.0
 30
0.0
 11
-275.0
 21
200.0
 31
0.0
  0
LINE
  5
9B6
  8
DETAIL
  6
CONTINUOUS
 10
275.0
 20
1804.0
 30
0.0
 11
275.0
 21
200.0
 31
0.0
  0
ARC
  5
9B7
  8
DETAIL
  6
CONTINUOUS
 10
40.0
 20
1870.0
 30
0.0
 40
5.0
 50
0.0
 51
90.0
  0
ARC
  5
9B8
  8
DETAIL
  6
CONTINUOUS
 10
-40.0
 20
1870.0
 30
0.0
 40
5.0
 50
90.0
 51
180.0
  0
LINE
  5
9B9
  8
DETAIL
  6
CONTINUOUS
 10
-40.0
 20
1875.0
 30
0.0
 11
40.0
 21
1875.0
 31
0.0
  0
LINE
  5
9BA
  8
DETAIL
  6
CONTINUOUS
 10
45.0
 20
1830.0
 30
0.0
 11
45.0
 21
1870.0
 31
0.0
  0
LINE
  5
9BB
  8
DETAIL
  6
CONTINUOUS
 10
-45.0
 20
1830.0
 30
0.0
 11
-45.0
 21
1870.0
 31
0.0
  0
LINE
  5
9BC
  8
DETAIL
  6
CONTINUOUS
 10
-315.0
 20
1804.0
 30
0.0
 11
315.0
 21
1804.0
 31
0.0
  0
LINE
  5
9BD
  8
DETAIL
  6
CONTINUOUS
 10
36.5
 20
200.0
 30
0.0
 11
36.5
 21
0.0
 31
0.0
  0
LINE
  5
9BE
  8
DETAIL
  6
CONTINUOUS
 10
284.5
 20
0.0
 30
0.0
 11
211.5
 21
0.0
 31
0.0
  0
LINE
  5
9BF
  8
DETAIL
  6
CONTINUOUS
 10
284.5
 20
200.0
 30
0.0
 11
284.5
 21
0.0
 31
0.0
  0
LINE
  5
9C0
  8
DETAIL
  6
CONTINUOUS
 10
-36.5
 20
200.0
 30
0.0
 11
-36.5
 21
0.0
 31
0.0
  0
LINE
  5
9C1
  8
DETAIL
  6
CONTINUOUS
 10
-211.5
 20
200.0
 30
0.0
 11
-211.5
 21
0.0
 31
0.0
  0
LINE
  5
9C2
  8
DETAIL
  6
CONTINUOUS
 10
-284.5
 20
200.0
 30
0.0
 11
-284.5
 21
0.0
 31
0.0
  0
LINE
  5
9C3
  8
DETAIL
  6
CONTINUOUS
 10
315.0
 20
1830.0
 30
0.0
 11
315.0
 21
200.0
 31
0.0
  0
LINE
  5
9C4
  8
DETAIL
  6
CONTINUOUS
 10
-315.0
 20
200.0
 30
0.0
 11
-315.0
 21
1830.0
 31
0.0
  0
LINE
  5
9C5
  8
DETAIL
  6
CONTINUOUS
 10
-315.0
 20
1830.0
 30
0.0
 11
315.0
 21
1830.0
 31
0.0
  0
LINE
  5
9C6
  8
DETAIL
  6
CONTINUOUS
 10
-315.0
 20
200.0
 30
0.0
 11
315.0
 21
200.0
 31
0.0
  0
LINE
  5
9C7
  8
DETAIL
  6
CONTINUOUS
 10
-284.5
 20
0.0
 30
0.0
 11
-211.5
 21
0.0
 31
0.0
  0
LINE
  5
9C8
  8
DETAIL
  6
CONTINUOUS
 10
-45.0
 20
1830.0
 30
0.0
 11
-45.0
 21
1870.0
 31
0.0
  0
LINE
  5
9C9
  8
DETAIL
  6
CONTINUOUS
 10
45.0
 20
1830.0
 30
0.0
 11
45.0
 21
1870.0
 31
0.0
  0
LINE
  5
9CA
  8
DETAIL
  6
CONTINUOUS
 10
-40.0
 20
1875.0
 30
0.0
 11
40.0
 21
1875.0
 31
0.0
  0
ARC
  5
9CB
  8
DETAIL
  6
CONTINUOUS
 10
-40.0
 20
1870.0
 30
0.0
 40
5.0
 50
90.0
 51
180.0
  0
ARC
  5
9CC
  8
DETAIL
  6
CONTINUOUS
 10
40.0
 20
1870.0
 30
0.0
 40
5.0
 50
0.0
 51
90.0
  0
LINE
  5
9CD
  8
DETAIL
  6
CONTINUOUS
 10
163.0
 20
200.0
 30
0.0
 11
163.0
 21
184.0
 31
0.0
  0
LINE
  5
9CE
  8
DETAIL
  6
CONTINUOUS
 10
211.2
 20
155.0
 30
0.0
 11
165.9
 21
155.0
 31
0.0
  0
LINE
  5
9CF
  8
DETAIL
  6
DASHED
 10
216.4
 20
320.0
 30
0.0
 11
243.6
 21
320.0
 31
0.0
  0
LINE
  5
9D0
  8
DETAIL
  6
DASHED
 10
216.4
 20
320.0
 30
0.0
 11
216.4
 21
400.0
 31
0.0
  0
LINE
  5
9D1
  8
DETAIL
  6
DASHED
 10
243.6
 20
320.0
 30
0.0
 11
243.6
 21
400.0
 31
0.0
  0
LINE
  5
9D2
  8
DETAIL
  6
DASHED
 10
-83.6
 20
320.0
 30
0.0
 11
-56.40000000000001
 21
320.0
 31
0.0
  0
LINE
  5
9D3
  8
DETAIL
  6
DASHED
 10
-83.6
 20
320.0
 30
0.0
 11
-83.6
 21
400.0
 31
0.0
  0
LINE
  5
9D4
  8
DETAIL
  6
DASHED
 10
-56.40000000000001
 20
320.0
 30
0.0
 11
-56.40000000000001
 21
400.0
 31
0.0
  0
LINE
  5
9D5
  8
DETAIL
  6
DASHED
 10
-265.85
 20
360.0
 30
0.0
 11
-265.85
 21
400.0
 31
0.0
  0
LINE
  5
9D6
  8
DETAIL
  6
DASHED
 10
-265.85
 20
360.0
 30
0.0
 11
-244.15
 21
360.0
 31
0.0
  0
LINE
  5
9D7
  8
DETAIL
  6
DASHED
 10
-244.15
 20
360.0
 30
0.0
 11
-244.15
 21
400.0
 31
0.0
  0
LINE
  5
9D8
  8
DETAIL
  6
DASHED
 10
-315.0
 20
400.0
 30
0.0
 11
315.0
 21
400.0
 31
0.0
  0
LINE
  5
9D9
  8
DETAIL
  6
CONTINUOUS
 10
-170.7
 20
188.5
 30
0.0
 11
-170.7
 21
192.0
 31
0.0
  0
LINE
  5
9DA
  8
DETAIL
  6
CONTINUOUS
 10
-107.7
 20
188.5
 30
0.0
 11
-107.7
 21
192.0
 31
0.0
  0
LINE
  5
9DB
  8
DETAIL
  6
CONTINUOUS
 10
-107.7
 20
188.5
 30
0.0
 11
-170.7
 21
188.5
 31
0.0
  0
LINE
  5
9DC
  8
DETAIL
  6
CONTINUOUS
 10
-93.7
 20
192.5
 30
0.0
 11
-177.7
 21
192.5
 31
0.0
  0
LINE
  5
9DD
  8
DETAIL
  6
CONTINUOUS
 10
-93.7
 20
192.0
 30
0.0
 11
-85.7
 21
200.0
 31
0.0
  0
LINE
  5
9DE
  8
DETAIL
  6
CONTINUOUS
 10
-177.7
 20
192.0
 30
0.0
 11
-185.7
 21
200.0
 31
0.0
  0
LINE
  5
9DF
  8
DETAIL
  6
CONTINUOUS
 10
-121.2
 20
164.0
 30
0.0
 11
-121.2
 21
182.0
 31
0.0
  0
LINE
  5
9E0
  8
DETAIL
  6
CONTINUOUS
 10
-112.353212
 20
182.0
 30
0.0
 11
-121.2
 21
182.0
 31
0.0
  0
ARC
  5
9E1
  8
DETAIL
  6
CONTINUOUS
 10
-153.2
 20
143.5
 30
0.0
 40
4.0
 50
180.0
 51
270.0
  0
LINE
  5
9E2
  8
DETAIL
  6
CONTINUOUS
 10
-110.621161
 20
139.5
 30
0.0
 11
-121.2
 21
139.5
 31
0.0
  0
LINE
  5
9E3
  8
DETAIL
  6
CONTINUOUS
 10
-157.2
 20
143.5
 30
0.0
 11
-157.2
 21
189.0
 31
0.0
  0
LINE
  5
9E4
  8
DETAIL
  6
CONTINUOUS
 10
-110.621161
 20
150.5
 30
0.0
 11
-121.2
 21
150.5
 31
0.0
  0
LINE
  5
9E5
  8
DETAIL
  6
CONTINUOUS
 10
-112.353212
 20
164.0
 30
0.0
 11
-121.2
 21
164.0
 31
0.0
  0
LINE
  5
9E6
  8
DETAIL
  6
CONTINUOUS
 10
-121.2
 20
139.5
 30
0.0
 11
-121.2
 21
143.5
 31
0.0
  0
LINE
  5
9E7
  8
BASIS
  6
DASHDOT
 10
0.0
 20
1925.0
 30
0.0
 11
0.0
 21
-50.0
 31
0.0
  0
LINE
  5
9E8
  8
SIZE
  6
CONTINUOUS
 62
    30
 10
-311.000006
 20
0.0
 30
0.0
 11
-807.665753
 21
0.0
 31
0.0
  0
LINE
  5
9E9
  8
SIZE
  6
CONTINUOUS
 62
    30
 10
-285.000006
 20
360.000014
 30
0.0
 11
-807.665753
 21
360.000014
 31
0.0
  0
LINE
  5
9EA
  8
SIZE
  6
CONTINUOUS
 62
    30
 10
-795.165753
 20
10.0
 30
0.0
 11
-795.165753
 21
350.000014
 31
0.0
  0
CIRCLE
  5
9EB
  8
SIZE
  6
CONTINUOUS
 62
    30
 10
-795.165753
 20
0.0
 30
0.0
 40
5.0
  0
LINE
  5
9EC
  8
SIZE
  6
CONTINUOUS
 62
    30
 10
-795.165753
 20
0.0
 30
0.0
 11
-795.165753
 21
10.0
 31
0.0
  0
CIRCLE
  5
9ED
  8
SIZE
  6
CONTINUOUS
 62
    30
 10
-795.165753
 20
360.000014
 30
0.0
 40
5.0
  0
LINE
  5
9EE
  8
SIZE
  6
CONTINUOUS
 62
    30
 10
-795.165753
 20
360.000014
 30
0.0
 11
-795.165753
 21
350.000014
 31
0.0
  0
TEXT
  5
9EF
  8
SIZE
  6
CONTINUOUS
 62
    30
 10
-805.165753
 20
137.1428551428571
 30
0.0
 40
30.0
  1
360
 50
90.0
 72
     1
 11
-805.165753
 21
179.999998
 31
0.0
  0
POINT
  5
9F0
  8
DEFPOINTS
  6
CONTINUOUS
 62
    30
 10
-301.000006
 20
0.0
 30
0.0
  0
POINT
  5
9F1
  8
DEFPOINTS
  6
CONTINUOUS
 62
    30
 10
-275.000006
 20
360.000014
 30
0.0
  0
POINT
  5
9F2
  8
DEFPOINTS
  6
CONTINUOUS
 62
    30
 10
-795.165753
 20
360.000014
 30
0.0
  0
LINE
  5
9F3
  8
SIZE
  6
CONTINUOUS
 62
    30
 10
-320.000006
 20
0.0
 30
0.0
 11
-607.509809
 21
0.0
 31
0.0
  0
LINE
  5
9F4
  8
SIZE
  6
CONTINUOUS
 62
    30
 10
-138.023085
 20
172.999998
 30
0.0
 11
-607.509809
 21
172.999998
 31
0.0
  0
LINE
  5
9F5
  8
SIZE
  6
CONTINUOUS
 62
    30
 10
-595.009809
 20
10.0
 30
0.0
 11
-595.009809
 21
162.999998
 31
0.0
  0
CIRCLE
  5
9F6
  8
SIZE
  6
CONTINUOUS
 62
    30
 10
-595.009809
 20
0.0
 30
0.0
 40
5.0
  0
LINE
  5
9F7
  8
SIZE
  6
CONTINUOUS
 62
    30
 10
-595.009809
 20
0.0
 30
0.0
 11
-595.009809
 21
10.0
 31
0.0
  0
CIRCLE
  5
9F8
  8
SIZE
  6
CONTINUOUS
 62
    30
 10
-595.009809
 20
172.999998
 30
0.0
 40
5.0
  0
LINE
  5
9F9
  8
SIZE
  6
CONTINUOUS
 62
    30
 10
-595.009809
 20
172.999998
 30
0.0
 11
-595.009809
 21
162.999998
 31
0.0
  0
TEXT
  5
9FA
  8
SIZE
  6
CONTINUOUS
 62
    30
 10
-605.009809
 20
41.49999800000001
 30
0.0
 40
30.0
  1
173
 50
90.0
 72
     1
 11
-605.009809
 21
86.499998
 31
0.0
  0
POINT
  5
9FB
  8
DEFPOINTS
  6
CONTINUOUS
 62
    30
 10
-310.000006
 20
0.0
 30
0.0
  0
POINT
  5
9FC
  8
DEFPOINTS
  6
CONTINUOUS
 62
    30
 10
-128.023085
 20
172.999998
 30
0.0
  0
POINT
  5
9FD
  8
DEFPOINTS
  6
CONTINUOUS
 62
    30
 10
-595.009809
 20
172.999998
 30
0.0
  0
LINE
  5
9FE
  8
SIZE
  6
CONTINUOUS
 62
    30
 10
0.0
 20
-59.99999800000001
 30
0.0
 11
0.0
 21
-364.641979
 31
0.0
  0
LINE
  5
9FF
  8
SIZE
  6
CONTINUOUS
 62
    30
 10
-108.023085
 20
142.999998
 30
0.0
 11
-108.023085
 21
-364.641979
 31
0.0
  0
LINE
  5
A00
  8
SIZE
  6
CONTINUOUS
 62
    30
 10
-10.0
 20
-352.141979
 30
0.0
 11
-98.023085
 21
-352.141979
 31
0.0
  0
CIRCLE
  5
A01
  8
SIZE
  6
CONTINUOUS
 62
    30
 10
0.0
 20
-352.141979
 30
0.0
 40
5.0
  0
LINE
  5
A02
  8
SIZE
  6
CONTINUOUS
 62
    30
 10
0.0
 20
-352.141979
 30
0.0
 11
-10.0
 21
-352.141979
 31
0.0
  0
CIRCLE
  5
A03
  8
SIZE
  6
CONTINUOUS
 62
    30
 10
-108.023085
 20
-352.141979
 30
0.0
 40
5.0
  0
LINE
  5
A04
  8
SIZE
  6
CONTINUOUS
 62
    30
 10
-108.023085
 20
-352.141979
 30
0.0
 11
-98.023085
 21
-352.141979
 31
0.0
  0
TEXT
  5
A05
  8
SIZE
  6
CONTINUOUS
 62
    30
 10
-99.011542
 20
-342.141979
 30
0.0
 40
30.0
  1
108
 72
     1
 11
-54.01154200000001
 21
-342.141979
 31
0.0
  0
POINT
  5
A06
  8
DEFPOINTS
  6
CONTINUOUS
 62
    30
 10
0.0
 20
-49.99999800000001
 30
0.0
  0
POINT
  5
A07
  8
DEFPOINTS
  6
CONTINUOUS
 62
    30
 10
-108.023085
 20
152.999998
 30
0.0
  0
POINT
  5
A08
  8
DEFPOINTS
  6
CONTINUOUS
 62
    30
 10
-108.023085
 20
-352.141979
 30
0.0
  0
LINE
  5
A09
  8
SIZE
  6
CONTINUOUS
 62
    30
 10
314.999994
 20
2040.000014
 30
0.0
 11
314.999994
 21
2394.900014
 31
0.0
  0
LINE
  5
A0A
  8
SIZE
  6
CONTINUOUS
 62
    30
 10
-315.000006
 20
2040.000014
 30
0.0
 11
-315.000006
 21
2394.900014
 31
0.0
  0
LINE
  5
A0B
  8
SIZE
  6
CONTINUOUS
 62
    30
 10
304.999994
 20
2382.400014
 30
0.0
 11
-305.000006
 21
2382.400014
 31
0.0
  0
CIRCLE
  5
A0C
  8
SIZE
  6
CONTINUOUS
 62
    30
 10
314.999994
 20
2382.400014
 30
0.0
 40
5.0
  0
LINE
  5
A0D
  8
SIZE
  6
CONTINUOUS
 62
    30
 10
314.999994
 20
2382.400014
 30
0.0
 11
304.999994
 21
2382.400014
 31
0.0
  0
CIRCLE
  5
A0E
  8
SIZE
  6
CONTINUOUS
 62
    30
 10
-315.000006
 20
2382.400014
 30
0.0
 40
5.0
  0
LINE
  5
A0F
  8
SIZE
  6
CONTINUOUS
 62
    30
 10
-315.000006
 20
2382.400014
 30
0.0
 11
-305.000006
 21
2382.400014
 31
0.0
  0
TEXT
  5
A10
  8
SIZE
  6
CONTINUOUS
 62
    30
 10
-43.57142857142857
 20
2392.400014
 30
0.0
 40
30.0
  1
630
 72
     1
 11
0.0
 21
2392.400014
 31
0.0
  0
POINT
  5
A11
  8
DEFPOINTS
  6
CONTINUOUS
 62
    30
 10
314.999994
 20
2030.000014
 30
0.0
  0
POINT
  5
A12
  8
DEFPOINTS
  6
CONTINUOUS
 62
    30
 10
-315.000006
 20
2030.000014
 30
0.0
  0
POINT
  5
A13
  8
DEFPOINTS
  6
CONTINUOUS
 62
    30
 10
-315.000006
 20
2382.400014
 30
0.0
  0
LINE
  5
A14
  8
SIZE
  6
CONTINUOUS
 62
    30
 10
45.000001
 20
1880.000014
 30
0.0
 11
45.000001
 21
2244.900014
 31
0.0
  0
LINE
  5
A15
  8
SIZE
  6
CONTINUOUS
 62
    30
 10
-44.999999
 20
1880.000014
 30
0.0
 11
-44.999999
 21
2244.900014
 31
0.0
  0
LINE
  5
A16
  8
SIZE
  6
CONTINUOUS
 62
    30
 10
35.000001
 20
2232.400014
 30
0.0
 11
-34.999999
 21
2232.400014
 31
0.0
  0
CIRCLE
  5
A17
  8
SIZE
  6
CONTINUOUS
 62
    30
 10
45.000001
 20
2232.400014
 30
0.0
 40
5.0
  0
LINE
  5
A18
  8
SIZE
  6
CONTINUOUS
 62
    30
 10
45.000001
 20
2232.400014
 30
0.0
 11
35.000001
 21
2232.400014
 31
0.0
  0
CIRCLE
  5
A19
  8
SIZE
  6
CONTINUOUS
 62
    30
 10
-44.999999
 20
2232.400014
 30
0.0
 40
5.0
  0
LINE
  5
A1A
  8
SIZE
  6
CONTINUOUS
 62
    30
 10
-44.999999
 20
2232.400014
 30
0.0
 11
-34.999999
 21
2232.400014
 31
0.0
  0
TEXT
  5
A1B
  8
SIZE
  6
CONTINUOUS
 62
    30
 10
-28.57142857142857
 20
2242.400014
 30
0.0
 40
30.0
  1
90
 72
     1
 11
0.0
 21
2242.400014
 31
0.0
  0
POINT
  5
A1C
  8
DEFPOINTS
  6
CONTINUOUS
 62
    30
 10
45.000001
 20
1870.000014
 30
0.0
  0
POINT
  5
A1D
  8
DEFPOINTS
  6
CONTINUOUS
 62
    30
 10
-44.999999
 20
1870.000014
 30
0.0
  0
POINT
  5
A1E
  8
DEFPOINTS
  6
CONTINUOUS
 62
    30
 10
-44.999999
 20
2232.400014
 30
0.0
  0
LINE
  5
A1F
  8
SIZE
  6
CONTINUOUS
 62
    30
 10
29.999999
 20
1883.000014
 30
0.0
 11
29.999999
 21
2144.900014
 31
0.0
  0
LINE
  5
A20
  8
SIZE
  6
CONTINUOUS
 62
    30
 10
-30.000001
 20
1883.000014
 30
0.0
 11
-30.000001
 21
2144.900014
 31
0.0
  0
LINE
  5
A21
  8
SIZE
  6
CONTINUOUS
 62
    30
 10
19.999999
 20
2132.400014
 30
0.0
 11
-20.000001
 21
2132.400014
 31
0.0
  0
CIRCLE
  5
A22
  8
SIZE
  6
CONTINUOUS
 62
    30
 10
29.999999
 20
2132.400014
 30
0.0
 40
5.0
  0
LINE
  5
A23
  8
SIZE
  6
CONTINUOUS
 62
    30
 10
29.999999
 20
2132.400014
 30
0.0
 11
19.999999
 21
2132.400014
 31
0.0
  0
CIRCLE
  5
A24
  8
SIZE
  6
CONTINUOUS
 62
    30
 10
-30.000001
 20
2132.400014
 30
0.0
 40
5.0
  0
LINE
  5
A25
  8
SIZE
  6
CONTINUOUS
 62
    30
 10
-30.000001
 20
2132.400014
 30
0.0
 11
-20.000001
 21
2132.400014
 31
0.0
  0
TEXT
  5
A26
  8
SIZE
  6
CONTINUOUS
 62
    30
 10
-29.28571528571429
 20
2142.400014
 30
0.0
 40
30.0
  1
60
 72
     1
 11
-0.000001
 21
2142.400014
 31
0.0
  0
POINT
  5
A27
  8
DEFPOINTS
  6
CONTINUOUS
 62
    30
 10
29.999999
 20
1873.000014
 30
0.0
  0
POINT
  5
A28
  8
DEFPOINTS
  6
CONTINUOUS
 62
    30
 10
-30.000001
 20
1873.000014
 30
0.0
  0
POINT
  5
A29
  8
DEFPOINTS
  6
CONTINUOUS
 62
    30
 10
-30.000001
 20
2132.400014
 30
0.0
  0
LINE
  5
A2A
  8
SIZE
  6
CONTINUOUS
 62
    30
 10
324.999994
 20
2030.000014
 30
0.0
 11
875.099994
 21
2030.000014
 31
0.0
  0
LINE
  5
A2B
  8
SIZE
  6
CONTINUOUS
 62
    30
 10
324.999994
 20
1830.000014
 30
0.0
 11
875.099994
 21
1830.000014
 31
0.0
  0
LINE
  5
A2C
  8
SIZE
  6
CONTINUOUS
 62
    30
 10
862.599994
 20
2020.000014
 30
0.0
 11
862.599994
 21
1840.000014
 31
0.0
  0
CIRCLE
  5
A2D
  8
SIZE
  6
CONTINUOUS
 62
    30
 10
862.599994
 20
2030.000014
 30
0.0
 40
5.0
  0
LINE
  5
A2E
  8
SIZE
  6
CONTINUOUS
 62
    30
 10
862.599994
 20
2030.000014
 30
0.0
 11
862.599994
 21
2020.000014
 31
0.0
  0
CIRCLE
  5
A2F
  8
SIZE
  6
CONTINUOUS
 62
    30
 10
862.599994
 20
1830.000014
 30
0.0
 40
5.0
  0
LINE
  5
A30
  8
SIZE
  6
CONTINUOUS
 62
    30
 10
862.599994
 20
1830.000014
 30
0.0
 11
862.599994
 21
1840.000014
 31
0.0
  0
TEXT
  5
A31
  8
SIZE
  6
CONTINUOUS
 62
    30
 10
852.599994
 20
1887.142871142857
 30
0.0
 40
30.0
  1
200
 50
90.0
 72
     1
 11
852.599994
 21
1930.000014
 31
0.0
  0
POINT
  5
A32
  8
DEFPOINTS
  6
CONTINUOUS
 62
    30
 10
314.999994
 20
2030.000014
 30
0.0
  0
POINT
  5
A33
  8
DEFPOINTS
  6
CONTINUOUS
 62
    30
 10
314.999994
 20
1830.000014
 30
0.0
  0
POINT
  5
A34
  8
DEFPOINTS
  6
CONTINUOUS
 62
    30
 10
862.599994
 20
1830.000014
 30
0.0
  0
LINE
  5
A35
  8
SIZE
  6
CONTINUOUS
 62
    30
 10
324.999994
 20
1830.000014
 30
0.0
 11
775.099994
 21
1830.000014
 31
0.0
  0
LINE
  5
A36
  8
SIZE
  6
CONTINUOUS
 62
    30
 10
324.999994
 20
199.999998
 30
0.0
 11
775.099994
 21
199.999998
 31
0.0
  0
LINE
  5
A37
  8
SIZE
  6
CONTINUOUS
 62
    30
 10
762.599994
 20
1820.000014
 30
0.0
 11
762.599994
 21
209.999998
 31
0.0
  0
CIRCLE
  5
A38
  8
SIZE
  6
CONTINUOUS
 62
    30
 10
762.599994
 20
1830.000014
 30
0.0
 40
5.0
  0
LINE
  5
A39
  8
SIZE
  6
CONTINUOUS
 62
    30
 10
762.599994
 20
1830.000014
 30
0.0
 11
762.599994
 21
1820.000014
 31
0.0
  0
CIRCLE
  5
A3A
  8
SIZE
  6
CONTINUOUS
 62
    30
 10
762.599994
 20
199.999998
 30
0.0
 40
5.0
  0
LINE
  5
A3B
  8
SIZE
  6
CONTINUOUS
 62
    30
 10
762.599994
 20
199.999998
 30
0.0
 11
762.599994
 21
209.999998
 31
0.0
  0
TEXT
  5
A3C
  8
SIZE
  6
CONTINUOUS
 62
    30
 10
752.599994
 20
955.7142997142856
 30
0.0
 40
30.0
  1
1630
 50
90.0
 72
     1
 11
752.599994
 21
1015.000014
 31
0.0
  0
POINT
  5
A3D
  8
DEFPOINTS
  6
CONTINUOUS
 62
    30
 10
314.999994
 20
1830.000014
 30
0.0
  0
POINT
  5
A3E
  8
DEFPOINTS
  6
CONTINUOUS
 62
    30
 10
314.999994
 20
199.999998
 30
0.0
  0
POINT
  5
A3F
  8
DEFPOINTS
  6
CONTINUOUS
 62
    30
 10
762.599994
 20
199.999998
 30
0.0
  0
LINE
  5
A40
  8
SIZE
  6
CONTINUOUS
 62
    30
 10
324.999994
 20
1830.000014
 30
0.0
 11
875.099994
 21
1830.000014
 31
0.0
  0
LINE
  5
A41
  8
SIZE
  6
CONTINUOUS
 62
    30
 10
319.999994
 20
0.0
 30
0.0
 11
875.099994
 21
0.0
 31
0.0
  0
LINE
  5
A42
  8
SIZE
  6
CONTINUOUS
 62
    30
 10
862.599994
 20
1820.000014
 30
0.0
 11
862.599994
 21
10.0
 31
0.0
  0
CIRCLE
  5
A43
  8
SIZE
  6
CONTINUOUS
 62
    30
 10
862.599994
 20
1830.000014
 30
0.0
 40
5.0
  0
LINE
  5
A44
  8
SIZE
  6
CONTINUOUS
 62
    30
 10
862.599994
 20
1830.000014
 30
0.0
 11
862.599994
 21
1820.000014
 31
0.0
  0
CIRCLE
  5
A45
  8
SIZE
  6
CONTINUOUS
 62
    30
 10
862.599994
 20
0.0
 30
0.0
 40
5.0
  0
LINE
  5
A46
  8
SIZE
  6
CONTINUOUS
 62
    30
 10
862.599994
 20
0.0
 30
0.0
 11
862.599994
 21
10.0
 31
0.0
  0
TEXT
  5
A47
  8
SIZE
  6
CONTINUOUS
 62
    30
 10
852.599994
 20
855.7142997142856
 30
0.0
 40
30.0
  1
1830
 50
90.0
 72
     1
 11
852.599994
 21
915.000014
 31
0.0
  0
POINT
  5
A48
  8
DEFPOINTS
  6
CONTINUOUS
 62
    30
 10
314.999994
 20
1830.000014
 30
0.0
  0
POINT
  5
A49
  8
DEFPOINTS
  6
CONTINUOUS
 62
    30
 10
309.999994
 20
0.0
 30
0.0
  0
POINT
  5
A4A
  8
DEFPOINTS
  6
CONTINUOUS
 62
    30
 10
862.599994
 20
0.0
 30
0.0
  0
LINE
  5
A4B
  8
SIZE
  6
CONTINUOUS
 62
    30
 10
-325.000006
 20
400.000014
 30
0.0
 11
-907.509809
 21
400.000014
 31
0.0
  0
LINE
  5
A4C
  8
SIZE
  6
CONTINUOUS
 62
    30
 10
-320.000006
 20
0.0
 30
0.0
 11
-907.509809
 21
0.0
 31
0.0
  0
LINE
  5
A4D
  8
SIZE
  6
CONTINUOUS
 62
    30
 10
-895.009809
 20
390.000014
 30
0.0
 11
-895.009809
 21
10.0
 31
0.0
  0
CIRCLE
  5
A4E
  8
SIZE
  6
CONTINUOUS
 62
    30
 10
-895.009809
 20
400.000014
 30
0.0
 40
5.0
  0
LINE
  5
A4F
  8
SIZE
  6
CONTINUOUS
 62
    30
 10
-895.009809
 20
400.000014
 30
0.0
 11
-895.009809
 21
390.000014
 31
0.0
  0
CIRCLE
  5
A50
  8
SIZE
  6
CONTINUOUS
 62
    30
 10
-895.009809
 20
0.0
 30
0.0
 40
5.0
  0
LINE
  5
A51
  8
SIZE
  6
CONTINUOUS
 62
    30
 10
-895.009809
 20
0.0
 30
0.0
 11
-895.009809
 21
10.0
 31
0.0
  0
TEXT
  5
A52
  8
SIZE
  6
CONTINUOUS
 62
    30
 10
-905.009809
 20
182.0867941428571
 30
0.0
 40
30.0
  1
400
 50
90.0
 72
     1
 11
-905.009809
 21
224.943937
 31
0.0
  0
POINT
  5
A53
  8
DEFPOINTS
  6
CONTINUOUS
 62
    30
 10
-315.000006
 20
400.000014
 30
0.0
  0
POINT
  5
A54
  8
DEFPOINTS
  6
CONTINUOUS
 62
    30
 10
-310.000006
 20
0.0
 30
0.0
  0
POINT
  5
A55
  8
DEFPOINTS
  6
CONTINUOUS
 62
    30
 10
-895.009809
 20
0.0
 30
0.0
  0
LINE
  5
A56
  8
SIZE
  6
CONTINUOUS
 62
    30
 10
324.999994
 20
199.999998
 30
0.0
 11
775.099994
 21
199.999998
 31
0.0
  0
LINE
  5
A57
  8
SIZE
  6
CONTINUOUS
 62
    30
 10
319.999994
 20
0.0
 30
0.0
 11
775.099994
 21
0.0
 31
0.0
  0
LINE
  5
A58
  8
SIZE
  6
CONTINUOUS
 62
    30
 10
762.599994
 20
189.999998
 30
0.0
 11
762.599994
 21
10.0
 31
0.0
  0
CIRCLE
  5
A59
  8
SIZE
  6
CONTINUOUS
 62
    30
 10
762.599994
 20
199.999998
 30
0.0
 40
5.0
  0
LINE
  5
A5A
  8
SIZE
  6
CONTINUOUS
 62
    30
 10
762.599994
 20
199.999998
 30
0.0
 11
762.599994
 21
189.999998
 31
0.0
  0
CIRCLE
  5
A5B
  8
SIZE
  6
CONTINUOUS
 62
    30
 10
762.599994
 20
0.0
 30
0.0
 40
5.0
  0
LINE
  5
A5C
  8
SIZE
  6
CONTINUOUS
 62
    30
 10
762.599994
 20
0.0
 30
0.0
 11
762.599994
 21
10.0
 31
0.0
  0
TEXT
  5
A5D
  8
SIZE
  6
CONTINUOUS
 62
    30
 10
752.599994
 20
57.14285514285714
 30
0.0
 40
30.0
  1
200
 50
90.0
 72
     1
 11
752.599994
 21
99.999998
 31
0.0
  0
POINT
  5
A5E
  8
DEFPOINTS
  6
CONTINUOUS
 62
    30
 10
314.999994
 20
199.999998
 30
0.0
  0
POINT
  5
A5F
  8
DEFPOINTS
  6
CONTINUOUS
 62
    30
 10
309.999994
 20
0.0
 30
0.0
  0
POINT
  5
A60
  8
DEFPOINTS
  6
CONTINUOUS
 62
    30
 10
762.599994
 20
0.0
 30
0.0
  0
LINE
  5
A61
  8
SIZE
  6
CONTINUOUS
 62
    30
 10
-325.000006
 20
0.0
 30
0.0
 11
-707.509809
 21
0.0
 31
0.0
  0
LINE
  5
A62
  8
SIZE
  6
CONTINUOUS
 62
    30
 10
-99.999999
 20
320.000014
 30
0.0
 11
-707.509809
 21
320.000014
 31
0.0
  0
LINE
  5
A63
  8
SIZE
  6
CONTINUOUS
 62
    30
 10
-695.009809
 20
10.0
 30
0.0
 11
-695.009809
 21
310.000014
 31
0.0
  0
CIRCLE
  5
A64
  8
SIZE
  6
CONTINUOUS
 62
    30
 10
-695.009809
 20
0.0
 30
0.0
 40
5.0
  0
LINE
  5
A65
  8
SIZE
  6
CONTINUOUS
 62
    30
 10
-695.009809
 20
0.0
 30
0.0
 11
-695.009809
 21
10.0
 31
0.0
  0
CIRCLE
  5
A66
  8
SIZE
  6
CONTINUOUS
 62
    30
 10
-695.009809
 20
320.000014
 30
0.0
 40
5.0
  0
LINE
  5
A67
  8
SIZE
  6
CONTINUOUS
 62
    30
 10
-695.009809
 20
320.000014
 30
0.0
 11
-695.009809
 21
310.000014
 31
0.0
  0
TEXT
  5
A68
  8
SIZE
  6
CONTINUOUS
 62
    30
 10
-705.009809
 20
117.1428551428571
 30
0.0
 40
30.0
  1
320
 50
90.0
 72
     1
 11
-705.009809
 21
159.999998
 31
0.0
  0
POINT
  5
A69
  8
DEFPOINTS
  6
CONTINUOUS
 62
    30
 10
-315.000006
 20
0.0
 30
0.0
  0
POINT
  5
A6A
  8
DEFPOINTS
  6
CONTINUOUS
 62
    30
 10
-89.999999
 20
320.000014
 30
0.0
  0
POINT
  5
A6B
  8
DEFPOINTS
  6
CONTINUOUS
 62
    30
 10
-695.009809
 20
320.000014
 30
0.0
  0
LINE
  5
A6C
  8
SIZE
  6
CONTINUOUS
 62
    30
 10
-49.999999
 20
1875.000014
 30
0.0
 11
-1107.50987
 21
1875.000014
 31
0.0
  0
LINE
  5
A6D
  8
SIZE
  6
CONTINUOUS
 62
    30
 10
-320.000006
 20
0.0
 30
0.0
 11
-1107.50987
 21
0.0
 31
0.0
  0
LINE
  5
A6E
  8
SIZE
  6
CONTINUOUS
 62
    30
 10
-1095.00987
 20
1865.000014
 30
0.0
 11
-1095.00987
 21
10.0
 31
0.0
  0
CIRCLE
  5
A6F
  8
SIZE
  6
CONTINUOUS
 62
    30
 10
-1095.00987
 20
1875.000014
 30
0.0
 40
5.0
  0
LINE
  5
A70
  8
SIZE
  6
CONTINUOUS
 62
    30
 10
-1095.00987
 20
1875.000014
 30
0.0
 11
-1095.00987
 21
1865.000014
 31
0.0
  0
CIRCLE
  5
A71
  8
SIZE
  6
CONTINUOUS
 62
    30
 10
-1095.00987
 20
0.0
 30
0.0
 40
5.0
  0
LINE
  5
A72
  8
SIZE
  6
CONTINUOUS
 62
    30
 10
-1095.00987
 20
0.0
 30
0.0
 11
-1095.00987
 21
10.0
 31
0.0
  0
TEXT
  5
A73
  8
SIZE
  6
CONTINUOUS
 62
    30
 10
-1105.00987
 20
878.2142997142856
 30
0.0
 40
30.0
  1
1875
 50
90.0
 72
     1
 11
-1105.00987
 21
937.500014
 31
0.0
  0
POINT
  5
A74
  8
DEFPOINTS
  6
CONTINUOUS
 62
    30
 10
-39.999999
 20
1875.000014
 30
0.0
  0
POINT
  5
A75
  8
DEFPOINTS
  6
CONTINUOUS
 62
    30
 10
-310.000006
 20
0.0
 30
0.0
  0
POINT
  5
A76
  8
DEFPOINTS
  6
CONTINUOUS
 62
    30
 10
-1095.00987
 20
0.0
 30
0.0
  0
LINE
  5
A77
  8
SIZE
  6
CONTINUOUS
 62
    30
 10
-59.999999
 20
1853.000014
 30
0.0
 11
-1007.509809
 21
1853.000014
 31
0.0
  0
LINE
  5
A78
  8
SIZE
  6
CONTINUOUS
 62
    30
 10
-320.000006
 20
0.0
 30
0.0
 11
-1007.509809
 21
0.0
 31
0.0
  0
LINE
  5
A79
  8
SIZE
  6
CONTINUOUS
 62
    30
 10
-995.009809
 20
1843.000014
 30
0.0
 11
-995.009809
 21
10.0
 31
0.0
  0
CIRCLE
  5
A7A
  8
SIZE
  6
CONTINUOUS
 62
    30
 10
-995.009809
 20
1853.000014
 30
0.0
 40
5.0
  0
LINE
  5
A7B
  8
SIZE
  6
CONTINUOUS
 62
    30
 10
-995.009809
 20
1853.000014
 30
0.0
 11
-995.009809
 21
1843.000014
 31
0.0
  0
CIRCLE
  5
A7C
  8
SIZE
  6
CONTINUOUS
 62
    30
 10
-995.009809
 20
0.0
 30
0.0
 40
5.0
  0
LINE
  5
A7D
  8
SIZE
  6
CONTINUOUS
 62
    30
 10
-995.009809
 20
0.0
 30
0.0
 11
-995.009809
 21
10.0
 31
0.0
  0
TEXT
  5
A7E
  8
SIZE
  6
CONTINUOUS
 62
    30
 10
-1005.009809
 20
867.2142997142856
 30
0.0
 40
30.0
  1
1853
 50
90.0
 72
     1
 11
-1005.009809
 21
926.500014
 31
0.0
  0
POINT
  5
A7F
  8
DEFPOINTS
  6
CONTINUOUS
 62
    30
 10
-49.999999
 20
1853.000014
 30
0.0
  0
POINT
  5
A80
  8
DEFPOINTS
  6
CONTINUOUS
 62
    30
 10
-310.000006
 20
0.0
 30
0.0
  0
POINT
  5
A81
  8
DEFPOINTS
  6
CONTINUOUS
 62
    30
 10
-995.009809
 20
0.0
 30
0.0
  0
LINE
  5
A82
  8
SIZE
  6
CONTINUOUS
 62
    30
 10
-69.999999
 20
290.000014
 30
0.0
 11
-69.999999
 21
-264.641994
 31
0.0
  0
LINE
  5
A83
  8
SIZE
  6
CONTINUOUS
 62
    30
 10
0.0
 20
-59.99999800000001
 30
0.0
 11
0.0
 21
-264.641994
 31
0.0
  0
LINE
  5
A84
  8
SIZE
  6
CONTINUOUS
 62
    30
 10
-59.999999
 20
-252.141994
 30
0.0
 11
-10.0
 21
-252.141994
 31
0.0
  0
CIRCLE
  5
A85
  8
SIZE
  6
CONTINUOUS
 62
    30
 10
-69.999999
 20
-252.141994
 30
0.0
 40
5.0
  0
LINE
  5
A86
  8
SIZE
  6
CONTINUOUS
 62
    30
 10
-69.999999
 20
-252.141994
 30
0.0
 11
-59.999999
 21
-252.141994
 31
0.0
  0
CIRCLE
  5
A87
  8
SIZE
  6
CONTINUOUS
 62
    30
 10
0.0
 20
-252.141994
 30
0.0
 40
5.0
  0
LINE
  5
A88
  8
SIZE
  6
CONTINUOUS
 62
    30
 10
0.0
 20
-252.141994
 30
0.0
 11
-10.0
 21
-252.141994
 31
0.0
  0
TEXT
  5
A89
  8
SIZE
  6
CONTINUOUS
 62
    30
 10
-63.57142757142857
 20
-242.141994
 30
0.0
 40
30.0
  1
70
 72
     1
 11
-34.999999
 21
-242.141994
 31
0.0
  0
POINT
  5
A8A
  8
DEFPOINTS
  6
CONTINUOUS
 62
    30
 10
-69.999999
 20
300.000014
 30
0.0
  0
POINT
  5
A8B
  8
DEFPOINTS
  6
CONTINUOUS
 62
    30
 10
0.0
 20
-49.99999800000001
 30
0.0
  0
POINT
  5
A8C
  8
DEFPOINTS
  6
CONTINUOUS
 62
    30
 10
0.0
 20
-252.141994
 30
0.0
  0
LINE
  5
A8D
  8
SIZE
  6
CONTINUOUS
 62
    30
 10
179.999994
 20
370.000014
 30
0.0
 11
179.999994
 21
-264.641994
 31
0.0
  0
LINE
  5
A8E
  8
SIZE
  6
CONTINUOUS
 62
    30
 10
0.0
 20
-59.99999800000001
 30
0.0
 11
0.0
 21
-264.641994
 31
0.0
  0
LINE
  5
A8F
  8
SIZE
  6
CONTINUOUS
 62
    30
 10
169.999994
 20
-252.141994
 30
0.0
 11
10.0
 21
-252.141994
 31
0.0
  0
CIRCLE
  5
A90
  8
SIZE
  6
CONTINUOUS
 62
    30
 10
179.999994
 20
-252.141994
 30
0.0
 40
5.0
  0
LINE
  5
A91
  8
SIZE
  6
CONTINUOUS
 62
    30
 10
179.999994
 20
-252.141994
 30
0.0
 11
169.999994
 21
-252.141994
 31
0.0
  0
CIRCLE
  5
A92
  8
SIZE
  6
CONTINUOUS
 62
    30
 10
0.0
 20
-252.141994
 30
0.0
 40
5.0
  0
LINE
  5
A93
  8
SIZE
  6
CONTINUOUS
 62
    30
 10
0.0
 20
-252.141994
 30
0.0
 11
10.0
 21
-252.141994
 31
0.0
  0
TEXT
  5
A94
  8
SIZE
  6
CONTINUOUS
 62
    30
 10
45.000001
 20
-242.141994
 30
0.0
 40
30.0
  1
180
 72
     1
 11
90.000001
 21
-242.141994
 31
0.0
  0
POINT
  5
A95
  8
DEFPOINTS
  6
CONTINUOUS
 62
    30
 10
179.999994
 20
380.000014
 30
0.0
  0
POINT
  5
A96
  8
DEFPOINTS
  6
CONTINUOUS
 62
    30
 10
0.0
 20
-49.99999800000001
 30
0.0
  0
POINT
  5
A97
  8
DEFPOINTS
  6
CONTINUOUS
 62
    30
 10
0.0
 20
-252.141994
 30
0.0
  0
LINE
  5
A98
  8
SIZE
  6
CONTINUOUS
 62
    30
 10
187.999994
 20
124.999998
 30
0.0
 11
187.999994
 21
-364.641979
 31
0.0
  0
LINE
  5
A99
  8
SIZE
  6
CONTINUOUS
 62
    30
 10
0.0
 20
-59.99999800000001
 30
0.0
 11
0.0
 21
-364.641979
 31
0.0
  0
LINE
  5
A9A
  8
SIZE
  6
CONTINUOUS
 62
    30
 10
177.999994
 20
-352.141979
 30
0.0
 11
10.0
 21
-352.141979
 31
0.0
  0
CIRCLE
  5
A9B
  8
SIZE
  6
CONTINUOUS
 62
    30
 10
187.999994
 20
-352.141979
 30
0.0
 40
5.0
  0
LINE
  5
A9C
  8
SIZE
  6
CONTINUOUS
 62
    30
 10
187.999994
 20
-352.141979
 30
0.0
 11
177.999994
 21
-352.141979
 31
0.0
  0
CIRCLE
  5
A9D
  8
SIZE
  6
CONTINUOUS
 62
    30
 10
0.0
 20
-352.141979
 30
0.0
 40
5.0
  0
LINE
  5
A9E
  8
SIZE
  6
CONTINUOUS
 62
    30
 10
0.0
 20
-352.141979
 30
0.0
 11
10.0
 21
-352.141979
 31
0.0
  0
TEXT
  5
A9F
  8
SIZE
  6
CONTINUOUS
 62
    30
 10
49.000001
 20
-342.141979
 30
0.0
 40
30.0
  1
188
 72
     1
 11
94.000001
 21
-342.141979
 31
0.0
  0
POINT
  5
AA0
  8
DEFPOINTS
  6
CONTINUOUS
 62
    30
 10
187.999994
 20
134.999998
 30
0.0
  0
POINT
  5
AA1
  8
DEFPOINTS
  6
CONTINUOUS
 62
    30
 10
0.0
 20
-49.99999800000001
 30
0.0
  0
POINT
  5
AA2
  8
DEFPOINTS
  6
CONTINUOUS
 62
    30
 10
0.0
 20
-352.141979
 30
0.0
  0
LINE
  5
AA3
  8
SIZE
  6
CONTINUOUS
 62
    30
 10
-255.000006
 20
330.000014
 30
0.0
 11
-255.000006
 21
-464.641979
 31
0.0
  0
LINE
  5
AA4
  8
SIZE
  6
CONTINUOUS
 62
    30
 10
0.0
 20
-59.99999800000001
 30
0.0
 11
0.0
 21
-464.641979
 31
0.0
  0
LINE
  5
AA5
  8
SIZE
  6
CONTINUOUS
 62
    30
 10
-245.000006
 20
-452.141979
 30
0.0
 11
-10.0
 21
-452.141979
 31
0.0
  0
CIRCLE
  5
AA6
  8
SIZE
  6
CONTINUOUS
 62
    30
 10
-255.000006
 20
-452.141979
 30
0.0
 40
5.0
  0
LINE
  5
AA7
  8
SIZE
  6
CONTINUOUS
 62
    30
 10
-255.000006
 20
-452.141979
 30
0.0
 11
-245.000006
 21
-452.141979
 31
0.0
  0
CIRCLE
  5
AA8
  8
SIZE
  6
CONTINUOUS
 62
    30
 10
0.0
 20
-452.141979
 30
0.0
 40
5.0
  0
LINE
  5
AA9
  8
SIZE
  6
CONTINUOUS
 62
    30
 10
0.0
 20
-452.141979
 30
0.0
 11
-10.0
 21
-452.141979
 31
0.0
  0
TEXT
  5
AAA
  8
SIZE
  6
CONTINUOUS
 62
    30
 10
-170.3571418571429
 20
-442.141979
 30
0.0
 40
30.0
  1
255
 72
     1
 11
-127.499999
 21
-442.141979
 31
0.0
  0
POINT
  5
AAB
  8
DEFPOINTS
  6
CONTINUOUS
 62
    30
 10
-255.000006
 20
340.000014
 30
0.0
  0
POINT
  5
AAC
  8
DEFPOINTS
  6
CONTINUOUS
 62
    30
 10
0.0
 20
-49.99999800000001
 30
0.0
  0
POINT
  5
AAD
  8
DEFPOINTS
  6
CONTINUOUS
 62
    30
 10
0.0
 20
-452.141979
 30
0.0
  0
LINE
  5
AAE
  8
SIZE
  6
CONTINUOUS
 62
    30
 10
229.999994
 20
290.000014
 30
0.0
 11
229.999994
 21
-464.641979
 31
0.0
  0
LINE
  5
AAF
  8
SIZE
  6
CONTINUOUS
 62
    30
 10
0.0
 20
-59.99999800000001
 30
0.0
 11
0.0
 21
-464.641979
 31
0.0
  0
LINE
  5
AB0
  8
SIZE
  6
CONTINUOUS
 62
    30
 10
219.999994
 20
-452.141979
 30
0.0
 11
10.0
 21
-452.141979
 31
0.0
  0
CIRCLE
  5
AB1
  8
SIZE
  6
CONTINUOUS
 62
    30
 10
229.999994
 20
-452.141979
 30
0.0
 40
5.0
  0
LINE
  5
AB2
  8
SIZE
  6
CONTINUOUS
 62
    30
 10
229.999994
 20
-452.141979
 30
0.0
 11
219.999994
 21
-452.141979
 31
0.0
  0
CIRCLE
  5
AB3
  8
SIZE
  6
CONTINUOUS
 62
    30
 10
0.0
 20
-452.141979
 30
0.0
 40
5.0
  0
LINE
  5
AB4
  8
SIZE
  6
CONTINUOUS
 62
    30
 10
0.0
 20
-452.141979
 30
0.0
 11
10.0
 21
-452.141979
 31
0.0
  0
TEXT
  5
AB5
  8
SIZE
  6
CONTINUOUS
 62
    30
 10
72.14285814285714
 20
-442.141979
 30
0.0
 40
30.0
  1
230
 72
     1
 11
115.000001
 21
-442.141979
 31
0.0
  0
POINT
  5
AB6
  8
DEFPOINTS
  6
CONTINUOUS
 62
    30
 10
229.999994
 20
300.000014
 30
0.0
  0
POINT
  5
AB7
  8
DEFPOINTS
  6
CONTINUOUS
 62
    30
 10
0.0
 20
-49.99999800000001
 30
0.0
  0
POINT
  5
AB8
  8
DEFPOINTS
  6
CONTINUOUS
 62
    30
 10
0.0
 20
-452.141979
 30
0.0
  0
LINE
  5
AB9
  8
SIZE
  6
CONTINUOUS
 62
    30
 10
274.999994
 20
370.000014
 30
0.0
 11
274.999994
 21
-564.641979
 31
0.0
  0
LINE
  5
ABA
  8
SIZE
  6
CONTINUOUS
 62
    30
 10
0.0
 20
-59.99999800000001
 30
0.0
 11
0.0
 21
-564.641979
 31
0.0
  0
LINE
  5
ABB
  8
SIZE
  6
CONTINUOUS
 62
    30
 10
264.999994
 20
-552.141979
 30
0.0
 11
10.0
 21
-552.141979
 31
0.0
  0
CIRCLE
  5
ABC
  8
SIZE
  6
CONTINUOUS
 62
    30
 10
274.999994
 20
-552.141979
 30
0.0
 40
5.0
  0
LINE
  5
ABD
  8
SIZE
  6
CONTINUOUS
 62
    30
 10
274.999994
 20
-552.141979
 30
0.0
 11
264.999994
 21
-552.141979
 31
0.0
  0
CIRCLE
  5
ABE
  8
SIZE
  6
CONTINUOUS
 62
    30
 10
0.0
 20
-552.141979
 30
0.0
 40
5.0
  0
LINE
  5
ABF
  8
SIZE
  6
CONTINUOUS
 62
    30
 10
0.0
 20
-552.141979
 30
0.0
 11
10.0
 21
-552.141979
 31
0.0
  0
TEXT
  5
AC0
  8
SIZE
  6
CONTINUOUS
 62
    30
 10
94.64285114285713
 20
-542.141979
 30
0.0
 40
30.0
  1
275
 72
     1
 11
137.499994
 21
-542.141979
 31
0.0
  0
POINT
  5
AC1
  8
DEFPOINTS
  6
CONTINUOUS
 62
    30
 10
274.999994
 20
380.000014
 30
0.0
  0
POINT
  5
AC2
  8
DEFPOINTS
  6
CONTINUOUS
 62
    30
 10
0.0
 20
-49.99999800000001
 30
0.0
  0
POINT
  5
AC3
  8
DEFPOINTS
  6
CONTINUOUS
 62
    30
 10
0.0
 20
-552.141979
 30
0.0
  0
LINE
  5
AC4
  8
SIZE
  6
CONTINUOUS
 62
    30
 10
-248.000006
 20
-30.0
 30
0.0
 11
-248.000006
 21
-664.641979
 31
0.0
  0
LINE
  5
AC5
  8
SIZE
  6
CONTINUOUS
 62
    30
 10
247.999994
 20
-30.0
 30
0.0
 11
247.999994
 21
-664.641979
 31
0.0
  0
LINE
  5
AC6
  8
SIZE
  6
CONTINUOUS
 62
    30
 10
-238.000006
 20
-652.141979
 30
0.0
 11
237.999994
 21
-652.141979
 31
0.0
  0
CIRCLE
  5
AC7
  8
SIZE
  6
CONTINUOUS
 62
    30
 10
-248.000006
 20
-652.141979
 30
0.0
 40
5.0
  0
LINE
  5
AC8
  8
SIZE
  6
CONTINUOUS
 62
    30
 10
-248.000006
 20
-652.141979
 30
0.0
 11
-238.000006
 21
-652.141979
 31
0.0
  0
CIRCLE
  5
AC9
  8
SIZE
  6
CONTINUOUS
 62
    30
 10
247.999994
 20
-652.141979
 30
0.0
 40
5.0
  0
LINE
  5
ACA
  8
SIZE
  6
CONTINUOUS
 62
    30
 10
247.999994
 20
-652.141979
 30
0.0
 11
237.999994
 21
-652.141979
 31
0.0
  0
TEXT
  5
ACB
  8
SIZE
  6
CONTINUOUS
 62
    30
 10
-42.85714285714286
 20
-642.141979
 30
0.0
 40
30.0
  1
496
 72
     1
 11
0.0
 21
-642.141979
 31
0.0
  0
POINT
  5
ACC
  8
DEFPOINTS
  6
CONTINUOUS
 62
    30
 10
-248.000006
 20
-20.0
 30
0.0
  0
POINT
  5
ACD
  8
DEFPOINTS
  6
CONTINUOUS
 62
    30
 10
247.999994
 20
-20.0
 30
0.0
  0
POINT
  5
ACE
  8
DEFPOINTS
  6
CONTINUOUS
 62
    30
 10
247.999994
 20
-652.141979
 30
0.0
  0
LINE
  5
ACF
  8
SIZE
  6
CONTINUOUS
 62
    30
 10
-201.000006
 20
-30.0
 30
0.0
 11
-201.000006
 21
-764.641979
 31
0.0
  0
LINE
  5
AD0
  8
SIZE
  6
CONTINUOUS
 62
    30
 10
200.999994
 20
-30.0
 30
0.0
 11
200.999994
 21
-764.641979
 31
0.0
  0
LINE
  5
AD1
  8
SIZE
  6
CONTINUOUS
 62
    30
 10
-191.000006
 20
-752.141979
 30
0.0
 11
190.999994
 21
-752.141979
 31
0.0
  0
CIRCLE
  5
AD2
  8
SIZE
  6
CONTINUOUS
 62
    30
 10
-201.000006
 20
-752.141979
 30
0.0
 40
5.0
  0
LINE
  5
AD3
  8
SIZE
  6
CONTINUOUS
 62
    30
 10
-201.000006
 20
-752.141979
 30
0.0
 11
-191.000006
 21
-752.141979
 31
0.0
  0
CIRCLE
  5
AD4
  8
SIZE
  6
CONTINUOUS
 62
    30
 10
200.999994
 20
-752.141979
 30
0.0
 40
5.0
  0
LINE
  5
AD5
  8
SIZE
  6
CONTINUOUS
 62
    30
 10
200.999994
 20
-752.141979
 30
0.0
 11
190.999994
 21
-752.141979
 31
0.0
  0
TEXT
  5
AD6
  8
SIZE
  6
CONTINUOUS
 62
    30
 10
-42.85714285714286
 20
-742.141979
 30
0.0
 40
30.0
  1
402
 72
     1
 11
0.0
 21
-742.141979
 31
0.0
  0
POINT
  5
AD7
  8
DEFPOINTS
  6
CONTINUOUS
 62
    30
 10
-201.000006
 20
-20.0
 30
0.0
  0
POINT
  5
AD8
  8
DEFPOINTS
  6
CONTINUOUS
 62
    30
 10
200.999994
 20
-20.0
 30
0.0
  0
POINT
  5
AD9
  8
DEFPOINTS
  6
CONTINUOUS
 62
    30
 10
200.999994
 20
-752.141979
 30
0.0
  0
LINE
  5
ADA
  8
SIZE
  6
CONTINUOUS
 62
    30
 10
-295.000006
 20
-30.0
 30
0.0
 11
-295.000006
 21
-764.641979
 31
0.0
  0
LINE
  5
ADB
  8
SIZE
  6
CONTINUOUS
 62
    30
 10
-201.000006
 20
-30.0
 30
0.0
 11
-201.000006
 21
-764.641979
 31
0.0
  0
LINE
  5
ADC
  8
SIZE
  6
CONTINUOUS
 62
    30
 10
-285.000006
 20
-752.141979
 30
0.0
 11
-211.000006
 21
-752.141979
 31
0.0
  0
CIRCLE
  5
ADD
  8
SIZE
  6
CONTINUOUS
 62
    30
 10
-295.000006
 20
-752.141979
 30
0.0
 40
5.0
  0
LINE
  5
ADE
  8
SIZE
  6
CONTINUOUS
 62
    30
 10
-295.000006
 20
-752.141979
 30
0.0
 11
-285.000006
 21
-752.141979
 31
0.0
  0
CIRCLE
  5
ADF
  8
SIZE
  6
CONTINUOUS
 62
    30
 10
-201.000006
 20
-752.141979
 30
0.0
 40
5.0
  0
LINE
  5
AE0
  8
SIZE
  6
CONTINUOUS
 62
    30
 10
-201.000006
 20
-752.141979
 30
0.0
 11
-211.000006
 21
-752.141979
 31
0.0
  0
TEXT
  5
AE1
  8
SIZE
  6
CONTINUOUS
 62
    30
 10
-277.2857202857143
 20
-742.141979
 30
0.0
 40
30.0
  1
94
 72
     1
 11
-248.000006
 21
-742.141979
 31
0.0
  0
POINT
  5
AE2
  8
DEFPOINTS
  6
CONTINUOUS
 62
    30
 10
-295.000006
 20
-20.0
 30
0.0
  0
POINT
  5
AE3
  8
DEFPOINTS
  6
CONTINUOUS
 62
    30
 10
-201.000006
 20
-20.0
 30
0.0
  0
POINT
  5
AE4
  8
DEFPOINTS
  6
CONTINUOUS
 62
    30
 10
-201.000006
 20
-752.141979
 30
0.0
  0
LINE
  5
AE5
  8
SIZE
  6
CONTINUOUS
 62
    30
 10
294.999994
 20
-30.0
 30
0.0
 11
294.999994
 21
-764.641979
 31
0.0
  0
LINE
  5
AE6
  8
SIZE
  6
CONTINUOUS
 62
    30
 10
200.999994
 20
-30.0
 30
0.0
 11
200.999994
 21
-764.641979
 31
0.0
  0
LINE
  5
AE7
  8
SIZE
  6
CONTINUOUS
 62
    30
 10
284.999994
 20
-752.141979
 30
0.0
 11
210.999994
 21
-752.141979
 31
0.0
  0
CIRCLE
  5
AE8
  8
SIZE
  6
CONTINUOUS
 62
    30
 10
294.999994
 20
-752.141979
 30
0.0
 40
5.0
  0
LINE
  5
AE9
  8
SIZE
  6
CONTINUOUS
 62
    30
 10
294.999994
 20
-752.141979
 30
0.0
 11
284.999994
 21
-752.141979
 31
0.0
  0
CIRCLE
  5
AEA
  8
SIZE
  6
CONTINUOUS
 62
    30
 10
200.999994
 20
-752.141979
 30
0.0
 40
5.0
  0
LINE
  5
AEB
  8
SIZE
  6
CONTINUOUS
 62
    30
 10
200.999994
 20
-752.141979
 30
0.0
 11
210.999994
 21
-752.141979
 31
0.0
  0
TEXT
  5
AEC
  8
SIZE
  6
CONTINUOUS
 62
    30
 10
218.7142797142857
 20
-742.141979
 30
0.0
 40
30.0
  1
94
 72
     1
 11
247.999994
 21
-742.141979
 31
0.0
  0
POINT
  5
AED
  8
DEFPOINTS
  6
CONTINUOUS
 62
    30
 10
294.999994
 20
-20.0
 30
0.0
  0
POINT
  5
AEE
  8
DEFPOINTS
  6
CONTINUOUS
 62
    30
 10
200.999994
 20
-20.0
 30
0.0
  0
POINT
  5
AEF
  8
DEFPOINTS
  6
CONTINUOUS
 62
    30
 10
200.999994
 20
-752.141979
 30
0.0
  0
LINE
  5
AF0
  8
SIZE
  6
CONTINUOUS
 62
    30
 10
-315.000006
 20
189.999998
 30
0.0
 11
-315.000006
 21
-864.641979
 31
0.0
  0
LINE
  5
AF1
  8
SIZE
  6
CONTINUOUS
 62
    30
 10
314.999994
 20
189.999998
 30
0.0
 11
314.999994
 21
-864.641979
 31
0.0
  0
LINE
  5
AF2
  8
SIZE
  6
CONTINUOUS
 62
    30
 10
-305.000006
 20
-852.141979
 30
0.0
 11
304.999994
 21
-852.141979
 31
0.0
  0
CIRCLE
  5
AF3
  8
SIZE
  6
CONTINUOUS
 62
    30
 10
-315.000006
 20
-852.141979
 30
0.0
 40
5.0
  0
LINE
  5
AF4
  8
SIZE
  6
CONTINUOUS
 62
    30
 10
-315.000006
 20
-852.141979
 30
0.0
 11
-305.000006
 21
-852.141979
 31
0.0
  0
CIRCLE
  5
AF5
  8
SIZE
  6
CONTINUOUS
 62
    30
 10
314.999994
 20
-852.141979
 30
0.0
 40
5.0
  0
LINE
  5
AF6
  8
SIZE
  6
CONTINUOUS
 62
    30
 10
314.999994
 20
-852.141979
 30
0.0
 11
304.999994
 21
-852.141979
 31
0.0
  0
TEXT
  5
AF7
  8
SIZE
  6
CONTINUOUS
 62
    30
 10
-43.57142857142857
 20
-842.141979
 30
0.0
 40
30.0
  1
630
 72
     1
 11
0.0
 21
-842.141979
 31
0.0
  0
POINT
  5
AF8
  8
DEFPOINTS
  6
CONTINUOUS
 62
    30
 10
-315.000006
 20
199.999998
 30
0.0
  0
POINT
  5
AF9
  8
DEFPOINTS
  6
CONTINUOUS
 62
    30
 10
314.999994
 20
199.999998
 30
0.0
  0
POINT
  5
AFA
  8
DEFPOINTS
  6
CONTINUOUS
 62
    30
 10
314.999994
 20
-852.141979
 30
0.0
  0
LINE
  5
AFB
  8
SIZE
  6
CONTINUOUS
 62
    30
 10
217.999994
 20
154.999998
 30
0.0
 11
475.099994
 21
154.999998
 31
0.0
  0
LINE
  5
AFC
  8
SIZE
  6
CONTINUOUS
 62
    30
 10
319.999994
 20
0.0
 30
0.0
 11
475.099994
 21
0.0
 31
0.0
  0
LINE
  5
AFD
  8
SIZE
  6
CONTINUOUS
 62
    30
 10
462.599994
 20
144.999998
 30
0.0
 11
462.599994
 21
10.0
 31
0.0
  0
CIRCLE
  5
AFE
  8
SIZE
  6
CONTINUOUS
 62
    30
 10
462.599994
 20
154.999998
 30
0.0
 40
5.0
  0
LINE
  5
AFF
  8
SIZE
  6
CONTINUOUS
 62
    30
 10
462.599994
 20
154.999998
 30
0.0
 11
462.599994
 21
144.999998
 31
0.0
  0
CIRCLE
  5
B00
  8
SIZE
  6
CONTINUOUS
 62
    30
 10
462.599994
 20
0.0
 30
0.0
 40
5.0
  0
LINE
  5
B01
  8
SIZE
  6
CONTINUOUS
 62
    30
 10
462.599994
 20
0.0
 30
0.0
 11
462.599994
 21
10.0
 31
0.0
  0
TEXT
  5
B02
  8
SIZE
  6
CONTINUOUS
 62
    30
 10
452.599994
 20
32.49999800000001
 30
0.0
 40
30.0
  1
155
 50
90.0
 72
     1
 11
452.599994
 21
77.499998
 31
0.0
  0
POINT
  5
B03
  8
DEFPOINTS
  6
CONTINUOUS
 62
    30
 10
207.999994
 20
154.999998
 30
0.0
  0
POINT
  5
B04
  8
DEFPOINTS
  6
CONTINUOUS
 62
    30
 10
309.999994
 20
0.0
 30
0.0
  0
POINT
  5
B05
  8
DEFPOINTS
  6
CONTINUOUS
 62
    30
 10
462.599994
 20
0.0
 30
0.0
  0
LINE
  5
B06
  8
SIZE
  6
CONTINUOUS
 62
    30
 10
319.999994
 20
0.0
 30
0.0
 11
575.099994
 21
0.0
 31
0.0
  0
LINE
  5
B07
  8
SIZE
  6
CONTINUOUS
 62
    30
 10
259.999994
 20
320.000014
 30
0.0
 11
575.099994
 21
320.000014
 31
0.0
  0
LINE
  5
B08
  8
SIZE
  6
CONTINUOUS
 62
    30
 10
562.599994
 20
10.0
 30
0.0
 11
562.599994
 21
310.000014
 31
0.0
  0
CIRCLE
  5
B09
  8
SIZE
  6
CONTINUOUS
 62
    30
 10
562.599994
 20
0.0
 30
0.0
 40
5.0
  0
LINE
  5
B0A
  8
SIZE
  6
CONTINUOUS
 62
    30
 10
562.599994
 20
0.0
 30
0.0
 11
562.599994
 21
10.0
 31
0.0
  0
CIRCLE
  5
B0B
  8
SIZE
  6
CONTINUOUS
 62
    30
 10
562.599994
 20
320.000014
 30
0.0
 40
5.0
  0
LINE
  5
B0C
  8
SIZE
  6
CONTINUOUS
 62
    30
 10
562.599994
 20
320.000014
 30
0.0
 11
562.599994
 21
310.000014
 31
0.0
  0
TEXT
  5
B0D
  8
SIZE
  6
CONTINUOUS
 62
    30
 10
552.599994
 20
117.1428551428571
 30
0.0
 40
30.0
  1
320
 50
90.0
 72
     1
 11
552.599994
 21
159.999998
 31
0.0
  0
POINT
  5
B0E
  8
DEFPOINTS
  6
CONTINUOUS
 62
    30
 10
309.999994
 20
0.0
 30
0.0
  0
POINT
  5
B0F
  8
DEFPOINTS
  6
CONTINUOUS
 62
    30
 10
249.999994
 20
320.000014
 30
0.0
  0
POINT
  5
B10
  8
DEFPOINTS
  6
CONTINUOUS
 62
    30
 10
562.599994
 20
320.000014
 30
0.0
  0
LINE
  5
B11
  8
SIZE
  6
CONTINUOUS
 62
    30
 10
319.999994
 20
0.0
 30
0.0
 11
678.145648
 21
0.0
 31
0.0
  0
LINE
  5
B12
  8
SIZE
  6
CONTINUOUS
 62
    30
 10
324.999994
 20
400.000014
 30
0.0
 11
678.145648
 21
400.000014
 31
0.0
  0
LINE
  5
B13
  8
SIZE
  6
CONTINUOUS
 62
    30
 10
665.645648
 20
10.0
 30
0.0
 11
665.645648
 21
390.000014
 31
0.0
  0
CIRCLE
  5
B14
  8
SIZE
  6
CONTINUOUS
 62
    30
 10
665.645648
 20
0.0
 30
0.0
 40
5.0
  0
LINE
  5
B15
  8
SIZE
  6
CONTINUOUS
 62
    30
 10
665.645648
 20
0.0
 30
0.0
 11
665.645648
 21
10.0
 31
0.0
  0
CIRCLE
  5
B16
  8
SIZE
  6
CONTINUOUS
 62
    30
 10
665.645648
 20
400.000014
 30
0.0
 40
5.0
  0
LINE
  5
B17
  8
SIZE
  6
CONTINUOUS
 62
    30
 10
665.645648
 20
400.000014
 30
0.0
 11
665.645648
 21
390.000014
 31
0.0
  0
TEXT
  5
B18
  8
SIZE
  6
CONTINUOUS
 62
    30
 10
655.645648
 20
121.4566521428571
 30
0.0
 40
30.0
  1
400
 50
90.0
 72
     1
 11
655.645648
 21
164.313795
 31
0.0
  0
POINT
  5
B19
  8
DEFPOINTS
  6
CONTINUOUS
 62
    30
 10
309.999994
 20
0.0
 30
0.0
  0
POINT
  5
B1A
  8
DEFPOINTS
  6
CONTINUOUS
 62
    30
 10
314.999994
 20
400.000014
 30
0.0
  0
POINT
  5
B1B
  8
DEFPOINTS
  6
CONTINUOUS
 62
    30
 10
665.645648
 20
400.000014
 30
0.0
  0
LINE
  5
B1C
  8
NOTE
  6
CONTINUOUS
 10
-104.023085
 20
173.0
 30
0.0
 11
-112.023085
 21
173.0
 31
0.0
  0
LINE
  5
B1D
  8
NOTE
  6
CONTINUOUS
 10
-112.023085
 20
173.0
 30
0.0
 11
-128.023085
 21
173.0
 31
0.0
  0
LINE
  5
B1E
  8
NOTE
  6
CONTINUOUS
 10
-108.023085
 20
164.992321
 30
0.0
 11
-108.023085
 21
181.00768
 31
0.0
  0
LINE
  5
B1F
  8
NOTE
  6
CONTINUOUS
 10
-108.023085
 20
181.00768
 30
0.0
 11
-108.023085
 21
193.0
 31
0.0
  0
LINE
  5
B20
  8
NOTE
  6
CONTINUOUS
 10
201.0
 20
-20.0
 30
0.0
 11
201.0
 21
20.0
 31
0.0
  0
LINE
  5
B21
  8
NOTE
  6
CONTINUOUS
 10
181.0
 20
0.0
 30
0.0
 11
221.0
 21
0.0
 31
0.0
  0
LINE
  5
B22
  8
NOTE
  6
CONTINUOUS
 10
295.0
 20
-20.0
 30
0.0
 11
295.0
 21
20.0
 31
0.0
  0
LINE
  5
B23
  8
NOTE
  6
CONTINUOUS
 10
315.0
 20
0.0
 30
0.0
 11
275.0
 21
0.0
 31
0.0
  0
LINE
  5
B24
  8
NOTE
  6
CONTINUOUS
 10
-201.0
 20
-20.0
 30
0.0
 11
-201.0
 21
20.0
 31
0.0
  0
LINE
  5
B25
  8
NOTE
  6
CONTINUOUS
 10
-181.0
 20
0.0
 30
0.0
 11
-221.0
 21
0.0
 31
0.0
  0
LINE
  5
B26
  8
NOTE
  6
CONTINUOUS
 10
-315.0
 20
0.0
 30
0.0
 11
-275.0
 21
0.0
 31
0.0
  0
LINE
  5
B27
  8
NOTE
  6
CONTINUOUS
 10
-295.0
 20
-20.0
 30
0.0
 11
-295.0
 21
20.0
 31
0.0
  0
LINE
  5
B28
  8
NOTE
  6
CONTINUOUS
 10
248.0
 20
-20.0
 30
0.0
 11
248.0
 21
20.0
 31
0.0
  0
LINE
  5
B29
  8
NOTE
  6
CONTINUOUS
 10
228.0
 20
0.0
 30
0.0
 11
268.0
 21
0.0
 31
0.0
  0
LINE
  5
B2A
  8
NOTE
  6
CONTINUOUS
 10
0.0
 20
-20.0
 30
0.0
 11
0.0
 21
20.0
 31
0.0
  0
LINE
  5
B2B
  8
NOTE
  6
CONTINUOUS
 10
-20.0
 20
0.0
 30
0.0
 11
20.0
 21
0.0
 31
0.0
  0
LINE
  5
B2C
  8
NOTE
  6
CONTINUOUS
 10
-248.0
 20
-20.0
 30
0.0
 11
-248.0
 21
20.0
 31
0.0
  0
LINE
  5
B2D
  8
NOTE
  6
CONTINUOUS
 10
-268.0
 20
0.0
 30
0.0
 11
-228.0
 21
0.0
 31
0.0
  0
TEXT
  5
B2E
  8
NOTE
  6
CONTINUOUS
 10
944.72973
 20
1820.540541
 30
0.0
 40
40.0
  1
メンテナンススペース
 50
90.00000499999999
 41
0.672917
  7
STANDARD1
  0
LINE
  5
B2F
  8
NOTE
  6
CONTINUOUS
 10
-30.0
 20
1833.0
 30
0.0
 11
-30.0
 21
1873.0
 31
0.0
  0
LINE
  5
B30
  8
NOTE
  6
CONTINUOUS
 10
-10.0
 20
1853.0
 30
0.0
 11
-50.0
 21
1853.0
 31
0.0
  0
LINE
  5
B31
  8
NOTE
  6
CONTINUOUS
 10
484.942193
 20
2130.000014
 30
0.0
 11
280.792199
 21
2130.000014
 31
0.0
  0
LINE
  5
B32
  8
NOTE
  6
CONTINUOUS
 10
280.792199
 20
2130.000014
 30
0.0
 11
29.999999
 21
1853.000014
 31
0.0
  0
LINE
  5
B33
  8
NOTE
  6
CONTINUOUS
 10
29.999999
 20
1853.000014
 30
0.0
 11
30.912869
 21
1854.779528
 31
0.0
  0
LINE
  5
B34
  8
NOTE
  6
CONTINUOUS
 10
29.999999
 20
1853.000014
 30
0.0
 11
31.680324
 21
1854.084683
 31
0.0
  0
TEXT
  5
B35
  8
NOTE
  6
CONTINUOUS
 10
329.242212
 20
2131.000014
 30
0.0
 40
39.99999999999999
  1
AH 2-M10
 50
0.0000029575586669
 41
0.513158
  7
STANDARD1
  0
LINE
  5
B36
  8
NOTE
  6
CONTINUOUS
 10
30.0
 20
1833.0
 30
0.0
 11
30.0
 21
1873.0
 31
0.0
  0
LINE
  5
B37
  8
NOTE
  6
CONTINUOUS
 10
10.0
 20
1853.0
 30
0.0
 11
50.0
 21
1853.0
 31
0.0
  0
TEXT
  5
B38
  8
NOTE
  6
CONTINUOUS
 10
-199.239691
 20
2330.693617
 30
0.0
 40
39.99999999999999
  1
メンテナンススペース
 50
0.0000029575586669
 41
0.6729170000000001
  7
STANDARD1
  0
LINE
  5
B39
  8
NOTE
  6
CONTINUOUS
 10
-589.748419
 20
2130.000014
 30
0.0
 11
-283.198432
 21
2130.000014
 31
0.0
  0
LINE
  5
B3A
  8
NOTE
  6
CONTINUOUS
 10
-283.198432
 20
2130.000014
 30
0.0
 11
-20.000001
 21
1875.000014
 31
0.0
  0
LINE
  5
B3B
  8
NOTE
  6
CONTINUOUS
 10
-20.000001
 20
1875.000014
 30
0.0
 11
-21.747654
 21
1875.972489
 31
0.0
  0
LINE
  5
B3C
  8
NOTE
  6
CONTINUOUS
 10
-20.000001
 20
1875.000014
 30
0.0
 11
-21.027275
 21
1876.716029
 31
0.0
  0
TEXT
  5
B3D
  8
NOTE
  6
CONTINUOUS
 10
-589.748419
 20
2131.000014
 30
0.0
 40
39.99999999999999
  1
上部振れ止め金具
 50
0.0000029575586669
 41
0.6729170000000001
  7
STANDARD1
  0
LINE
  5
B3E
  8
NOTE
  6
CONTINUOUS
 10
805.359308
 20
-348.999986
 30
0.0
 11
556.109308
 21
-348.999986
 31
0.0
  0
LINE
  5
B3F
  8
NOTE
  6
CONTINUOUS
 10
556.109308
 20
-348.999986
 30
0.0
 11
179.999994
 21
400.000014
 31
0.0
  0
LINE
  5
B40
  8
NOTE
  6
CONTINUOUS
 10
179.999994
 20
400.000014
 30
0.0
 11
181.329502
 21
398.505889
 31
0.0
  0
LINE
  5
B41
  8
NOTE
  6
CONTINUOUS
 10
179.999994
 20
400.000014
 30
0.0
 11
180.404319
 21
398.04131
 31
0.0
  0
TEXT
  5
B42
  8
NOTE
  6
CONTINUOUS
 10
604.5593200000001
 20
-347.999986
 30
0.0
 40
40.0
  1
EL φ49×59
 50
359.9999960875177
 41
0.558611
  7
STANDARD1
  0
LINE
  5
B43
  8
NOTE
  6
CONTINUOUS
 10
775.040765
 20
-150.000002
 30
0.0
 11
558.0907530000001
 21
-150.000002
 31
0.0
  0
LINE
  5
B44
  8
NOTE
  6
CONTINUOUS
 10
558.0907530000001
 20
-150.000002
 30
0.0
 11
274.999994
 21
400.000014
 31
0.0
  0
LINE
  5
B45
  8
NOTE
  6
CONTINUOUS
 10
274.999994
 20
400.000014
 30
0.0
 11
276.344349
 21
398.519234
 31
0.0
  0
LINE
  5
B46
  8
NOTE
  6
CONTINUOUS
 10
274.999994
 20
400.000014
 30
0.0
 11
275.423849
 21
398.045443
 31
0.0
  0
TEXT
  5
B47
  8
NOTE
  6
CONTINUOUS
 10
606.540765
 20
-149.000002
 30
0.0
 40
40.0
  1
CL φ32.5
 50
359.9999959954467
 41
0.541026
  7
STANDARD1
  0
LINE
  5
B48
  8
NOTE
  6
CONTINUOUS
 10
890.0593200000001
 20
-249.000002
 30
0.0
 11
556.109308
 21
-249.000002
 31
0.0
  0
LINE
  5
B49
  8
NOTE
  6
CONTINUOUS
 10
556.109308
 20
-249.000002
 30
0.0
 11
229.999994
 21
320.000014
 31
0.0
  0
LINE
  5
B4A
  8
NOTE
  6
CONTINUOUS
 10
229.999994
 20
320.000014
 30
0.0
 11
231.409713
 21
318.58132
 31
0.0
  0
LINE
  5
B4B
  8
NOTE
  6
CONTINUOUS
 10
229.999994
 20
320.000014
 30
0.0
 11
230.511499
 21
318.066529
 31
0.0
  0
TEXT
  5
B4C
  8
NOTE
  6
CONTINUOUS
 10
604.5593200000001
 20
-248.000002
 30
0.0
 40
40.0
  1
HW R3/4(φ27.2)
 50
359.9999959954467
 41
0.517754
  7
STANDARD1
  0
LINE
  5
B4D
  8
NOTE
  6
CONTINUOUS
 10
890.0593200000001
 20
-448.999986
 30
0.0
 11
556.109308
 21
-448.999986
 31
0.0
  0
LINE
  5
B4E
  8
NOTE
  6
CONTINUOUS
 10
556.109308
 20
-448.999986
 30
0.0
 11
187.999994
 21
154.999998
 31
0.0
  0
LINE
  5
B4F
  8
NOTE
  6
CONTINUOUS
 10
187.999994
 20
154.999998
 30
0.0
 11
189.447382
 21
153.619757
 31
0.0
  0
LINE
  5
B50
  8
NOTE
  6
CONTINUOUS
 10
187.999994
 20
154.999998
 30
0.0
 11
188.563348
 21
153.08098
 31
0.0
  0
TEXT
  5
B51
  8
NOTE
  6
CONTINUOUS
 10
604.5593200000001
 20
-447.999986
 30
0.0
 40
40.0
  1
WD R3/4(φ27.2)
 50
359.9999959954467
 41
0.517754
  7
STANDARD1
  0
LINE
  5
B52
  8
NOTE
  6
CONTINUOUS
 10
-70.0
 20
300.0
 30
0.0
 11
-70.0
 21
340.0
 31
0.0
  0
LINE
  5
B53
  8
NOTE
  6
CONTINUOUS
 10
-50.0
 20
320.0
 30
0.0
 11
-90.0
 21
320.0
 31
0.0
  0
LINE
  5
B54
  8
NOTE
  6
CONTINUOUS
 10
-792.667792
 20
611.000014
 30
0.0
 11
-458.71781
 21
611.000014
 31
0.0
  0
LINE
  5
B55
  8
NOTE
  6
CONTINUOUS
 10
-458.71781
 20
611.000014
 30
0.0
 11
-69.999999
 21
320.000014
 31
0.0
  0
LINE
  5
B56
  8
NOTE
  6
CONTINUOUS
 10
-69.999999
 20
320.000014
 30
0.0
 11
-71.856723
 21
320.743368
 31
0.0
  0
LINE
  5
B57
  8
NOTE
  6
CONTINUOUS
 10
-69.999999
 20
320.000014
 30
0.0
 11
-71.23629199999999
 21
321.572139
 31
0.0
  0
TEXT
  5
B58
  8
NOTE
  6
CONTINUOUS
 10
-792.667792
 20
612.000014
 30
0.0
 40
40.0
  1
CW R3/4(φ27.2)
 50
359.9999959954467
 41
0.517754
  7
STANDARD1
  0
LINE
  5
B59
  8
NOTE
  6
CONTINUOUS
 10
230.0
 20
300.0
 30
0.0
 11
230.0
 21
340.0
 31
0.0
  0
LINE
  5
B5A
  8
NOTE
  6
CONTINUOUS
 10
250.0
 20
320.0
 30
0.0
 11
210.0
 21
320.0
 31
0.0
  0
LINE
  5
B5B
  8
NOTE
  6
CONTINUOUS
 10
275.0
 20
380.0
 30
0.0
 11
275.0
 21
420.0
 31
0.0
  0
LINE
  5
B5C
  8
NOTE
  6
CONTINUOUS
 10
295.0
 20
400.0
 30
0.0
 11
255.0
 21
400.0
 31
0.0
  0
LINE
  5
B5D
  8
NOTE
  6
CONTINUOUS
 10
180.0
 20
380.0
 30
0.0
 11
180.0
 21
420.0
 31
0.0
  0
LINE
  5
B5E
  8
NOTE
  6
CONTINUOUS
 10
200.0
 20
400.0
 30
0.0
 11
160.0
 21
400.0
 31
0.0
  0
LINE
  5
B5F
  8
NOTE
  6
CONTINUOUS
 10
165.9
 20
155.0
 30
0.0
 11
208.0
 21
155.0
 31
0.0
  0
LINE
  5
B60
  8
NOTE
  6
CONTINUOUS
 10
188.0
 20
135.0
 30
0.0
 11
188.0
 21
180.0
 31
0.0
  0
LINE
  5
B61
  8
NOTE
  6
CONTINUOUS
 10
-742.184638
 20
-423.183397
 30
0.0
 11
-583.7346249999999
 21
-423.183397
 31
0.0
  0
LINE
  5
B62
  8
NOTE
  6
CONTINUOUS
 10
-583.7346249999999
 20
-423.183397
 30
0.0
 11
-108.023078
 21
172.999998
 31
0.0
  0
LINE
  5
B63
  8
NOTE
  6
CONTINUOUS
 10
-108.023078
 20
172.999998
 30
0.0
 11
-108.823371
 21
171.167096
 31
0.0
  0
LINE
  5
B64
  8
NOTE
  6
CONTINUOUS
 10
-108.023078
 20
172.999998
 30
0.0
 11
-109.632603
 21
171.812805
 31
0.0
  0
TEXT
  5
B65
  8
NOTE
  6
CONTINUOUS
 10
-742.184638
 20
-422.183428
 30
0.0
 40
40.0
  1
D φ18
 50
0.0000089950635202
 41
0.574479
  7
STANDARD1
  0
LINE
  5
B66
  8
NOTE
  6
CONTINUOUS
 10
-255.0
 20
340.0
 30
0.0
 11
-255.0
 21
380.0
 31
0.0
  0
LINE
  5
B67
  8
NOTE
  6
CONTINUOUS
 10
-235.0
 20
360.0
 30
0.0
 11
-275.0
 21
360.0
 31
0.0
  0
LINE
  5
B68
  8
NOTE
  6
CONTINUOUS
 10
-787.544623
 20
511.000014
 30
0.0
 11
-453.594641
 21
511.000014
 31
0.0
  0
LINE
  5
B69
  8
NOTE
  6
CONTINUOUS
 10
-453.594641
 20
511.000014
 30
0.0
 11
-255.000006
 21
360.000014
 31
0.0
  0
LINE
  5
B6A
  8
NOTE
  6
CONTINUOUS
 10
-255.000006
 20
360.000014
 30
0.0
 11
-256.851123
 21
360.757223
 31
0.0
  0
LINE
  5
B6B
  8
NOTE
  6
CONTINUOUS
 10
-255.000006
 20
360.000014
 30
0.0
 11
-256.224516
 21
361.581335
 31
0.0
  0
TEXT
  5
B6C
  8
NOTE
  6
CONTINUOUS
 10
-787.544623
 20
511.999953
 30
0.0
 40
40.0
  1
BH R1/2(φ21.7)
 50
0.0000089950635202
 41
0.5177539999999999
  7
STANDARD1
  0
TEXT
  5
B6D
  8
NOTE
  6
CONTINUOUS
 10
-965.72077
 20
-200.552217
 30
0.0
 40
39.99999999999999
  1
（脚固定金具使用時のみ）
 50
0.0000029575586669
 41
0.6729170000000001
  7
STANDARD1
  0
LINE
  5
B6E
  8
NOTE
  6
CONTINUOUS
 10
-787.5969299999999
 20
-142.088335
 30
0.0
 11
-583.446906
 21
-142.088335
 31
0.0
  0
LINE
  5
B6F
  8
NOTE
  6
CONTINUOUS
 10
-583.446906
 20
-142.088335
 30
0.0
 11
-295.000006
 21
0.0
 31
0.0
  0
LINE
  5
B70
  8
NOTE
  6
CONTINUOUS
 10
-295.000006
 20
0.0
 30
0.0
 11
-296.504267
 21
-1.318029
 31
0.0
  0
LINE
  5
B71
  8
NOTE
  6
CONTINUOUS
 10
-295.000006
 20
0.0
 30
0.0
 11
-296.961749
 21
-0.389316
 31
0.0
  0
TEXT
  5
B72
  8
NOTE
  6
CONTINUOUS
 10
-787.5969299999999
 20
-141.088335
 30
0.0
 40
39.99999999999999
  1
AH 4-M12
 50
0.0000029575586669
 41
0.513158
  7
STANDARD1
  0
LINE
  5
B73
  8
NOTE
  6
CONTINUOUS
 10
-787.88465
 20
-323.183397
 30
0.0
 11
-583.7346249999999
 21
-323.183397
 31
0.0
  0
LINE
  5
B74
  8
NOTE
  6
CONTINUOUS
 10
-583.7346249999999
 20
-323.183397
 30
0.0
 11
-248.000006
 21
0.0
 31
0.0
  0
LINE
  5
B75
  8
NOTE
  6
CONTINUOUS
 10
-248.000006
 20
0.0
 30
0.0
 11
-249.032811
 21
-1.712691
 31
0.0
  0
LINE
  5
B76
  8
NOTE
  6
CONTINUOUS
 10
-248.000006
 20
0.0
 30
0.0
 11
-249.750788
 21
-0.966832
 31
0.0
  0
TEXT
  5
B77
  8
NOTE
  6
CONTINUOUS
 10
-787.88465
 20
-322.183397
 30
0.0
 40
39.99999999999999
  1
AH 3-M12
 50
0.0000029575586669
 41
0.513158
  7
STANDARD1
  0
LINE
  5
B78
  8
NOTE
  6
CONTINUOUS
 10
-88.023085
 20
173.0
 30
0.0
 11
-104.023085
 21
173.0
 31
0.0
  0
LINE
  5
B79
  8
NOTE
  6
CONTINUOUS
 10
-108.023085
 20
153.0
 30
0.0
 11
-108.023085
 21
164.992321
 31
0.0
  0
CIRCLE
  5
B7A
  8
ARRANGE
  6
CONTINUOUS
 10
0.0
 20
0.0
 30
0.0
 40
15.0
  0
CIRCLE
  5
B7B
  8
FIX
  6
CONTINUOUS
 10
-295.0
 20
0.0
 30
0.0
 40
6.0
  0
CIRCLE
  5
B7C
  8
FIX
  6
CONTINUOUS
 10
-248.0
 20
0.0
 30
0.0
 40
6.0
  0
CIRCLE
  5
B7D
  8
FIX
  6
CONTINUOUS
 10
-201.0
 20
0.0
 30
0.0
 40
6.0
  0
CIRCLE
  5
B7E
  8
FIX
  6
CONTINUOUS
 10
201.0
 20
0.0
 30
0.0
 40
6.0
  0
CIRCLE
  5
B7F
  8
FIX
  6
CONTINUOUS
 10
295.0
 20
0.0
 30
0.0
 40
6.0
  0
CIRCLE
  5
B80
  8
FIX
  6
CONTINUOUS
 10
248.0
 20
0.0
 30
0.0
 40
6.0
  0
CIRCLE
  5
B81
  8
FIX
  6
CONTINUOUS
 10
0.0
 20
0.0
 30
0.0
 40
6.0
  0
CIRCLE
  5
B82
  8
FIX
  6
CONTINUOUS
 10
-248.0
 20
0.0
 30
0.0
 40
6.0
  0
CIRCLE
  5
B83
  8
FIX
  6
CONTINUOUS
 10
-30.0
 20
1853.0
 30
0.0
 40
5.0
  0
CIRCLE
  5
B84
  8
FIX
  6
CONTINUOUS
 10
30.0
 20
1853.0
 30
0.0
 40
5.0
  0
LINE
  5
B85
  8
SERVICESPACE
  6
DASHDOT
 10
-315.0
 20
2030.0
 30
0.0
 11
315.0
 21
1830.0
 31
0.0
  0
LINE
  5
B86
  8
SERVICESPACE
  6
DASHDOT
 10
315.0
 20
2030.0
 30
0.0
 11
-315.0
 21
1830.0
 31
0.0
  0
LINE
  5
B87
  8
SERVICESPACE
  6
DASHDOT
 10
-315.0
 20
1830.0
 30
0.0
 11
-315.0
 21
2030.0
 31
0.0
  0
LINE
  5
B88
  8
SERVICESPACE
  6
DASHDOT
 10
315.0
 20
1830.0
 30
0.0
 11
-315.0
 21
1830.0
 31
0.0
  0
LINE
  5
B89
  8
SERVICESPACE
  6
DASHDOT
 10
315.0
 20
1830.0
 30
0.0
 11
315.0
 21
2030.0
 31
0.0
  0
LINE
  5
B8A
  8
SERVICESPACE
  6
DASHDOT
 10
315.0
 20
2030.0
 30
0.0
 11
-315.0
 21
2030.0
 31
0.0
  0
TEXT
  5
B8B
  8
ETC
  6
CONTINUOUS
 10
642.859735
 20
2311.448744
 30
0.0
 40
39.99999999999999
  1
TT37C23
 50
0.0000028316468405
 41
0.4875000000000001
  7
STANDARD1
  0
TEXT
  5
B8C
  8
ETC
  6
CONTINUOUS
 10
642.859735
 20
2269.948744
 30
0.0
 40
39.99999999999999
  1
電気温水器
 50
0.0000029575586669
 41
0.6729170000000001
  7
STANDARD1
  0
ENDSEC
  0
EOF
