  0
SECTION
  2
HEADER
  9
$ACADVER
  1
AC1009
  9
$DWGCODEPAGE
  3
dos932
  9
$INSBASE
 10
0.0
 20
0.0
 30
0.0
  9
$EXTMIN
 10
-973.189002
 20
-885.935669
 30
0.0
  9
$EXTMAX
 10
1124.851813
 20
2723.924903
 30
0.0
  9
$LIMMIN
 10
0.0
 20
0.0
  9
$LIMMAX
 10
12.0
 20
9.0
  9
$ORTHOMODE
 70
     0
  9
$REGENMODE
 70
     1
  9
$FILLMODE
 70
     1
  9
$QTEXTMODE
 70
     0
  9
$MIRRTEXT
 70
     1
  9
$DRAGMODE
 70
     2
  9
$LTSCALE
 40
1.0
  9
$OSMODE
 70
    37
  9
$ATTMODE
 70
     1
  9
$TEXTSIZE
 40
2.8
  9
$TRACEWID
 40
0.05
  9
$TEXTSTYLE
  7
STANDARD1
  9
$CLAYER
  8
0
  9
$CELTYPE
  6
CONTINUOUS
  9
$CECOLOR
 62
   256
  9
$DIMSCALE
 40
1.0
  9
$DIMASZ
 40
3.863703
  9
$DIMEXO
 40
1.0
  9
$DIMDLI
 40
0.38
  9
$DIMRND
 40
0.0
  9
$DIMDLE
 40
0.0
  9
$DIMEXE
 40
2.0
  9
$DIMTP
 40
0.0
  9
$DIMTM
 40
0.0
  9
$DIMTXT
 40
2.8
  9
$DIMCEN
 40
0.09
  9
$DIMTSZ
 40
0.0
  9
$DIMTOL
 70
     0
  9
$DIMLIM
 70
     0
  9
$DIMTIH
 70
     1
  9
$DIMTOH
 70
     1
  9
$DIMSE1
 70
     0
  9
$DIMSE2
 70
     0
  9
$DIMTAD
 70
     1
  9
$DIMZIN
 70
     0
  9
$DIMBLK
  1

  9
$DIMASO
 70
     1
  9
$DIMSHO
 70
     1
  9
$DIMPOST
  1

  9
$DIMAPOST
  1

  9
$DIMALT
 70
     0
  9
$DIMALTD
 70
     2
  9
$DIMALTF
 40
25.4
  9
$DIMLFAC
 40
1.0
  9
$DIMTOFL
 70
     0
  9
$DIMTVP
 40
0.0
  9
$DIMTIX
 70
     0
  9
$DIMSOXD
 70
     0
  9
$DIMSAH
 70
     0
  9
$DIMBLK1
  1

  9
$DIMBLK2
  1

  9
$DIMSTYLE
  2
STANDARD
  9
$DIMCLRD
 70
     0
  9
$DIMCLRE
 70
     0
  9
$DIMCLRT
 70
     0
  9
$DIMTFAC
 40
0.714286
  9
$DIMGAP
 40
0.09
  9
$LUNITS
 70
     2
  9
$LUPREC
 70
     3
  9
$SKETCHINC
 40
0.1
  9
$FILLETRAD
 40
0.0
  9
$AUNITS
 70
     0
  9
$AUPREC
 70
     0
  9
$MENU
  1
acad
  9
$ELEVATION
 40
0.0
  9
$PELEVATION
 40
0.0
  9
$THICKNESS
 40
0.0
  9
$LIMCHECK
 70
     0
  9
$CHAMFERA
 40
0.0
  9
$CHAMFERB
 40
0.0
  9
$SKPOLY
 70
     0
  9
$TDCREATE
 40
2454359.438599537
  9
$TDUPDATE
 40
2457459.55949287
  9
$TDINDWG
 40
0.0
  9
$TDUSRTIMER
 40
0.0
  9
$USRTIMER
 70
     1
  9
$ANGBASE
 50
0.0
  9
$ANGDIR
 70
     0
  9
$PDMODE
 70
     0
  9
$PDSIZE
 40
0.0
  9
$PLINEWID
 40
0.0
  9
$COORDS
 70
     1
  9
$SPLFRAME
 70
     0
  9
$SPLINETYPE
 70
     6
  9
$SPLINESEGS
 70
     8
  9
$ATTDIA
 70
     0
  9
$ATTREQ
 70
     1
  9
$HANDLING
 70
     1
  9
$HANDSEED
  5
C5F
  9
$SURFTAB1
 70
     6
  9
$SURFTAB2
 70
     6
  9
$SURFTYPE
 70
     6
  9
$SURFU
 70
     6
  9
$SURFV
 70
     6
  9
$UCSNAME
  2

  9
$UCSORG
 10
0.0
 20
0.0
 30
0.0
  9
$UCSXDIR
 10
1.0
 20
0.0
 30
0.0
  9
$UCSYDIR
 10
0.0
 20
1.0
 30
0.0
  9
$PUCSNAME
  2

  9
$PUCSORG
 10
0.0
 20
0.0
 30
0.0
  9
$PUCSXDIR
 10
1.0
 20
0.0
 30
0.0
  9
$PUCSYDIR
 10
0.0
 20
1.0
 30
0.0
  9
$USERI1
 70
     0
  9
$USERI2
 70
     0
  9
$USERI3
 70
     0
  9
$USERI4
 70
     0
  9
$USERI5
 70
     0
  9
$USERR1
 40
0.0
  9
$USERR2
 40
0.0
  9
$USERR3
 40
0.0
  9
$USERR4
 40
0.0
  9
$USERR5
 40
0.0
  9
$WORLDVIEW
 70
     1
  9
$SHADEDGE
 70
     3
  9
$SHADEDIF
 70
    70
  9
$TILEMODE
 70
     1
  9
$MAXACTVP
 70
    48
  9
$PLIMCHECK
 70
     0
  9
$PEXTMIN
 10
1.000000000000000E+20
 20
1.000000000000000E+20
 30
1.000000000000000E+20
  9
$PEXTMAX
 10
-1.000000000000000E+20
 20
-1.000000000000000E+20
 30
-1.000000000000000E+20
  9
$PLIMMIN
 10
0.0
 20
0.0
  9
$PLIMMAX
 10
12.0
 20
9.0
  9
$UNITMODE
 70
     0
  9
$VISRETAIN
 70
     1
  9
$PLINEGEN
 70
     0
  9
$PSLTSCALE
 70
     1
  0
ENDSEC
  0
SECTION
  2
TABLES
  0
TABLE
  2
VPORT
 70
     1
  0
VPORT
  2
*ACTIVE
 70
     0
 10
0.0
 20
0.0
 11
1.0
 21
1.0
 12
75.831406
 22
918.994617
 13
0.0
 23
0.0
 14
1.0
 24
1.0
 15
0.0
 25
0.0
 16
0.0
 26
0.0
 36
1.0
 17
0.0
 27
0.0
 37
0.0
 40
3678.61982
 41
2.745223
 42
50.0
 43
0.0
 44
0.0
 50
0.0
 51
0.0
 71
     0
 72
   100
 73
     1
 74
     1
 75
     0
 76
     0
 77
     0
 78
     0
  0
ENDTAB
  0
TABLE
  2
LTYPE
 70
     4
  0
LTYPE
  2
CONTINUOUS
 70
     0
  3
Solid line
 72
    65
 73
     0
 40
0.0
  0
LTYPE
  2
DASHED
 70
     0
  3
-- -- -- -- -- -- -- -- -- -- -- -- -- -- --
 72
    65
 73
     2
 40
0.75
 49
0.5
 49
-0.25
  0
LTYPE
  2
DASHDOT
 70
     0
  3
__ . __ . __ . __ . __ . __ . __ . __ . __ . __
 72
    65
 73
     4
 40
125.0
 49
80.0
 49
-20.0
 49
5.0
 49
-20.0
  0
LTYPE
  2
DIVIDE
 70
     0
  3
__ . . __ . . __ . . __ . . __ . . __ . . __
 72
    65
 73
     6
 40
1.25
 49
0.5
 49
-0.25
 49
0.0
 49
-0.25
 49
0.0
 49
-0.25
  0
ENDTAB
  0
TABLE
  2
LAYER
 70
    12
  0
LAYER
  2
0
 70
     0
 62
     3
  6
CONTINUOUS
  0
LAYER
  2
OUTLINE
 70
     0
 62
     3
  6
CONTINUOUS
  0
LAYER
  2
DETAIL
 70
     0
 62
     5
  6
CONTINUOUS
  0
LAYER
  2
BASIS
 70
     0
 62
     6
  6
CONTINUOUS
  0
LAYER
  2
SIZE
 70
     0
 62
    30
  6
CONTINUOUS
  0
LAYER
  2
NOTE
 70
     0
 62
     4
  6
CONTINUOUS
  0
LAYER
  2
ARRANGE
 70
     0
 62
     1
  6
CONTINUOUS
  0
LAYER
  2
FIX
 70
     0
 62
    11
  6
CONTINUOUS
  0
LAYER
  2
SERVICESPACE
 70
     0
 62
     2
  6
CONTINUOUS
  0
LAYER
  2
ETC
 70
     0
 62
    61
  6
CONTINUOUS
  0
LAYER
  2
SYMBOLLINE
 70
     0
 62
     7
  6
CONTINUOUS
  0
LAYER
  2
DEFPOINTS
 70
     0
 62
     7
  6
CONTINUOUS
  0
ENDTAB
  0
TABLE
  2
STYLE
 70
     5
  0
STYLE
  2
STANDARD
 70
     0
 40
0.0
 41
1.0
 50
0.0
 71
     0
 42
0.2
  3
txt
  4

  0
STYLE
  2
STANDARD1
 70
     0
 40
0.0
 41
1.0
 50
0.0
 71
     0
 42
2.8
  3
MONOTXT
  4
BIGFONT
  0
STYLE
  2
STANDARD2
 70
     4
 40
0.0
 41
1.0
 50
0.0
 71
     0
 42
2.8
  3
MONOTXT
  4
BIGFONT
  0
STYLE
  2
STANDARD3
 70
     0
 40
0.0
 41
1.0
 50
0.0
 71
     0
 42
2.8
  3
MONOTXT
  4

  0
STYLE
  2
STANDARD4
 70
     4
 40
0.0
 41
1.0
 50
0.0
 71
     0
 42
2.8
  3
MONOTXT
  4

  0
ENDTAB
  0
TABLE
  2
VIEW
 70
     0
  0
ENDTAB
  0
TABLE
  2
UCS
 70
     0
  0
ENDTAB
  0
TABLE
  2
APPID
 70
     1
  0
APPID
  2
ACAD
 70
     0
  0
ENDTAB
  0
TABLE
  2
DIMSTYLE
 70
     1
  0
DIMSTYLE
  2
STANDARD
 70
     0
  3

  4

  5

  6

  7

 40
1.0
 41
0.18
 42
0.0625
 43
0.38
 44
0.18
 45
0.0
 46
0.0
 47
0.0
 48
0.0
140
0.18
141
0.09
142
0.0
143
25.4
144
1.0
145
0.0
146
1.0
147
0.09
 71
     0
 72
     0
 73
     1
 74
     1
 75
     0
 76
     0
 77
     0
 78
     0
170
     0
171
     2
172
     0
173
     0
174
     0
175
     0
176
     0
177
     0
178
     0
  0
ENDTAB
  0
ENDSEC
  0
SECTION
  2
BLOCKS
  0
BLOCK
  8
0
  2
$MODEL_SPACE
 70
     0
 10
0.0
 20
0.0
 30
0.0
  3
$MODEL_SPACE
  1

  0
ENDBLK
  5
C0E
  8
0
  0
BLOCK
 67
     1
  8
0
  2
$PAPER_SPACE
 70
     0
 10
0.0
 20
0.0
 30
0.0
  3
$PAPER_SPACE
  1

  0
ENDBLK
  5
C10
 67
     1
  8
0
  0
BLOCK
  8
SIZE
  2
*D0
 70
     1
 10
0.0
 20
0.0
 30
0.0
  3
*D0
  1

  0
TEXT
  5
4EF
  8
SIZE
  6
CONTINUOUS
 10
290.462219
 20
1903.340356
 30
0.0
 40
2.8
  1
45
 50
0.000003
 41
0.7
  7
STANDARD1
  0
LINE
  5
4F0
  8
SIZE
  6
CONTINUOUS
 10
269.922211
 20
2015.124756
 30
0.0
 11
269.922211
 21
1900.340332
 31
0.0
  0
LINE
  5
4F1
  8
SIZE
  6
CONTINUOUS
 10
314.922211
 20
2169.124756
 30
0.0
 11
314.922211
 21
1900.340332
 31
0.0
  0
LINE
  5
4F2
  8
SIZE
  6
CONTINUOUS
 10
269.922211
 20
1902.340332
 30
0.0
 11
314.922211
 21
1902.340332
 31
0.0
  0
CIRCLE
  5
4F3
  8
SIZE
  6
CONTINUOUS
 10
269.922211
 20
1902.340332
 30
0.0
 40
0.5
  0
CIRCLE
  5
4F4
  8
SIZE
  6
CONTINUOUS
 10
269.922211
 20
1902.340332
 30
0.0
 40
0.4
  0
CIRCLE
  5
4F5
  8
SIZE
  6
CONTINUOUS
 10
269.922211
 20
1902.340332
 30
0.0
 40
0.3
  0
CIRCLE
  5
4F6
  8
SIZE
  6
CONTINUOUS
 10
269.922211
 20
1902.340332
 30
0.0
 40
0.2
  0
CIRCLE
  5
4F7
  8
SIZE
  6
CONTINUOUS
 10
269.922211
 20
1902.340332
 30
0.0
 40
0.1
  0
CIRCLE
  5
4F8
  8
SIZE
  6
CONTINUOUS
 10
314.922211
 20
1902.340332
 30
0.0
 40
0.5
  0
CIRCLE
  5
4F9
  8
SIZE
  6
CONTINUOUS
 10
314.922211
 20
1902.340332
 30
0.0
 40
0.4
  0
CIRCLE
  5
4FA
  8
SIZE
  6
CONTINUOUS
 10
314.922211
 20
1902.340332
 30
0.0
 40
0.3
  0
CIRCLE
  5
4FB
  8
SIZE
  6
CONTINUOUS
 10
314.922211
 20
1902.340332
 30
0.0
 40
0.2
  0
CIRCLE
  5
4FC
  8
SIZE
  6
CONTINUOUS
 10
314.922211
 20
1902.340332
 30
0.0
 40
0.1
  0
POINT
  5
4FD
  8
DEFPOINTS
  6
BYBLOCK
 10
314.922211
 20
2170.124756
 30
0.0
  0
POINT
  5
4FE
  8
DEFPOINTS
  6
BYBLOCK
 10
269.922211
 20
2016.124756
 30
0.0
  0
POINT
  5
4FF
  8
DEFPOINTS
  6
BYBLOCK
 10
269.922211
 20
1902.340332
 30
0.0
  0
ENDBLK
  5
500
  8
SIZE
  0
BLOCK
  8
SIZE
  2
*D1
 70
     1
 10
0.0
 20
0.0
 30
0.0
  3
*D1
  1

  0
TEXT
  5
503
  8
SIZE
  6
CONTINUOUS
 10
862.279883
 20
1001.204773
 30
0.0
 40
2.8
  1
2010
 50
90.00000499999999
 41
0.7
  7
STANDARD1
  0
LINE
  5
504
  8
SIZE
  6
CONTINUOUS
 10
264.922211
 20
2010.124756
 30
0.0
 11
865.279907
 21
2010.124756
 31
0.0
  0
LINE
  5
505
  8
SIZE
  6
CONTINUOUS
 10
310.922211
 20
0.124771
 30
0.0
 11
865.279907
 21
0.124771
 31
0.0
  0
LINE
  5
506
  8
SIZE
  6
CONTINUOUS
 10
863.279907
 20
2010.124756
 30
0.0
 11
863.279907
 21
0.124771
 31
0.0
  0
CIRCLE
  5
507
  8
SIZE
  6
CONTINUOUS
 10
863.279907
 20
2010.124756
 30
0.0
 40
0.5
  0
CIRCLE
  5
508
  8
SIZE
  6
CONTINUOUS
 10
863.279907
 20
2010.124756
 30
0.0
 40
0.4
  0
CIRCLE
  5
509
  8
SIZE
  6
CONTINUOUS
 10
863.279907
 20
2010.124756
 30
0.0
 40
0.3
  0
CIRCLE
  5
50A
  8
SIZE
  6
CONTINUOUS
 10
863.279907
 20
2010.124756
 30
0.0
 40
0.2
  0
CIRCLE
  5
50B
  8
SIZE
  6
CONTINUOUS
 10
863.279907
 20
2010.124756
 30
0.0
 40
0.1
  0
CIRCLE
  5
50C
  8
SIZE
  6
CONTINUOUS
 10
863.279907
 20
0.124771
 30
0.0
 40
0.5
  0
CIRCLE
  5
50D
  8
SIZE
  6
CONTINUOUS
 10
863.279907
 20
0.124771
 30
0.0
 40
0.4
  0
CIRCLE
  5
50E
  8
SIZE
  6
CONTINUOUS
 10
863.279907
 20
0.124771
 30
0.0
 40
0.3
  0
CIRCLE
  5
50F
  8
SIZE
  6
CONTINUOUS
 10
863.279907
 20
0.124771
 30
0.0
 40
0.2
  0
CIRCLE
  5
510
  8
SIZE
  6
CONTINUOUS
 10
863.279907
 20
0.124771
 30
0.0
 40
0.1
  0
POINT
  5
511
  8
DEFPOINTS
  6
BYBLOCK
 10
309.922211
 20
0.124771
 30
0.0
  0
POINT
  5
512
  8
DEFPOINTS
  6
BYBLOCK
 10
263.922211
 20
2010.124756
 30
0.0
  0
POINT
  5
513
  8
DEFPOINTS
  6
BYBLOCK
 10
863.279907
 20
2010.124756
 30
0.0
  0
ENDBLK
  5
514
  8
SIZE
  0
BLOCK
  8
SIZE
  2
*D2
 70
     1
 10
0.0
 20
0.0
 30
0.0
  3
*D2
  1

  0
TEXT
  5
517
  8
SIZE
  6
CONTINUOUS
 10
-353.860657
 20
541.545618
 30
0.0
 40
2.8
  1
30
 50
0.000003
 41
0.7
  7
STANDARD1
  0
LINE
  5
518
  8
SIZE
  6
CONTINUOUS
 10
-285.077789
 20
643.124756
 30
0.0
 11
-285.077789
 21
538.545593
 31
0.0
  0
LINE
  5
519
  8
SIZE
  6
CONTINUOUS
 10
-315.077789
 20
201.124771
 30
0.0
 11
-315.077789
 21
542.545593
 31
0.0
  0
LINE
  5
51A
  8
SIZE
  6
CONTINUOUS
 10
-280.077789
 20
540.545593
 30
0.0
 11
-355.260651
 21
540.545593
 31
0.0
  0
CIRCLE
  5
51B
  8
SIZE
  6
CONTINUOUS
 10
-285.077789
 20
540.545593
 30
0.0
 40
0.5
  0
CIRCLE
  5
51C
  8
SIZE
  6
CONTINUOUS
 10
-285.077789
 20
540.545593
 30
0.0
 40
0.4
  0
CIRCLE
  5
51D
  8
SIZE
  6
CONTINUOUS
 10
-285.077789
 20
540.545593
 30
0.0
 40
0.3
  0
CIRCLE
  5
51E
  8
SIZE
  6
CONTINUOUS
 10
-285.077789
 20
540.545593
 30
0.0
 40
0.2
  0
CIRCLE
  5
51F
  8
SIZE
  6
CONTINUOUS
 10
-285.077789
 20
540.545593
 30
0.0
 40
0.1
  0
CIRCLE
  5
520
  8
SIZE
  6
CONTINUOUS
 10
-315.077789
 20
540.545593
 30
0.0
 40
0.5
  0
CIRCLE
  5
521
  8
SIZE
  6
CONTINUOUS
 10
-315.077789
 20
540.545593
 30
0.0
 40
0.4
  0
CIRCLE
  5
522
  8
SIZE
  6
CONTINUOUS
 10
-315.077789
 20
540.545593
 30
0.0
 40
0.3
  0
CIRCLE
  5
523
  8
SIZE
  6
CONTINUOUS
 10
-315.077789
 20
540.545593
 30
0.0
 40
0.2
  0
CIRCLE
  5
524
  8
SIZE
  6
CONTINUOUS
 10
-315.077789
 20
540.545593
 30
0.0
 40
0.1
  0
POINT
  5
525
  8
DEFPOINTS
  6
BYBLOCK
 10
-315.077789
 20
200.124771
 30
0.0
  0
POINT
  5
526
  8
DEFPOINTS
  6
BYBLOCK
 10
-285.077789
 20
644.124756
 30
0.0
  0
POINT
  5
527
  8
DEFPOINTS
  6
BYBLOCK
 10
-285.077789
 20
540.545593
 30
0.0
  0
ENDBLK
  5
528
  8
SIZE
  0
BLOCK
  8
SIZE
  2
*D3
 70
     1
 10
0.0
 20
0.0
 30
0.0
  3
*D3
  1

  0
TEXT
  5
52B
  8
SIZE
  6
CONTINUOUS
 10
-353.860657
 20
877.96084
 30
0.0
 40
2.8
  1
34
 50
0.000003
 41
0.7
  7
STANDARD1
  0
LINE
  5
52C
  8
SIZE
  6
CONTINUOUS
 10
-281.077789
 20
780.124756
 30
0.0
 11
-281.077789
 21
878.960815
 31
0.0
  0
LINE
  5
52D
  8
SIZE
  6
CONTINUOUS
 10
-315.077789
 20
201.124771
 30
0.0
 11
-315.077789
 21
878.960815
 31
0.0
  0
LINE
  5
52E
  8
SIZE
  6
CONTINUOUS
 10
-276.077789
 20
876.960815
 30
0.0
 11
-355.260651
 21
876.960815
 31
0.0
  0
CIRCLE
  5
52F
  8
SIZE
  6
CONTINUOUS
 10
-281.077789
 20
876.960815
 30
0.0
 40
0.5
  0
CIRCLE
  5
530
  8
SIZE
  6
CONTINUOUS
 10
-281.077789
 20
876.960815
 30
0.0
 40
0.4
  0
CIRCLE
  5
531
  8
SIZE
  6
CONTINUOUS
 10
-281.077789
 20
876.960815
 30
0.0
 40
0.3
  0
CIRCLE
  5
532
  8
SIZE
  6
CONTINUOUS
 10
-281.077789
 20
876.960815
 30
0.0
 40
0.2
  0
CIRCLE
  5
533
  8
SIZE
  6
CONTINUOUS
 10
-281.077789
 20
876.960815
 30
0.0
 40
0.1
  0
CIRCLE
  5
534
  8
SIZE
  6
CONTINUOUS
 10
-315.077789
 20
876.960815
 30
0.0
 40
0.5
  0
CIRCLE
  5
535
  8
SIZE
  6
CONTINUOUS
 10
-315.077789
 20
876.960815
 30
0.0
 40
0.4
  0
CIRCLE
  5
536
  8
SIZE
  6
CONTINUOUS
 10
-315.077789
 20
876.960815
 30
0.0
 40
0.3
  0
CIRCLE
  5
537
  8
SIZE
  6
CONTINUOUS
 10
-315.077789
 20
876.960815
 30
0.0
 40
0.2
  0
CIRCLE
  5
538
  8
SIZE
  6
CONTINUOUS
 10
-315.077789
 20
876.960815
 30
0.0
 40
0.1
  0
POINT
  5
539
  8
DEFPOINTS
  6
BYBLOCK
 10
-315.077789
 20
200.124771
 30
0.0
  0
POINT
  5
53A
  8
DEFPOINTS
  6
BYBLOCK
 10
-281.077789
 20
779.124756
 30
0.0
  0
POINT
  5
53B
  8
DEFPOINTS
  6
BYBLOCK
 10
-281.077789
 20
876.960815
 30
0.0
  0
ENDBLK
  5
53C
  8
SIZE
  0
BLOCK
  8
SIZE
  2
*D4
 70
     1
 10
0.0
 20
0.0
 30
0.0
  3
*D4
  1

  0
TEXT
  5
53F
  8
SIZE
  6
CONTINUOUS
 10
-140.517807
 20
-582.935645
 30
0.0
 40
2.8
  1
275
 50
0.000003
 41
0.7
  7
STANDARD1
  0
LINE
  5
540
  8
SIZE
  6
CONTINUOUS
 10
-0.077801
 20
-0.875229
 30
0.0
 11
-0.077801
 21
-585.935669
 31
0.0
  0
LINE
  5
541
  8
SIZE
  6
CONTINUOUS
 10
-275.077789
 20
379.124756
 30
0.0
 11
-275.077789
 21
-585.935669
 31
0.0
  0
LINE
  5
542
  8
SIZE
  6
CONTINUOUS
 10
-0.077801
 20
-583.935669
 30
0.0
 11
-275.077789
 21
-583.935669
 31
0.0
  0
CIRCLE
  5
543
  8
SIZE
  6
CONTINUOUS
 10
-0.077801
 20
-583.935669
 30
0.0
 40
0.5
  0
CIRCLE
  5
544
  8
SIZE
  6
CONTINUOUS
 10
-0.077801
 20
-583.935669
 30
0.0
 40
0.4
  0
CIRCLE
  5
545
  8
SIZE
  6
CONTINUOUS
 10
-0.077801
 20
-583.935669
 30
0.0
 40
0.3
  0
CIRCLE
  5
546
  8
SIZE
  6
CONTINUOUS
 10
-0.077801
 20
-583.935669
 30
0.0
 40
0.2
  0
CIRCLE
  5
547
  8
SIZE
  6
CONTINUOUS
 10
-0.077801
 20
-583.935669
 30
0.0
 40
0.1
  0
CIRCLE
  5
548
  8
SIZE
  6
CONTINUOUS
 10
-275.077789
 20
-583.935669
 30
0.0
 40
0.5
  0
CIRCLE
  5
549
  8
SIZE
  6
CONTINUOUS
 10
-275.077789
 20
-583.935669
 30
0.0
 40
0.4
  0
CIRCLE
  5
54A
  8
SIZE
  6
CONTINUOUS
 10
-275.077789
 20
-583.935669
 30
0.0
 40
0.3
  0
CIRCLE
  5
54B
  8
SIZE
  6
CONTINUOUS
 10
-275.077789
 20
-583.935669
 30
0.0
 40
0.2
  0
CIRCLE
  5
54C
  8
SIZE
  6
CONTINUOUS
 10
-275.077789
 20
-583.935669
 30
0.0
 40
0.1
  0
POINT
  5
54D
  8
DEFPOINTS
  6
BYBLOCK
 10
-275.077789
 20
380.124756
 30
0.0
  0
POINT
  5
54E
  8
DEFPOINTS
  6
BYBLOCK
 10
-0.077801
 20
0.124771
 30
0.0
  0
POINT
  5
54F
  8
DEFPOINTS
  6
BYBLOCK
 10
-0.077801
 20
-583.935669
 30
0.0
  0
ENDBLK
  5
550
  8
SIZE
  0
BLOCK
  8
SIZE
  2
*D5
 70
     1
 10
0.0
 20
0.0
 30
0.0
  3
*D5
  1

  0
TEXT
  5
553
  8
SIZE
  6
CONTINUOUS
 10
-118.017807
 20
-482.935675
 30
0.0
 40
2.8
  1
230
 50
0.000003
 41
0.7
  7
STANDARD1
  0
LINE
  5
554
  8
SIZE
  6
CONTINUOUS
 10
-0.077801
 20
-0.875229
 30
0.0
 11
-0.077801
 21
-485.935669
 31
0.0
  0
LINE
  5
555
  8
SIZE
  6
CONTINUOUS
 10
-230.077805
 20
299.124756
 30
0.0
 11
-230.077805
 21
-485.935669
 31
0.0
  0
LINE
  5
556
  8
SIZE
  6
CONTINUOUS
 10
-0.077801
 20
-483.935669
 30
0.0
 11
-230.077805
 21
-483.935669
 31
0.0
  0
CIRCLE
  5
557
  8
SIZE
  6
CONTINUOUS
 10
-0.077801
 20
-483.935669
 30
0.0
 40
0.5
  0
CIRCLE
  5
558
  8
SIZE
  6
CONTINUOUS
 10
-0.077801
 20
-483.935669
 30
0.0
 40
0.4
  0
CIRCLE
  5
559
  8
SIZE
  6
CONTINUOUS
 10
-0.077801
 20
-483.935669
 30
0.0
 40
0.3
  0
CIRCLE
  5
55A
  8
SIZE
  6
CONTINUOUS
 10
-0.077801
 20
-483.935669
 30
0.0
 40
0.2
  0
CIRCLE
  5
55B
  8
SIZE
  6
CONTINUOUS
 10
-0.077801
 20
-483.935669
 30
0.0
 40
0.1
  0
CIRCLE
  5
55C
  8
SIZE
  6
CONTINUOUS
 10
-230.077805
 20
-483.935669
 30
0.0
 40
0.5
  0
CIRCLE
  5
55D
  8
SIZE
  6
CONTINUOUS
 10
-230.077805
 20
-483.935669
 30
0.0
 40
0.4
  0
CIRCLE
  5
55E
  8
SIZE
  6
CONTINUOUS
 10
-230.077805
 20
-483.935669
 30
0.0
 40
0.3
  0
CIRCLE
  5
55F
  8
SIZE
  6
CONTINUOUS
 10
-230.077805
 20
-483.935669
 30
0.0
 40
0.2
  0
CIRCLE
  5
560
  8
SIZE
  6
CONTINUOUS
 10
-230.077805
 20
-483.935669
 30
0.0
 40
0.1
  0
POINT
  5
561
  8
DEFPOINTS
  6
BYBLOCK
 10
-230.077805
 20
300.124756
 30
0.0
  0
POINT
  5
562
  8
DEFPOINTS
  6
BYBLOCK
 10
-0.077801
 20
0.124771
 30
0.0
  0
POINT
  5
563
  8
DEFPOINTS
  6
BYBLOCK
 10
-0.077801
 20
-483.935669
 30
0.0
  0
ENDBLK
  5
564
  8
SIZE
  0
BLOCK
  8
SIZE
  2
*D6
 70
     1
 10
0.0
 20
0.0
 30
0.0
  3
*D6
  1

  0
TEXT
  5
567
  8
SIZE
  6
CONTINUOUS
 10
124.482193
 20
-482.935675
 30
0.0
 40
2.8
  1
255
 50
0.000003
 41
0.7
  7
STANDARD1
  0
LINE
  5
568
  8
SIZE
  6
CONTINUOUS
 10
-0.077801
 20
-0.875229
 30
0.0
 11
-0.077801
 21
-485.935669
 31
0.0
  0
LINE
  5
569
  8
SIZE
  6
CONTINUOUS
 10
254.922195
 20
339.124756
 30
0.0
 11
254.922195
 21
-485.935669
 31
0.0
  0
LINE
  5
56A
  8
SIZE
  6
CONTINUOUS
 10
-0.077801
 20
-483.935669
 30
0.0
 11
254.922195
 21
-483.935669
 31
0.0
  0
CIRCLE
  5
56B
  8
SIZE
  6
CONTINUOUS
 10
-0.077801
 20
-483.935669
 30
0.0
 40
0.5
  0
CIRCLE
  5
56C
  8
SIZE
  6
CONTINUOUS
 10
-0.077801
 20
-483.935669
 30
0.0
 40
0.4
  0
CIRCLE
  5
56D
  8
SIZE
  6
CONTINUOUS
 10
-0.077801
 20
-483.935669
 30
0.0
 40
0.3
  0
CIRCLE
  5
56E
  8
SIZE
  6
CONTINUOUS
 10
-0.077801
 20
-483.935669
 30
0.0
 40
0.2
  0
CIRCLE
  5
56F
  8
SIZE
  6
CONTINUOUS
 10
-0.077801
 20
-483.935669
 30
0.0
 40
0.1
  0
CIRCLE
  5
570
  8
SIZE
  6
CONTINUOUS
 10
254.922195
 20
-483.935669
 30
0.0
 40
0.5
  0
CIRCLE
  5
571
  8
SIZE
  6
CONTINUOUS
 10
254.922195
 20
-483.935669
 30
0.0
 40
0.4
  0
CIRCLE
  5
572
  8
SIZE
  6
CONTINUOUS
 10
254.922195
 20
-483.935669
 30
0.0
 40
0.3
  0
CIRCLE
  5
573
  8
SIZE
  6
CONTINUOUS
 10
254.922195
 20
-483.935669
 30
0.0
 40
0.2
  0
CIRCLE
  5
574
  8
SIZE
  6
CONTINUOUS
 10
254.922195
 20
-483.935669
 30
0.0
 40
0.1
  0
POINT
  5
575
  8
DEFPOINTS
  6
BYBLOCK
 10
254.922195
 20
340.124756
 30
0.0
  0
POINT
  5
576
  8
DEFPOINTS
  6
BYBLOCK
 10
-0.077801
 20
0.124771
 30
0.0
  0
POINT
  5
577
  8
DEFPOINTS
  6
BYBLOCK
 10
-0.077801
 20
-483.935669
 30
0.0
  0
ENDBLK
  5
578
  8
SIZE
  0
BLOCK
  8
SIZE
  2
*D7
 70
     1
 10
0.0
 20
0.0
 30
0.0
  3
*D7
  1

  0
TEXT
  5
57B
  8
SIZE
  6
CONTINUOUS
 10
50.993744
 20
-382.935675
 30
0.0
 40
2.8
  1
108
 50
0.000003
 41
0.7
  7
STANDARD1
  0
LINE
  5
57C
  8
SIZE
  6
CONTINUOUS
 10
-0.077801
 20
-0.875229
 30
0.0
 11
-0.077801
 21
-385.935669
 31
0.0
  0
LINE
  5
57D
  8
SIZE
  6
CONTINUOUS
 10
107.945282
 20
151.624771
 30
0.0
 11
107.945282
 21
-385.935669
 31
0.0
  0
LINE
  5
57E
  8
SIZE
  6
CONTINUOUS
 10
-0.077801
 20
-383.935669
 30
0.0
 11
107.945282
 21
-383.935669
 31
0.0
  0
CIRCLE
  5
57F
  8
SIZE
  6
CONTINUOUS
 10
-0.077801
 20
-383.935669
 30
0.0
 40
0.5
  0
CIRCLE
  5
580
  8
SIZE
  6
CONTINUOUS
 10
-0.077801
 20
-383.935669
 30
0.0
 40
0.4
  0
CIRCLE
  5
581
  8
SIZE
  6
CONTINUOUS
 10
-0.077801
 20
-383.935669
 30
0.0
 40
0.3
  0
CIRCLE
  5
582
  8
SIZE
  6
CONTINUOUS
 10
-0.077801
 20
-383.935669
 30
0.0
 40
0.2
  0
CIRCLE
  5
583
  8
SIZE
  6
CONTINUOUS
 10
-0.077801
 20
-383.935669
 30
0.0
 40
0.1
  0
CIRCLE
  5
584
  8
SIZE
  6
CONTINUOUS
 10
107.945282
 20
-383.935669
 30
0.0
 40
0.5
  0
CIRCLE
  5
585
  8
SIZE
  6
CONTINUOUS
 10
107.945282
 20
-383.935669
 30
0.0
 40
0.4
  0
CIRCLE
  5
586
  8
SIZE
  6
CONTINUOUS
 10
107.945282
 20
-383.935669
 30
0.0
 40
0.3
  0
CIRCLE
  5
587
  8
SIZE
  6
CONTINUOUS
 10
107.945282
 20
-383.935669
 30
0.0
 40
0.2
  0
CIRCLE
  5
588
  8
SIZE
  6
CONTINUOUS
 10
107.945282
 20
-383.935669
 30
0.0
 40
0.1
  0
POINT
  5
589
  8
DEFPOINTS
  6
BYBLOCK
 10
107.945282
 20
152.624771
 30
0.0
  0
POINT
  5
58A
  8
DEFPOINTS
  6
BYBLOCK
 10
-0.077801
 20
0.124771
 30
0.0
  0
POINT
  5
58B
  8
DEFPOINTS
  6
BYBLOCK
 10
-0.077801
 20
-383.935669
 30
0.0
  0
ENDBLK
  5
58C
  8
SIZE
  0
BLOCK
  8
SIZE
  2
*D8
 70
     1
 10
0.0
 20
0.0
 30
0.0
  3
*D8
  1

  0
TEXT
  5
58F
  8
SIZE
  6
CONTINUOUS
 10
-97.017807
 20
-382.935675
 30
0.0
 40
2.8
  1
188
 50
0.000003
 41
0.7
  7
STANDARD1
  0
LINE
  5
590
  8
SIZE
  6
CONTINUOUS
 10
-0.077801
 20
-0.875229
 30
0.0
 11
-0.077801
 21
-385.935669
 31
0.0
  0
LINE
  5
591
  8
SIZE
  6
CONTINUOUS
 10
-188.077805
 20
134.124771
 30
0.0
 11
-188.077805
 21
-385.935669
 31
0.0
  0
LINE
  5
592
  8
SIZE
  6
CONTINUOUS
 10
-0.077801
 20
-383.935669
 30
0.0
 11
-188.077805
 21
-383.935669
 31
0.0
  0
CIRCLE
  5
593
  8
SIZE
  6
CONTINUOUS
 10
-0.077801
 20
-383.935669
 30
0.0
 40
0.5
  0
CIRCLE
  5
594
  8
SIZE
  6
CONTINUOUS
 10
-0.077801
 20
-383.935669
 30
0.0
 40
0.4
  0
CIRCLE
  5
595
  8
SIZE
  6
CONTINUOUS
 10
-0.077801
 20
-383.935669
 30
0.0
 40
0.3
  0
CIRCLE
  5
596
  8
SIZE
  6
CONTINUOUS
 10
-0.077801
 20
-383.935669
 30
0.0
 40
0.2
  0
CIRCLE
  5
597
  8
SIZE
  6
CONTINUOUS
 10
-0.077801
 20
-383.935669
 30
0.0
 40
0.1
  0
CIRCLE
  5
598
  8
SIZE
  6
CONTINUOUS
 10
-188.077805
 20
-383.935669
 30
0.0
 40
0.5
  0
CIRCLE
  5
599
  8
SIZE
  6
CONTINUOUS
 10
-188.077805
 20
-383.935669
 30
0.0
 40
0.4
  0
CIRCLE
  5
59A
  8
SIZE
  6
CONTINUOUS
 10
-188.077805
 20
-383.935669
 30
0.0
 40
0.3
  0
CIRCLE
  5
59B
  8
SIZE
  6
CONTINUOUS
 10
-188.077805
 20
-383.935669
 30
0.0
 40
0.2
  0
CIRCLE
  5
59C
  8
SIZE
  6
CONTINUOUS
 10
-188.077805
 20
-383.935669
 30
0.0
 40
0.1
  0
POINT
  5
59D
  8
DEFPOINTS
  6
BYBLOCK
 10
-188.077805
 20
135.124771
 30
0.0
  0
POINT
  5
59E
  8
DEFPOINTS
  6
BYBLOCK
 10
-0.077801
 20
0.124771
 30
0.0
  0
POINT
  5
59F
  8
DEFPOINTS
  6
BYBLOCK
 10
-0.077801
 20
-383.935669
 30
0.0
  0
ENDBLK
  5
5A0
  8
SIZE
  0
BLOCK
  8
SIZE
  2
*D9
 70
     1
 10
0.0
 20
0.0
 30
0.0
  3
*D9
  1

  0
TEXT
  5
5A3
  8
SIZE
  6
CONTINUOUS
 10
-93.017807
 20
-282.935675
 30
0.0
 40
2.8
  1
180
 50
0.000003
 41
0.7
  7
STANDARD1
  0
LINE
  5
5A4
  8
SIZE
  6
CONTINUOUS
 10
-0.077801
 20
-0.875229
 30
0.0
 11
-0.077801
 21
-285.935669
 31
0.0
  0
LINE
  5
5A5
  8
SIZE
  6
CONTINUOUS
 10
-180.077805
 20
379.124756
 30
0.0
 11
-180.077805
 21
-285.935669
 31
0.0
  0
LINE
  5
5A6
  8
SIZE
  6
CONTINUOUS
 10
-0.077801
 20
-283.935669
 30
0.0
 11
-180.077805
 21
-283.935669
 31
0.0
  0
CIRCLE
  5
5A7
  8
SIZE
  6
CONTINUOUS
 10
-0.077801
 20
-283.935669
 30
0.0
 40
0.5
  0
CIRCLE
  5
5A8
  8
SIZE
  6
CONTINUOUS
 10
-0.077801
 20
-283.935669
 30
0.0
 40
0.4
  0
CIRCLE
  5
5A9
  8
SIZE
  6
CONTINUOUS
 10
-0.077801
 20
-283.935669
 30
0.0
 40
0.3
  0
CIRCLE
  5
5AA
  8
SIZE
  6
CONTINUOUS
 10
-0.077801
 20
-283.935669
 30
0.0
 40
0.2
  0
CIRCLE
  5
5AB
  8
SIZE
  6
CONTINUOUS
 10
-0.077801
 20
-283.935669
 30
0.0
 40
0.1
  0
CIRCLE
  5
5AC
  8
SIZE
  6
CONTINUOUS
 10
-180.077805
 20
-283.935669
 30
0.0
 40
0.5
  0
CIRCLE
  5
5AD
  8
SIZE
  6
CONTINUOUS
 10
-180.077805
 20
-283.935669
 30
0.0
 40
0.4
  0
CIRCLE
  5
5AE
  8
SIZE
  6
CONTINUOUS
 10
-180.077805
 20
-283.935669
 30
0.0
 40
0.3
  0
CIRCLE
  5
5AF
  8
SIZE
  6
CONTINUOUS
 10
-180.077805
 20
-283.935669
 30
0.0
 40
0.2
  0
CIRCLE
  5
5B0
  8
SIZE
  6
CONTINUOUS
 10
-180.077805
 20
-283.935669
 30
0.0
 40
0.1
  0
POINT
  5
5B1
  8
DEFPOINTS
  6
BYBLOCK
 10
-180.077805
 20
380.124756
 30
0.0
  0
POINT
  5
5B2
  8
DEFPOINTS
  6
BYBLOCK
 10
-0.077801
 20
0.124771
 30
0.0
  0
POINT
  5
5B3
  8
DEFPOINTS
  6
BYBLOCK
 10
-0.077801
 20
-283.935669
 30
0.0
  0
ENDBLK
  5
5B4
  8
SIZE
  0
BLOCK
  8
SIZE
  2
*D10
 70
     1
 10
0.0
 20
0.0
 30
0.0
  3
*D10
  1

  0
TEXT
  5
5B7
  8
SIZE
  6
CONTINUOUS
 10
32.9622
 20
-282.935675
 30
0.0
 40
2.8
  1
70
 50
0.000003
 41
0.7
  7
STANDARD1
  0
LINE
  5
5B8
  8
SIZE
  6
CONTINUOUS
 10
-0.077801
 20
-0.875229
 30
0.0
 11
-0.077801
 21
-285.935669
 31
0.0
  0
LINE
  5
5B9
  8
SIZE
  6
CONTINUOUS
 10
69.922195
 20
299.124756
 30
0.0
 11
69.922195
 21
-285.935669
 31
0.0
  0
LINE
  5
5BA
  8
SIZE
  6
CONTINUOUS
 10
-0.077801
 20
-283.935669
 30
0.0
 11
69.922195
 21
-283.935669
 31
0.0
  0
CIRCLE
  5
5BB
  8
SIZE
  6
CONTINUOUS
 10
-0.077801
 20
-283.935669
 30
0.0
 40
0.5
  0
CIRCLE
  5
5BC
  8
SIZE
  6
CONTINUOUS
 10
-0.077801
 20
-283.935669
 30
0.0
 40
0.4
  0
CIRCLE
  5
5BD
  8
SIZE
  6
CONTINUOUS
 10
-0.077801
 20
-283.935669
 30
0.0
 40
0.3
  0
CIRCLE
  5
5BE
  8
SIZE
  6
CONTINUOUS
 10
-0.077801
 20
-283.935669
 30
0.0
 40
0.2
  0
CIRCLE
  5
5BF
  8
SIZE
  6
CONTINUOUS
 10
-0.077801
 20
-283.935669
 30
0.0
 40
0.1
  0
CIRCLE
  5
5C0
  8
SIZE
  6
CONTINUOUS
 10
69.922195
 20
-283.935669
 30
0.0
 40
0.5
  0
CIRCLE
  5
5C1
  8
SIZE
  6
CONTINUOUS
 10
69.922195
 20
-283.935669
 30
0.0
 40
0.4
  0
CIRCLE
  5
5C2
  8
SIZE
  6
CONTINUOUS
 10
69.922195
 20
-283.935669
 30
0.0
 40
0.3
  0
CIRCLE
  5
5C3
  8
SIZE
  6
CONTINUOUS
 10
69.922195
 20
-283.935669
 30
0.0
 40
0.2
  0
CIRCLE
  5
5C4
  8
SIZE
  6
CONTINUOUS
 10
69.922195
 20
-283.935669
 30
0.0
 40
0.1
  0
POINT
  5
5C5
  8
DEFPOINTS
  6
BYBLOCK
 10
69.922195
 20
300.124756
 30
0.0
  0
POINT
  5
5C6
  8
DEFPOINTS
  6
BYBLOCK
 10
-0.077801
 20
0.124771
 30
0.0
  0
POINT
  5
5C7
  8
DEFPOINTS
  6
BYBLOCK
 10
-0.077801
 20
-283.935669
 30
0.0
  0
ENDBLK
  5
5C8
  8
SIZE
  0
BLOCK
  8
SIZE
  2
*D11
 70
     1
 10
0.0
 20
0.0
 30
0.0
  3
*D11
  1

  0
TEXT
  5
5CB
  8
SIZE
  6
CONTINUOUS
 10
1062.279883
 20
1081.204712
 30
0.0
 40
2.8
  1
2170
 50
90.00000499999999
 41
0.7
  7
STANDARD1
  0
LINE
  5
5CC
  8
SIZE
  6
CONTINUOUS
 10
315.922211
 20
2170.124756
 30
0.0
 11
1065.279907
 21
2170.124756
 31
0.0
  0
LINE
  5
5CD
  8
SIZE
  6
CONTINUOUS
 10
310.922211
 20
0.124771
 30
0.0
 11
1065.279907
 21
0.124771
 31
0.0
  0
LINE
  5
5CE
  8
SIZE
  6
CONTINUOUS
 10
1063.279907
 20
2170.124756
 30
0.0
 11
1063.279907
 21
0.124771
 31
0.0
  0
CIRCLE
  5
5CF
  8
SIZE
  6
CONTINUOUS
 10
1063.279907
 20
2170.124756
 30
0.0
 40
0.5
  0
CIRCLE
  5
5D0
  8
SIZE
  6
CONTINUOUS
 10
1063.279907
 20
2170.124756
 30
0.0
 40
0.4
  0
CIRCLE
  5
5D1
  8
SIZE
  6
CONTINUOUS
 10
1063.279907
 20
2170.124756
 30
0.0
 40
0.3
  0
CIRCLE
  5
5D2
  8
SIZE
  6
CONTINUOUS
 10
1063.279907
 20
2170.124756
 30
0.0
 40
0.2
  0
CIRCLE
  5
5D3
  8
SIZE
  6
CONTINUOUS
 10
1063.279907
 20
2170.124756
 30
0.0
 40
0.1
  0
CIRCLE
  5
5D4
  8
SIZE
  6
CONTINUOUS
 10
1063.279907
 20
0.124771
 30
0.0
 40
0.5
  0
CIRCLE
  5
5D5
  8
SIZE
  6
CONTINUOUS
 10
1063.279907
 20
0.124771
 30
0.0
 40
0.4
  0
CIRCLE
  5
5D6
  8
SIZE
  6
CONTINUOUS
 10
1063.279907
 20
0.124771
 30
0.0
 40
0.3
  0
CIRCLE
  5
5D7
  8
SIZE
  6
CONTINUOUS
 10
1063.279907
 20
0.124771
 30
0.0
 40
0.2
  0
CIRCLE
  5
5D8
  8
SIZE
  6
CONTINUOUS
 10
1063.279907
 20
0.124771
 30
0.0
 40
0.1
  0
POINT
  5
5D9
  8
DEFPOINTS
  6
BYBLOCK
 10
309.922211
 20
0.124771
 30
0.0
  0
POINT
  5
5DA
  8
DEFPOINTS
  6
BYBLOCK
 10
314.922211
 20
2170.124756
 30
0.0
  0
POINT
  5
5DB
  8
DEFPOINTS
  6
BYBLOCK
 10
1063.279907
 20
2170.124756
 30
0.0
  0
ENDBLK
  5
5DC
  8
SIZE
  0
BLOCK
  8
SIZE
  2
*D12
 70
     1
 10
0.0
 20
0.0
 30
0.0
  3
*D12
  1

  0
TEXT
  5
5DF
  8
SIZE
  6
CONTINUOUS
 10
962.279883
 20
1181.204712
 30
0.0
 40
2.8
  1
1970
 50
90.00000499999999
 41
0.7
  7
STANDARD1
  0
LINE
  5
5E0
  8
SIZE
  6
CONTINUOUS
 10
315.922211
 20
200.124771
 30
0.0
 11
965.279907
 21
200.124771
 31
0.0
  0
LINE
  5
5E1
  8
SIZE
  6
CONTINUOUS
 10
315.922211
 20
2170.124756
 30
0.0
 11
965.279907
 21
2170.124756
 31
0.0
  0
LINE
  5
5E2
  8
SIZE
  6
CONTINUOUS
 10
963.279907
 20
200.124771
 30
0.0
 11
963.279907
 21
2170.124756
 31
0.0
  0
CIRCLE
  5
5E3
  8
SIZE
  6
CONTINUOUS
 10
963.279907
 20
200.124771
 30
0.0
 40
0.5
  0
CIRCLE
  5
5E4
  8
SIZE
  6
CONTINUOUS
 10
963.279907
 20
200.124771
 30
0.0
 40
0.4
  0
CIRCLE
  5
5E5
  8
SIZE
  6
CONTINUOUS
 10
963.279907
 20
200.124771
 30
0.0
 40
0.3
  0
CIRCLE
  5
5E6
  8
SIZE
  6
CONTINUOUS
 10
963.279907
 20
200.124771
 30
0.0
 40
0.2
  0
CIRCLE
  5
5E7
  8
SIZE
  6
CONTINUOUS
 10
963.279907
 20
200.124771
 30
0.0
 40
0.1
  0
CIRCLE
  5
5E8
  8
SIZE
  6
CONTINUOUS
 10
963.279907
 20
2170.124756
 30
0.0
 40
0.5
  0
CIRCLE
  5
5E9
  8
SIZE
  6
CONTINUOUS
 10
963.279907
 20
2170.124756
 30
0.0
 40
0.4
  0
CIRCLE
  5
5EA
  8
SIZE
  6
CONTINUOUS
 10
963.279907
 20
2170.124756
 30
0.0
 40
0.3
  0
CIRCLE
  5
5EB
  8
SIZE
  6
CONTINUOUS
 10
963.279907
 20
2170.124756
 30
0.0
 40
0.2
  0
CIRCLE
  5
5EC
  8
SIZE
  6
CONTINUOUS
 10
963.279907
 20
2170.124756
 30
0.0
 40
0.1
  0
POINT
  5
5ED
  8
DEFPOINTS
  6
BYBLOCK
 10
314.922211
 20
2170.124756
 30
0.0
  0
POINT
  5
5EE
  8
DEFPOINTS
  6
BYBLOCK
 10
314.922211
 20
200.124771
 30
0.0
  0
POINT
  5
5EF
  8
DEFPOINTS
  6
BYBLOCK
 10
963.279907
 20
200.124771
 30
0.0
  0
ENDBLK
  5
5F0
  8
SIZE
  0
BLOCK
  8
SIZE
  2
*D13
 70
     1
 10
0.0
 20
0.0
 30
0.0
  3
*D13
  1

  0
TEXT
  5
5F3
  8
SIZE
  6
CONTINUOUS
 10
-870.389001
 20
1092.704712
 30
0.0
 40
2.8
  1
2193
 50
90.00000499999999
 41
0.7
  7
STANDARD1
  0
LINE
  5
5F4
  8
SIZE
  6
CONTINUOUS
 10
-51.077801
 20
2193.124756
 30
0.0
 11
-871.388977
 21
2193.124756
 31
0.0
  0
LINE
  5
5F5
  8
SIZE
  6
CONTINUOUS
 10
-311.077789
 20
0.124771
 30
0.0
 11
-871.388977
 21
0.124771
 31
0.0
  0
LINE
  5
5F6
  8
SIZE
  6
CONTINUOUS
 10
-869.388977
 20
2193.124756
 30
0.0
 11
-869.388977
 21
0.124771
 31
0.0
  0
CIRCLE
  5
5F7
  8
SIZE
  6
CONTINUOUS
 10
-869.388977
 20
2193.124756
 30
0.0
 40
0.5
  0
CIRCLE
  5
5F8
  8
SIZE
  6
CONTINUOUS
 10
-869.388977
 20
2193.124756
 30
0.0
 40
0.4
  0
CIRCLE
  5
5F9
  8
SIZE
  6
CONTINUOUS
 10
-869.388977
 20
2193.124756
 30
0.0
 40
0.3
  0
CIRCLE
  5
5FA
  8
SIZE
  6
CONTINUOUS
 10
-869.388977
 20
2193.124756
 30
0.0
 40
0.2
  0
CIRCLE
  5
5FB
  8
SIZE
  6
CONTINUOUS
 10
-869.388977
 20
2193.124756
 30
0.0
 40
0.1
  0
CIRCLE
  5
5FC
  8
SIZE
  6
CONTINUOUS
 10
-869.388977
 20
0.124771
 30
0.0
 40
0.5
  0
CIRCLE
  5
5FD
  8
SIZE
  6
CONTINUOUS
 10
-869.388977
 20
0.124771
 30
0.0
 40
0.4
  0
CIRCLE
  5
5FE
  8
SIZE
  6
CONTINUOUS
 10
-869.388977
 20
0.124771
 30
0.0
 40
0.3
  0
CIRCLE
  5
5FF
  8
SIZE
  6
CONTINUOUS
 10
-869.388977
 20
0.124771
 30
0.0
 40
0.2
  0
CIRCLE
  5
600
  8
SIZE
  6
CONTINUOUS
 10
-869.388977
 20
0.124771
 30
0.0
 40
0.1
  0
POINT
  5
601
  8
DEFPOINTS
  6
BYBLOCK
 10
-310.077789
 20
0.124771
 30
0.0
  0
POINT
  5
602
  8
DEFPOINTS
  6
BYBLOCK
 10
-50.077801
 20
2193.124756
 30
0.0
  0
POINT
  5
603
  8
DEFPOINTS
  6
BYBLOCK
 10
-869.388977
 20
2193.124756
 30
0.0
  0
ENDBLK
  5
604
  8
SIZE
  0
BLOCK
  8
SIZE
  2
*D14
 70
     1
 10
0.0
 20
0.0
 30
0.0
  3
*D14
  1

  0
TEXT
  5
607
  8
SIZE
  6
CONTINUOUS
 10
-970.389001
 20
1103.704712
 30
0.0
 40
2.8
  1
2215
 50
90.00000499999999
 41
0.7
  7
STANDARD1
  0
LINE
  5
608
  8
SIZE
  6
CONTINUOUS
 10
-41.077801
 20
2215.124756
 30
0.0
 11
-971.388977
 21
2215.124756
 31
0.0
  0
LINE
  5
609
  8
SIZE
  6
CONTINUOUS
 10
-311.077789
 20
0.124771
 30
0.0
 11
-971.388977
 21
0.124771
 31
0.0
  0
LINE
  5
60A
  8
SIZE
  6
CONTINUOUS
 10
-969.388977
 20
2215.124756
 30
0.0
 11
-969.388977
 21
0.124771
 31
0.0
  0
CIRCLE
  5
60B
  8
SIZE
  6
CONTINUOUS
 10
-969.388977
 20
2215.124756
 30
0.0
 40
0.5
  0
CIRCLE
  5
60C
  8
SIZE
  6
CONTINUOUS
 10
-969.388977
 20
2215.124756
 30
0.0
 40
0.4
  0
CIRCLE
  5
60D
  8
SIZE
  6
CONTINUOUS
 10
-969.388977
 20
2215.124756
 30
0.0
 40
0.3
  0
CIRCLE
  5
60E
  8
SIZE
  6
CONTINUOUS
 10
-969.388977
 20
2215.124756
 30
0.0
 40
0.2
  0
CIRCLE
  5
60F
  8
SIZE
  6
CONTINUOUS
 10
-969.388977
 20
2215.124756
 30
0.0
 40
0.1
  0
CIRCLE
  5
610
  8
SIZE
  6
CONTINUOUS
 10
-969.388977
 20
0.124771
 30
0.0
 40
0.5
  0
CIRCLE
  5
611
  8
SIZE
  6
CONTINUOUS
 10
-969.388977
 20
0.124771
 30
0.0
 40
0.4
  0
CIRCLE
  5
612
  8
SIZE
  6
CONTINUOUS
 10
-969.388977
 20
0.124771
 30
0.0
 40
0.3
  0
CIRCLE
  5
613
  8
SIZE
  6
CONTINUOUS
 10
-969.388977
 20
0.124771
 30
0.0
 40
0.2
  0
CIRCLE
  5
614
  8
SIZE
  6
CONTINUOUS
 10
-969.388977
 20
0.124771
 30
0.0
 40
0.1
  0
POINT
  5
615
  8
DEFPOINTS
  6
BYBLOCK
 10
-310.077789
 20
0.124771
 30
0.0
  0
POINT
  5
616
  8
DEFPOINTS
  6
BYBLOCK
 10
-40.077801
 20
2215.124756
 30
0.0
  0
POINT
  5
617
  8
DEFPOINTS
  6
BYBLOCK
 10
-969.388977
 20
2215.124756
 30
0.0
  0
ENDBLK
  5
618
  8
SIZE
  0
BLOCK
  8
SIZE
  2
*D15
 70
     1
 10
0.0
 20
0.0
 30
0.0
  3
*D15
  1

  0
TEXT
  5
61B
  8
SIZE
  6
CONTINUOUS
 10
-670.389001
 20
539.184754
 30
0.0
 40
2.8
  1
220
 50
90.00000499999999
 41
0.7
  7
STANDARD1
  0
LINE
  5
61C
  8
SIZE
  6
CONTINUOUS
 10
-278.07782
 20
652.124756
 30
0.0
 11
-671.388977
 21
652.124756
 31
0.0
  0
LINE
  5
61D
  8
SIZE
  6
CONTINUOUS
 10
-278.07782
 20
432.124756
 30
0.0
 11
-671.388977
 21
432.124756
 31
0.0
  0
LINE
  5
61E
  8
SIZE
  6
CONTINUOUS
 10
-669.388977
 20
652.124756
 30
0.0
 11
-669.388977
 21
432.124756
 31
0.0
  0
CIRCLE
  5
61F
  8
SIZE
  6
CONTINUOUS
 10
-669.388977
 20
652.124756
 30
0.0
 40
0.5
  0
CIRCLE
  5
620
  8
SIZE
  6
CONTINUOUS
 10
-669.388977
 20
652.124756
 30
0.0
 40
0.4
  0
CIRCLE
  5
621
  8
SIZE
  6
CONTINUOUS
 10
-669.388977
 20
652.124756
 30
0.0
 40
0.3
  0
CIRCLE
  5
622
  8
SIZE
  6
CONTINUOUS
 10
-669.388977
 20
652.124756
 30
0.0
 40
0.2
  0
CIRCLE
  5
623
  8
SIZE
  6
CONTINUOUS
 10
-669.388977
 20
652.124756
 30
0.0
 40
0.1
  0
CIRCLE
  5
624
  8
SIZE
  6
CONTINUOUS
 10
-669.388977
 20
432.124756
 30
0.0
 40
0.5
  0
CIRCLE
  5
625
  8
SIZE
  6
CONTINUOUS
 10
-669.388977
 20
432.124756
 30
0.0
 40
0.4
  0
CIRCLE
  5
626
  8
SIZE
  6
CONTINUOUS
 10
-669.388977
 20
432.124756
 30
0.0
 40
0.3
  0
CIRCLE
  5
627
  8
SIZE
  6
CONTINUOUS
 10
-669.388977
 20
432.124756
 30
0.0
 40
0.2
  0
CIRCLE
  5
628
  8
SIZE
  6
CONTINUOUS
 10
-669.388977
 20
432.124756
 30
0.0
 40
0.1
  0
POINT
  5
629
  8
DEFPOINTS
  6
BYBLOCK
 10
-277.07782
 20
432.124756
 30
0.0
  0
POINT
  5
62A
  8
DEFPOINTS
  6
BYBLOCK
 10
-277.07782
 20
652.124756
 30
0.0
  0
POINT
  5
62B
  8
DEFPOINTS
  6
BYBLOCK
 10
-669.388977
 20
652.124756
 30
0.0
  0
ENDBLK
  5
62C
  8
SIZE
  0
BLOCK
  8
SIZE
  2
*D16
 70
     1
 10
0.0
 20
0.0
 30
0.0
  3
*D16
  1

  0
TEXT
  5
62F
  8
SIZE
  6
CONTINUOUS
 10
-202.517822
 20
541.862878
 30
0.0
 40
2.8
  1
171
 50
0.000003
 41
0.7
  7
STANDARD1
  0
LINE
  5
630
  8
SIZE
  6
CONTINUOUS
 10
-285.07782
 20
441.124756
 30
0.0
 11
-285.07782
 21
542.862854
 31
0.0
  0
LINE
  5
631
  8
SIZE
  6
CONTINUOUS
 10
-114.077805
 20
441.124756
 30
0.0
 11
-114.077805
 21
542.862854
 31
0.0
  0
LINE
  5
632
  8
SIZE
  6
CONTINUOUS
 10
-285.07782
 20
540.862854
 30
0.0
 11
-114.077805
 21
540.862854
 31
0.0
  0
CIRCLE
  5
633
  8
SIZE
  6
CONTINUOUS
 10
-285.07782
 20
540.862854
 30
0.0
 40
0.5
  0
CIRCLE
  5
634
  8
SIZE
  6
CONTINUOUS
 10
-285.07782
 20
540.862854
 30
0.0
 40
0.4
  0
CIRCLE
  5
635
  8
SIZE
  6
CONTINUOUS
 10
-285.07782
 20
540.862854
 30
0.0
 40
0.3
  0
CIRCLE
  5
636
  8
SIZE
  6
CONTINUOUS
 10
-285.07782
 20
540.862854
 30
0.0
 40
0.2
  0
CIRCLE
  5
637
  8
SIZE
  6
CONTINUOUS
 10
-285.07782
 20
540.862854
 30
0.0
 40
0.1
  0
CIRCLE
  5
638
  8
SIZE
  6
CONTINUOUS
 10
-114.077805
 20
540.862854
 30
0.0
 40
0.5
  0
CIRCLE
  5
639
  8
SIZE
  6
CONTINUOUS
 10
-114.077805
 20
540.862854
 30
0.0
 40
0.4
  0
CIRCLE
  5
63A
  8
SIZE
  6
CONTINUOUS
 10
-114.077805
 20
540.862854
 30
0.0
 40
0.3
  0
CIRCLE
  5
63B
  8
SIZE
  6
CONTINUOUS
 10
-114.077805
 20
540.862854
 30
0.0
 40
0.2
  0
CIRCLE
  5
63C
  8
SIZE
  6
CONTINUOUS
 10
-114.077805
 20
540.862854
 30
0.0
 40
0.1
  0
POINT
  5
63D
  8
DEFPOINTS
  6
BYBLOCK
 10
-114.077805
 20
440.124756
 30
0.0
  0
POINT
  5
63E
  8
DEFPOINTS
  6
BYBLOCK
 10
-285.07782
 20
440.124756
 30
0.0
  0
POINT
  5
63F
  8
DEFPOINTS
  6
BYBLOCK
 10
-285.07782
 20
540.862854
 30
0.0
  0
ENDBLK
  5
640
  8
SIZE
  0
BLOCK
  8
SIZE
  2
*D17
 70
     1
 10
0.0
 20
0.0
 30
0.0
  3
*D17
  1

  0
TEXT
  5
643
  8
SIZE
  6
CONTINUOUS
 10
201.982178
 20
1903.340356
 30
0.0
 40
2.8
  1
130
 50
0.000003
 41
0.7
  7
STANDARD1
  0
LINE
  5
644
  8
SIZE
  6
CONTINUOUS
 10
269.92218
 20
2015.124756
 30
0.0
 11
269.92218
 21
1900.340332
 31
0.0
  0
LINE
  5
645
  8
SIZE
  6
CONTINUOUS
 10
139.92218
 20
2015.124756
 30
0.0
 11
139.92218
 21
1900.340332
 31
0.0
  0
LINE
  5
646
  8
SIZE
  6
CONTINUOUS
 10
269.92218
 20
1902.340332
 30
0.0
 11
139.92218
 21
1902.340332
 31
0.0
  0
CIRCLE
  5
647
  8
SIZE
  6
CONTINUOUS
 10
269.92218
 20
1902.340332
 30
0.0
 40
0.5
  0
CIRCLE
  5
648
  8
SIZE
  6
CONTINUOUS
 10
269.92218
 20
1902.340332
 30
0.0
 40
0.4
  0
CIRCLE
  5
649
  8
SIZE
  6
CONTINUOUS
 10
269.92218
 20
1902.340332
 30
0.0
 40
0.3
  0
CIRCLE
  5
64A
  8
SIZE
  6
CONTINUOUS
 10
269.92218
 20
1902.340332
 30
0.0
 40
0.2
  0
CIRCLE
  5
64B
  8
SIZE
  6
CONTINUOUS
 10
269.92218
 20
1902.340332
 30
0.0
 40
0.1
  0
CIRCLE
  5
64C
  8
SIZE
  6
CONTINUOUS
 10
139.92218
 20
1902.340332
 30
0.0
 40
0.5
  0
CIRCLE
  5
64D
  8
SIZE
  6
CONTINUOUS
 10
139.92218
 20
1902.340332
 30
0.0
 40
0.4
  0
CIRCLE
  5
64E
  8
SIZE
  6
CONTINUOUS
 10
139.92218
 20
1902.340332
 30
0.0
 40
0.3
  0
CIRCLE
  5
64F
  8
SIZE
  6
CONTINUOUS
 10
139.92218
 20
1902.340332
 30
0.0
 40
0.2
  0
CIRCLE
  5
650
  8
SIZE
  6
CONTINUOUS
 10
139.92218
 20
1902.340332
 30
0.0
 40
0.1
  0
POINT
  5
651
  8
DEFPOINTS
  6
BYBLOCK
 10
139.92218
 20
2016.124756
 30
0.0
  0
POINT
  5
652
  8
DEFPOINTS
  6
BYBLOCK
 10
269.92218
 20
2016.124756
 30
0.0
  0
POINT
  5
653
  8
DEFPOINTS
  6
BYBLOCK
 10
269.92218
 20
1902.340332
 30
0.0
  0
ENDBLK
  5
654
  8
SIZE
  0
BLOCK
  8
SIZE
  2
*D18
 70
     1
 10
0.0
 20
0.0
 30
0.0
  3
*D18
  1

  0
TEXT
  5
657
  8
SIZE
  6
CONTINUOUS
 10
860.279883
 20
2066.184815
 30
0.0
 40
2.8
  1
118
 50
90.00000499999999
 41
0.7
  7
STANDARD1
  0
LINE
  5
658
  8
SIZE
  6
CONTINUOUS
 10
264.92218
 20
2128.124756
 30
0.0
 11
863.279907
 21
2128.124756
 31
0.0
  0
LINE
  5
659
  8
SIZE
  6
CONTINUOUS
 10
264.92218
 20
2010.124756
 30
0.0
 11
863.279907
 21
2010.124756
 31
0.0
  0
LINE
  5
65A
  8
SIZE
  6
CONTINUOUS
 10
861.279907
 20
2128.124756
 30
0.0
 11
861.279907
 21
2010.124756
 31
0.0
  0
CIRCLE
  5
65B
  8
SIZE
  6
CONTINUOUS
 10
861.279907
 20
2128.124756
 30
0.0
 40
0.5
  0
CIRCLE
  5
65C
  8
SIZE
  6
CONTINUOUS
 10
861.279907
 20
2128.124756
 30
0.0
 40
0.4
  0
CIRCLE
  5
65D
  8
SIZE
  6
CONTINUOUS
 10
861.279907
 20
2128.124756
 30
0.0
 40
0.3
  0
CIRCLE
  5
65E
  8
SIZE
  6
CONTINUOUS
 10
861.279907
 20
2128.124756
 30
0.0
 40
0.2
  0
CIRCLE
  5
65F
  8
SIZE
  6
CONTINUOUS
 10
861.279907
 20
2128.124756
 30
0.0
 40
0.1
  0
CIRCLE
  5
660
  8
SIZE
  6
CONTINUOUS
 10
861.279907
 20
2010.124756
 30
0.0
 40
0.5
  0
CIRCLE
  5
661
  8
SIZE
  6
CONTINUOUS
 10
861.279907
 20
2010.124756
 30
0.0
 40
0.4
  0
CIRCLE
  5
662
  8
SIZE
  6
CONTINUOUS
 10
861.279907
 20
2010.124756
 30
0.0
 40
0.3
  0
CIRCLE
  5
663
  8
SIZE
  6
CONTINUOUS
 10
861.279907
 20
2010.124756
 30
0.0
 40
0.2
  0
CIRCLE
  5
664
  8
SIZE
  6
CONTINUOUS
 10
861.279907
 20
2010.124756
 30
0.0
 40
0.1
  0
POINT
  5
665
  8
DEFPOINTS
  6
BYBLOCK
 10
263.92218
 20
2010.124756
 30
0.0
  0
POINT
  5
666
  8
DEFPOINTS
  6
BYBLOCK
 10
263.92218
 20
2128.124756
 30
0.0
  0
POINT
  5
667
  8
DEFPOINTS
  6
BYBLOCK
 10
861.279907
 20
2128.124756
 30
0.0
  0
ENDBLK
  5
668
  8
SIZE
  0
BLOCK
  8
SIZE
  2
*D19
 70
     1
 10
0.0
 20
0.0
 30
0.0
  3
*D19
  1

  0
TEXT
  5
66B
  8
SIZE
  6
CONTINUOUS
 10
-2.037801
 20
2571.124902
 30
0.0
 40
2.8
  1
90
 50
0.000003
 41
0.7
  7
STANDARD1
  0
LINE
  5
66C
  8
SIZE
  6
CONTINUOUS
 10
-45.077797
 20
2211.124756
 30
0.0
 11
-45.077797
 21
2572.125
 31
0.0
  0
LINE
  5
66D
  8
SIZE
  6
CONTINUOUS
 10
44.922203
 20
2211.124756
 30
0.0
 11
44.922203
 21
2572.125
 31
0.0
  0
LINE
  5
66E
  8
SIZE
  6
CONTINUOUS
 10
-45.077797
 20
2570.125
 30
0.0
 11
44.922203
 21
2570.125
 31
0.0
  0
CIRCLE
  5
66F
  8
SIZE
  6
CONTINUOUS
 10
-45.077797
 20
2570.125
 30
0.0
 40
0.5
  0
CIRCLE
  5
670
  8
SIZE
  6
CONTINUOUS
 10
-45.077797
 20
2570.125
 30
0.0
 40
0.4
  0
CIRCLE
  5
671
  8
SIZE
  6
CONTINUOUS
 10
-45.077797
 20
2570.125
 30
0.0
 40
0.3
  0
CIRCLE
  5
672
  8
SIZE
  6
CONTINUOUS
 10
-45.077797
 20
2570.125
 30
0.0
 40
0.2
  0
CIRCLE
  5
673
  8
SIZE
  6
CONTINUOUS
 10
-45.077797
 20
2570.125
 30
0.0
 40
0.1
  0
CIRCLE
  5
674
  8
SIZE
  6
CONTINUOUS
 10
44.922203
 20
2570.125
 30
0.0
 40
0.5
  0
CIRCLE
  5
675
  8
SIZE
  6
CONTINUOUS
 10
44.922203
 20
2570.125
 30
0.0
 40
0.4
  0
CIRCLE
  5
676
  8
SIZE
  6
CONTINUOUS
 10
44.922203
 20
2570.125
 30
0.0
 40
0.3
  0
CIRCLE
  5
677
  8
SIZE
  6
CONTINUOUS
 10
44.922203
 20
2570.125
 30
0.0
 40
0.2
  0
CIRCLE
  5
678
  8
SIZE
  6
CONTINUOUS
 10
44.922203
 20
2570.125
 30
0.0
 40
0.1
  0
POINT
  5
679
  8
DEFPOINTS
  6
BYBLOCK
 10
44.922203
 20
2210.124756
 30
0.0
  0
POINT
  5
67A
  8
DEFPOINTS
  6
BYBLOCK
 10
-45.077797
 20
2210.124756
 30
0.0
  0
POINT
  5
67B
  8
DEFPOINTS
  6
BYBLOCK
 10
-45.077797
 20
2570.125
 30
0.0
  0
ENDBLK
  5
67C
  8
SIZE
  0
BLOCK
  8
SIZE
  2
*D20
 70
     1
 10
0.0
 20
0.0
 30
0.0
  3
*D20
  1

  0
TEXT
  5
67F
  8
SIZE
  6
CONTINUOUS
 10
962.279883
 20
97.184776
 30
0.0
 40
2.8
  1
200
 50
90.00000499999999
 41
0.7
  7
STANDARD1
  0
LINE
  5
680
  8
SIZE
  6
CONTINUOUS
 10
310.92218
 20
0.124771
 30
0.0
 11
965.279907
 21
0.124771
 31
0.0
  0
LINE
  5
681
  8
SIZE
  6
CONTINUOUS
 10
315.92218
 20
200.124771
 30
0.0
 11
965.279907
 21
200.124771
 31
0.0
  0
LINE
  5
682
  8
SIZE
  6
CONTINUOUS
 10
963.279907
 20
0.124771
 30
0.0
 11
963.279907
 21
200.124771
 31
0.0
  0
CIRCLE
  5
683
  8
SIZE
  6
CONTINUOUS
 10
963.279907
 20
0.124771
 30
0.0
 40
0.5
  0
CIRCLE
  5
684
  8
SIZE
  6
CONTINUOUS
 10
963.279907
 20
0.124771
 30
0.0
 40
0.4
  0
CIRCLE
  5
685
  8
SIZE
  6
CONTINUOUS
 10
963.279907
 20
0.124771
 30
0.0
 40
0.3
  0
CIRCLE
  5
686
  8
SIZE
  6
CONTINUOUS
 10
963.279907
 20
0.124771
 30
0.0
 40
0.2
  0
CIRCLE
  5
687
  8
SIZE
  6
CONTINUOUS
 10
963.279907
 20
0.124771
 30
0.0
 40
0.1
  0
CIRCLE
  5
688
  8
SIZE
  6
CONTINUOUS
 10
963.279907
 20
200.124771
 30
0.0
 40
0.5
  0
CIRCLE
  5
689
  8
SIZE
  6
CONTINUOUS
 10
963.279907
 20
200.124771
 30
0.0
 40
0.4
  0
CIRCLE
  5
68A
  8
SIZE
  6
CONTINUOUS
 10
963.279907
 20
200.124771
 30
0.0
 40
0.3
  0
CIRCLE
  5
68B
  8
SIZE
  6
CONTINUOUS
 10
963.279907
 20
200.124771
 30
0.0
 40
0.2
  0
CIRCLE
  5
68C
  8
SIZE
  6
CONTINUOUS
 10
963.279907
 20
200.124771
 30
0.0
 40
0.1
  0
POINT
  5
68D
  8
DEFPOINTS
  6
BYBLOCK
 10
314.92218
 20
200.124771
 30
0.0
  0
POINT
  5
68E
  8
DEFPOINTS
  6
BYBLOCK
 10
309.92218
 20
0.124771
 30
0.0
  0
POINT
  5
68F
  8
DEFPOINTS
  6
BYBLOCK
 10
963.279907
 20
0.124771
 30
0.0
  0
ENDBLK
  5
690
  8
SIZE
  0
BLOCK
  8
SIZE
  2
*D21
 70
     1
 10
0.0
 20
0.0
 30
0.0
  3
*D21
  1

  0
TEXT
  5
693
  8
SIZE
  6
CONTINUOUS
 10
-770.389001
 20
541.684754
 30
0.0
 40
2.8
  1
225
 50
90.00000499999999
 41
0.7
  7
STANDARD1
  0
LINE
  5
694
  8
SIZE
  6
CONTINUOUS
 10
-278.07782
 20
432.124756
 30
0.0
 11
-771.388977
 21
432.124756
 31
0.0
  0
LINE
  5
695
  8
SIZE
  6
CONTINUOUS
 10
-274.07782
 20
657.124756
 30
0.0
 11
-771.388977
 21
657.124756
 31
0.0
  0
LINE
  5
696
  8
SIZE
  6
CONTINUOUS
 10
-769.388977
 20
432.124756
 30
0.0
 11
-769.388977
 21
657.124756
 31
0.0
  0
CIRCLE
  5
697
  8
SIZE
  6
CONTINUOUS
 10
-769.388977
 20
432.124756
 30
0.0
 40
0.5
  0
CIRCLE
  5
698
  8
SIZE
  6
CONTINUOUS
 10
-769.388977
 20
432.124756
 30
0.0
 40
0.4
  0
CIRCLE
  5
699
  8
SIZE
  6
CONTINUOUS
 10
-769.388977
 20
432.124756
 30
0.0
 40
0.3
  0
CIRCLE
  5
69A
  8
SIZE
  6
CONTINUOUS
 10
-769.388977
 20
432.124756
 30
0.0
 40
0.2
  0
CIRCLE
  5
69B
  8
SIZE
  6
CONTINUOUS
 10
-769.388977
 20
432.124756
 30
0.0
 40
0.1
  0
CIRCLE
  5
69C
  8
SIZE
  6
CONTINUOUS
 10
-769.388977
 20
657.124756
 30
0.0
 40
0.5
  0
CIRCLE
  5
69D
  8
SIZE
  6
CONTINUOUS
 10
-769.388977
 20
657.124756
 30
0.0
 40
0.4
  0
CIRCLE
  5
69E
  8
SIZE
  6
CONTINUOUS
 10
-769.388977
 20
657.124756
 30
0.0
 40
0.3
  0
CIRCLE
  5
69F
  8
SIZE
  6
CONTINUOUS
 10
-769.388977
 20
657.124756
 30
0.0
 40
0.2
  0
CIRCLE
  5
6A0
  8
SIZE
  6
CONTINUOUS
 10
-769.388977
 20
657.124756
 30
0.0
 40
0.1
  0
POINT
  5
6A1
  8
DEFPOINTS
  6
BYBLOCK
 10
-273.07782
 20
657.124756
 30
0.0
  0
POINT
  5
6A2
  8
DEFPOINTS
  6
BYBLOCK
 10
-277.07782
 20
432.124756
 30
0.0
  0
POINT
  5
6A3
  8
DEFPOINTS
  6
BYBLOCK
 10
-769.388977
 20
432.124756
 30
0.0
  0
ENDBLK
  5
6A4
  8
SIZE
  0
BLOCK
  8
SIZE
  2
*D22
 70
     1
 10
0.0
 20
0.0
 30
0.0
  3
*D22
  1

  0
TEXT
  5
6A7
  8
SIZE
  6
CONTINUOUS
 10
-205.517822
 20
877.478662
 30
0.0
 40
2.8
  1
157
 50
0.000003
 41
0.7
  7
STANDARD1
  0
LINE
  5
6A8
  8
SIZE
  6
CONTINUOUS
 10
-281.07782
 20
780.124756
 30
0.0
 11
-281.07782
 21
878.478638
 31
0.0
  0
LINE
  5
6A9
  8
SIZE
  6
CONTINUOUS
 10
-124.077805
 20
780.124756
 30
0.0
 11
-124.077805
 21
878.478638
 31
0.0
  0
LINE
  5
6AA
  8
SIZE
  6
CONTINUOUS
 10
-281.07782
 20
876.478638
 30
0.0
 11
-124.077805
 21
876.478638
 31
0.0
  0
CIRCLE
  5
6AB
  8
SIZE
  6
CONTINUOUS
 10
-281.07782
 20
876.478638
 30
0.0
 40
0.5
  0
CIRCLE
  5
6AC
  8
SIZE
  6
CONTINUOUS
 10
-281.07782
 20
876.478638
 30
0.0
 40
0.4
  0
CIRCLE
  5
6AD
  8
SIZE
  6
CONTINUOUS
 10
-281.07782
 20
876.478638
 30
0.0
 40
0.3
  0
CIRCLE
  5
6AE
  8
SIZE
  6
CONTINUOUS
 10
-281.07782
 20
876.478638
 30
0.0
 40
0.2
  0
CIRCLE
  5
6AF
  8
SIZE
  6
CONTINUOUS
 10
-281.07782
 20
876.478638
 30
0.0
 40
0.1
  0
CIRCLE
  5
6B0
  8
SIZE
  6
CONTINUOUS
 10
-124.077805
 20
876.478638
 30
0.0
 40
0.5
  0
CIRCLE
  5
6B1
  8
SIZE
  6
CONTINUOUS
 10
-124.077805
 20
876.478638
 30
0.0
 40
0.4
  0
CIRCLE
  5
6B2
  8
SIZE
  6
CONTINUOUS
 10
-124.077805
 20
876.478638
 30
0.0
 40
0.3
  0
CIRCLE
  5
6B3
  8
SIZE
  6
CONTINUOUS
 10
-124.077805
 20
876.478638
 30
0.0
 40
0.2
  0
CIRCLE
  5
6B4
  8
SIZE
  6
CONTINUOUS
 10
-124.077805
 20
876.478638
 30
0.0
 40
0.1
  0
POINT
  5
6B5
  8
DEFPOINTS
  6
BYBLOCK
 10
-124.077805
 20
779.124756
 30
0.0
  0
POINT
  5
6B6
  8
DEFPOINTS
  6
BYBLOCK
 10
-281.07782
 20
779.124756
 30
0.0
  0
POINT
  5
6B7
  8
DEFPOINTS
  6
BYBLOCK
 10
-281.07782
 20
876.478638
 30
0.0
  0
ENDBLK
  5
6B8
  8
SIZE
  0
BLOCK
  8
SIZE
  2
*D23
 70
     1
 10
0.0
 20
0.0
 30
0.0
  3
*D23
  1

  0
TEXT
  5
6BB
  8
SIZE
  6
CONTINUOUS
 10
-770.389001
 20
719.184754
 30
0.0
 40
2.8
  1
130
 50
90.00000499999999
 41
0.7
  7
STANDARD1
  0
LINE
  5
6BC
  8
SIZE
  6
CONTINUOUS
 10
-274.07782
 20
657.124756
 30
0.0
 11
-771.388977
 21
657.124756
 31
0.0
  0
LINE
  5
6BD
  8
SIZE
  6
CONTINUOUS
 10
-274.07782
 20
787.124756
 30
0.0
 11
-771.388977
 21
787.124756
 31
0.0
  0
LINE
  5
6BE
  8
SIZE
  6
CONTINUOUS
 10
-769.388977
 20
657.124756
 30
0.0
 11
-769.388977
 21
787.124756
 31
0.0
  0
CIRCLE
  5
6BF
  8
SIZE
  6
CONTINUOUS
 10
-769.388977
 20
657.124756
 30
0.0
 40
0.5
  0
CIRCLE
  5
6C0
  8
SIZE
  6
CONTINUOUS
 10
-769.388977
 20
657.124756
 30
0.0
 40
0.4
  0
CIRCLE
  5
6C1
  8
SIZE
  6
CONTINUOUS
 10
-769.388977
 20
657.124756
 30
0.0
 40
0.3
  0
CIRCLE
  5
6C2
  8
SIZE
  6
CONTINUOUS
 10
-769.388977
 20
657.124756
 30
0.0
 40
0.2
  0
CIRCLE
  5
6C3
  8
SIZE
  6
CONTINUOUS
 10
-769.388977
 20
657.124756
 30
0.0
 40
0.1
  0
CIRCLE
  5
6C4
  8
SIZE
  6
CONTINUOUS
 10
-769.388977
 20
787.124756
 30
0.0
 40
0.5
  0
CIRCLE
  5
6C5
  8
SIZE
  6
CONTINUOUS
 10
-769.388977
 20
787.124756
 30
0.0
 40
0.4
  0
CIRCLE
  5
6C6
  8
SIZE
  6
CONTINUOUS
 10
-769.388977
 20
787.124756
 30
0.0
 40
0.3
  0
CIRCLE
  5
6C7
  8
SIZE
  6
CONTINUOUS
 10
-769.388977
 20
787.124756
 30
0.0
 40
0.2
  0
CIRCLE
  5
6C8
  8
SIZE
  6
CONTINUOUS
 10
-769.388977
 20
787.124756
 30
0.0
 40
0.1
  0
POINT
  5
6C9
  8
DEFPOINTS
  6
BYBLOCK
 10
-273.07782
 20
787.124756
 30
0.0
  0
POINT
  5
6CA
  8
DEFPOINTS
  6
BYBLOCK
 10
-273.07782
 20
657.124756
 30
0.0
  0
POINT
  5
6CB
  8
DEFPOINTS
  6
BYBLOCK
 10
-769.388977
 20
657.124756
 30
0.0
  0
ENDBLK
  5
6CC
  8
SIZE
  0
BLOCK
  8
SIZE
  2
*D24
 70
     1
 10
0.0
 20
0.0
 30
0.0
  3
*D24
  1

  0
TEXT
  5
6CF
  8
SIZE
  6
CONTINUOUS
 10
-670.389001
 20
197.184769
 30
0.0
 40
2.8
  1
400
 50
90.00000499999999
 41
0.7
  7
STANDARD1
  0
LINE
  5
6D0
  8
SIZE
  6
CONTINUOUS
 10
-316.07782
 20
400.124756
 30
0.0
 11
-671.388977
 21
400.124756
 31
0.0
  0
LINE
  5
6D1
  8
SIZE
  6
CONTINUOUS
 10
-311.07782
 20
0.124771
 30
0.0
 11
-671.388977
 21
0.124771
 31
0.0
  0
LINE
  5
6D2
  8
SIZE
  6
CONTINUOUS
 10
-669.388977
 20
400.124756
 30
0.0
 11
-669.388977
 21
0.124771
 31
0.0
  0
CIRCLE
  5
6D3
  8
SIZE
  6
CONTINUOUS
 10
-669.388977
 20
400.124756
 30
0.0
 40
0.5
  0
CIRCLE
  5
6D4
  8
SIZE
  6
CONTINUOUS
 10
-669.388977
 20
400.124756
 30
0.0
 40
0.4
  0
CIRCLE
  5
6D5
  8
SIZE
  6
CONTINUOUS
 10
-669.388977
 20
400.124756
 30
0.0
 40
0.3
  0
CIRCLE
  5
6D6
  8
SIZE
  6
CONTINUOUS
 10
-669.388977
 20
400.124756
 30
0.0
 40
0.2
  0
CIRCLE
  5
6D7
  8
SIZE
  6
CONTINUOUS
 10
-669.388977
 20
400.124756
 30
0.0
 40
0.1
  0
CIRCLE
  5
6D8
  8
SIZE
  6
CONTINUOUS
 10
-669.388977
 20
0.124771
 30
0.0
 40
0.5
  0
CIRCLE
  5
6D9
  8
SIZE
  6
CONTINUOUS
 10
-669.388977
 20
0.124771
 30
0.0
 40
0.4
  0
CIRCLE
  5
6DA
  8
SIZE
  6
CONTINUOUS
 10
-669.388977
 20
0.124771
 30
0.0
 40
0.3
  0
CIRCLE
  5
6DB
  8
SIZE
  6
CONTINUOUS
 10
-669.388977
 20
0.124771
 30
0.0
 40
0.2
  0
CIRCLE
  5
6DC
  8
SIZE
  6
CONTINUOUS
 10
-669.388977
 20
0.124771
 30
0.0
 40
0.1
  0
POINT
  5
6DD
  8
DEFPOINTS
  6
BYBLOCK
 10
-310.07782
 20
0.124771
 30
0.0
  0
POINT
  5
6DE
  8
DEFPOINTS
  6
BYBLOCK
 10
-315.07782
 20
400.124756
 30
0.0
  0
POINT
  5
6DF
  8
DEFPOINTS
  6
BYBLOCK
 10
-669.388977
 20
400.124756
 30
0.0
  0
ENDBLK
  5
6E0
  8
SIZE
  0
BLOCK
  8
SIZE
  2
*D25
 70
     1
 10
0.0
 20
0.0
 30
0.0
  3
*D25
  1

  0
TEXT
  5
6E3
  8
SIZE
  6
CONTINUOUS
 10
-2.037801
 20
2471.124902
 30
0.0
 40
2.8
  1
60
 50
0.000003
 41
0.7
  7
STANDARD1
  0
LINE
  5
6E4
  8
SIZE
  6
CONTINUOUS
 10
-30.077801
 20
2214.124756
 30
0.0
 11
-30.077801
 21
2472.125
 31
0.0
  0
LINE
  5
6E5
  8
SIZE
  6
CONTINUOUS
 10
29.922199
 20
2214.124756
 30
0.0
 11
29.922199
 21
2472.125
 31
0.0
  0
LINE
  5
6E6
  8
SIZE
  6
CONTINUOUS
 10
-30.077801
 20
2470.125
 30
0.0
 11
29.922199
 21
2470.125
 31
0.0
  0
CIRCLE
  5
6E7
  8
SIZE
  6
CONTINUOUS
 10
-30.077801
 20
2470.125
 30
0.0
 40
0.5
  0
CIRCLE
  5
6E8
  8
SIZE
  6
CONTINUOUS
 10
-30.077801
 20
2470.125
 30
0.0
 40
0.4
  0
CIRCLE
  5
6E9
  8
SIZE
  6
CONTINUOUS
 10
-30.077801
 20
2470.125
 30
0.0
 40
0.3
  0
CIRCLE
  5
6EA
  8
SIZE
  6
CONTINUOUS
 10
-30.077801
 20
2470.125
 30
0.0
 40
0.2
  0
CIRCLE
  5
6EB
  8
SIZE
  6
CONTINUOUS
 10
-30.077801
 20
2470.125
 30
0.0
 40
0.1
  0
CIRCLE
  5
6EC
  8
SIZE
  6
CONTINUOUS
 10
29.922199
 20
2470.125
 30
0.0
 40
0.5
  0
CIRCLE
  5
6ED
  8
SIZE
  6
CONTINUOUS
 10
29.922199
 20
2470.125
 30
0.0
 40
0.4
  0
CIRCLE
  5
6EE
  8
SIZE
  6
CONTINUOUS
 10
29.922199
 20
2470.125
 30
0.0
 40
0.3
  0
CIRCLE
  5
6EF
  8
SIZE
  6
CONTINUOUS
 10
29.922199
 20
2470.125
 30
0.0
 40
0.2
  0
CIRCLE
  5
6F0
  8
SIZE
  6
CONTINUOUS
 10
29.922199
 20
2470.125
 30
0.0
 40
0.1
  0
POINT
  5
6F1
  8
DEFPOINTS
  6
BYBLOCK
 10
29.922199
 20
2213.124756
 30
0.0
  0
POINT
  5
6F2
  8
DEFPOINTS
  6
BYBLOCK
 10
-30.077801
 20
2213.124756
 30
0.0
  0
POINT
  5
6F3
  8
DEFPOINTS
  6
BYBLOCK
 10
-30.077801
 20
2470.125
 30
0.0
  0
ENDBLK
  5
6F4
  8
SIZE
  0
BLOCK
  8
SIZE
  2
*D26
 70
     1
 10
0.0
 20
0.0
 30
0.0
  3
*D26
  1

  0
TEXT
  5
6F7
  8
SIZE
  6
CONTINUOUS
 10
-1.087775
 20
-682.935645
 30
0.0
 40
2.8
  1
496
 50
0.000003
 41
0.7
  7
STANDARD1
  0
LINE
  5
6F8
  8
SIZE
  6
CONTINUOUS
 10
247.92218
 20
-20.875229
 30
0.0
 11
247.92218
 21
-685.935669
 31
0.0
  0
LINE
  5
6F9
  8
SIZE
  6
CONTINUOUS
 10
-248.07782
 20
-20.875229
 30
0.0
 11
-248.07782
 21
-685.935669
 31
0.0
  0
LINE
  5
6FA
  8
SIZE
  6
CONTINUOUS
 10
247.92218
 20
-683.935669
 30
0.0
 11
-248.07782
 21
-683.935669
 31
0.0
  0
CIRCLE
  5
6FB
  8
SIZE
  6
CONTINUOUS
 10
247.92218
 20
-683.935669
 30
0.0
 40
0.5
  0
CIRCLE
  5
6FC
  8
SIZE
  6
CONTINUOUS
 10
247.92218
 20
-683.935669
 30
0.0
 40
0.4
  0
CIRCLE
  5
6FD
  8
SIZE
  6
CONTINUOUS
 10
247.92218
 20
-683.935669
 30
0.0
 40
0.3
  0
CIRCLE
  5
6FE
  8
SIZE
  6
CONTINUOUS
 10
247.92218
 20
-683.935669
 30
0.0
 40
0.2
  0
CIRCLE
  5
6FF
  8
SIZE
  6
CONTINUOUS
 10
247.92218
 20
-683.935669
 30
0.0
 40
0.1
  0
CIRCLE
  5
700
  8
SIZE
  6
CONTINUOUS
 10
-248.07782
 20
-683.935669
 30
0.0
 40
0.5
  0
CIRCLE
  5
701
  8
SIZE
  6
CONTINUOUS
 10
-248.07782
 20
-683.935669
 30
0.0
 40
0.4
  0
CIRCLE
  5
702
  8
SIZE
  6
CONTINUOUS
 10
-248.07782
 20
-683.935669
 30
0.0
 40
0.3
  0
CIRCLE
  5
703
  8
SIZE
  6
CONTINUOUS
 10
-248.07782
 20
-683.935669
 30
0.0
 40
0.2
  0
CIRCLE
  5
704
  8
SIZE
  6
CONTINUOUS
 10
-248.07782
 20
-683.935669
 30
0.0
 40
0.1
  0
POINT
  5
705
  8
DEFPOINTS
  6
BYBLOCK
 10
-248.07782
 20
-19.875229
 30
0.0
  0
POINT
  5
706
  8
DEFPOINTS
  6
BYBLOCK
 10
247.92218
 20
-19.875229
 30
0.0
  0
POINT
  5
707
  8
DEFPOINTS
  6
BYBLOCK
 10
247.92218
 20
-683.935669
 30
0.0
  0
ENDBLK
  5
708
  8
SIZE
  0
BLOCK
  8
SIZE
  2
*D27
 70
     1
 10
0.0
 20
0.0
 30
0.0
  3
*D27
  1

  0
TEXT
  5
70B
  8
SIZE
  6
CONTINUOUS
 10
-470.389032
 20
74.684776
 30
0.0
 40
2.8
  1
155
 50
90.00000499999999
 41
0.7
  7
STANDARD1
  0
LINE
  5
70C
  8
SIZE
  6
CONTINUOUS
 10
-209.07782
 20
155.124771
 30
0.0
 11
-471.389038
 21
155.124771
 31
0.0
  0
LINE
  5
70D
  8
SIZE
  6
CONTINUOUS
 10
-311.07782
 20
0.124771
 30
0.0
 11
-471.389038
 21
0.124771
 31
0.0
  0
LINE
  5
70E
  8
SIZE
  6
CONTINUOUS
 10
-469.389038
 20
155.124771
 30
0.0
 11
-469.389038
 21
0.124771
 31
0.0
  0
CIRCLE
  5
70F
  8
SIZE
  6
CONTINUOUS
 10
-469.389038
 20
155.124771
 30
0.0
 40
0.5
  0
CIRCLE
  5
710
  8
SIZE
  6
CONTINUOUS
 10
-469.389038
 20
155.124771
 30
0.0
 40
0.4
  0
CIRCLE
  5
711
  8
SIZE
  6
CONTINUOUS
 10
-469.389038
 20
155.124771
 30
0.0
 40
0.3
  0
CIRCLE
  5
712
  8
SIZE
  6
CONTINUOUS
 10
-469.389038
 20
155.124771
 30
0.0
 40
0.2
  0
CIRCLE
  5
713
  8
SIZE
  6
CONTINUOUS
 10
-469.389038
 20
155.124771
 30
0.0
 40
0.1
  0
CIRCLE
  5
714
  8
SIZE
  6
CONTINUOUS
 10
-469.389038
 20
0.124771
 30
0.0
 40
0.5
  0
CIRCLE
  5
715
  8
SIZE
  6
CONTINUOUS
 10
-469.389038
 20
0.124771
 30
0.0
 40
0.4
  0
CIRCLE
  5
716
  8
SIZE
  6
CONTINUOUS
 10
-469.389038
 20
0.124771
 30
0.0
 40
0.3
  0
CIRCLE
  5
717
  8
SIZE
  6
CONTINUOUS
 10
-469.389038
 20
0.124771
 30
0.0
 40
0.2
  0
CIRCLE
  5
718
  8
SIZE
  6
CONTINUOUS
 10
-469.389038
 20
0.124771
 30
0.0
 40
0.1
  0
POINT
  5
719
  8
DEFPOINTS
  6
BYBLOCK
 10
-310.07782
 20
0.124771
 30
0.0
  0
POINT
  5
71A
  8
DEFPOINTS
  6
BYBLOCK
 10
-208.07782
 20
155.124771
 30
0.0
  0
POINT
  5
71B
  8
DEFPOINTS
  6
BYBLOCK
 10
-469.389038
 20
155.124771
 30
0.0
  0
ENDBLK
  5
71C
  8
SIZE
  0
BLOCK
  8
SIZE
  2
*D28
 70
     1
 10
0.0
 20
0.0
 30
0.0
  3
*D28
  1

  0
TEXT
  5
71F
  8
SIZE
  6
CONTINUOUS
 10
462.279883
 20
83.434776
 30
0.0
 40
2.8
  1
173
 50
90.00000499999999
 41
0.7
  7
STANDARD1
  0
LINE
  5
720
  8
SIZE
  6
CONTINUOUS
 10
128.94529
 20
172.624771
 30
0.0
 11
465.279877
 21
172.624771
 31
0.0
  0
LINE
  5
721
  8
SIZE
  6
CONTINUOUS
 10
268.92218
 20
0.124771
 30
0.0
 11
465.279877
 21
0.124771
 31
0.0
  0
LINE
  5
722
  8
SIZE
  6
CONTINUOUS
 10
463.279877
 20
172.624771
 30
0.0
 11
463.279877
 21
0.124771
 31
0.0
  0
CIRCLE
  5
723
  8
SIZE
  6
CONTINUOUS
 10
463.279877
 20
172.624771
 30
0.0
 40
0.5
  0
CIRCLE
  5
724
  8
SIZE
  6
CONTINUOUS
 10
463.279877
 20
172.624771
 30
0.0
 40
0.4
  0
CIRCLE
  5
725
  8
SIZE
  6
CONTINUOUS
 10
463.279877
 20
172.624771
 30
0.0
 40
0.3
  0
CIRCLE
  5
726
  8
SIZE
  6
CONTINUOUS
 10
463.279877
 20
172.624771
 30
0.0
 40
0.2
  0
CIRCLE
  5
727
  8
SIZE
  6
CONTINUOUS
 10
463.279877
 20
172.624771
 30
0.0
 40
0.1
  0
CIRCLE
  5
728
  8
SIZE
  6
CONTINUOUS
 10
463.279877
 20
0.124771
 30
0.0
 40
0.5
  0
CIRCLE
  5
729
  8
SIZE
  6
CONTINUOUS
 10
463.279877
 20
0.124771
 30
0.0
 40
0.4
  0
CIRCLE
  5
72A
  8
SIZE
  6
CONTINUOUS
 10
463.279877
 20
0.124771
 30
0.0
 40
0.3
  0
CIRCLE
  5
72B
  8
SIZE
  6
CONTINUOUS
 10
463.279877
 20
0.124771
 30
0.0
 40
0.2
  0
CIRCLE
  5
72C
  8
SIZE
  6
CONTINUOUS
 10
463.279877
 20
0.124771
 30
0.0
 40
0.1
  0
POINT
  5
72D
  8
DEFPOINTS
  6
BYBLOCK
 10
267.92218
 20
0.124771
 30
0.0
  0
POINT
  5
72E
  8
DEFPOINTS
  6
BYBLOCK
 10
127.94529
 20
172.624771
 30
0.0
  0
POINT
  5
72F
  8
DEFPOINTS
  6
BYBLOCK
 10
463.279877
 20
172.624771
 30
0.0
  0
ENDBLK
  5
730
  8
SIZE
  0
BLOCK
  8
SIZE
  2
*D29
 70
     1
 10
0.0
 20
0.0
 30
0.0
  3
*D29
  1

  0
TEXT
  5
733
  8
SIZE
  6
CONTINUOUS
 10
662.279883
 20
177.184769
 30
0.0
 40
2.8
  1
360
 50
90.00000499999999
 41
0.7
  7
STANDARD1
  0
LINE
  5
734
  8
SIZE
  6
CONTINUOUS
 10
275.92218
 20
360.124756
 30
0.0
 11
665.279907
 21
360.124756
 31
0.0
  0
LINE
  5
735
  8
SIZE
  6
CONTINUOUS
 10
275.92218
 20
0.124771
 30
0.0
 11
665.279907
 21
0.124771
 31
0.0
  0
LINE
  5
736
  8
SIZE
  6
CONTINUOUS
 10
663.279907
 20
360.124756
 30
0.0
 11
663.279907
 21
0.124771
 31
0.0
  0
CIRCLE
  5
737
  8
SIZE
  6
CONTINUOUS
 10
663.279907
 20
360.124756
 30
0.0
 40
0.5
  0
CIRCLE
  5
738
  8
SIZE
  6
CONTINUOUS
 10
663.279907
 20
360.124756
 30
0.0
 40
0.4
  0
CIRCLE
  5
739
  8
SIZE
  6
CONTINUOUS
 10
663.279907
 20
360.124756
 30
0.0
 40
0.3
  0
CIRCLE
  5
73A
  8
SIZE
  6
CONTINUOUS
 10
663.279907
 20
360.124756
 30
0.0
 40
0.2
  0
CIRCLE
  5
73B
  8
SIZE
  6
CONTINUOUS
 10
663.279907
 20
360.124756
 30
0.0
 40
0.1
  0
CIRCLE
  5
73C
  8
SIZE
  6
CONTINUOUS
 10
663.279907
 20
0.124771
 30
0.0
 40
0.5
  0
CIRCLE
  5
73D
  8
SIZE
  6
CONTINUOUS
 10
663.279907
 20
0.124771
 30
0.0
 40
0.4
  0
CIRCLE
  5
73E
  8
SIZE
  6
CONTINUOUS
 10
663.279907
 20
0.124771
 30
0.0
 40
0.3
  0
CIRCLE
  5
73F
  8
SIZE
  6
CONTINUOUS
 10
663.279907
 20
0.124771
 30
0.0
 40
0.2
  0
CIRCLE
  5
740
  8
SIZE
  6
CONTINUOUS
 10
663.279907
 20
0.124771
 30
0.0
 40
0.1
  0
POINT
  5
741
  8
DEFPOINTS
  6
BYBLOCK
 10
274.92218
 20
0.124771
 30
0.0
  0
POINT
  5
742
  8
DEFPOINTS
  6
BYBLOCK
 10
274.92218
 20
360.124756
 30
0.0
  0
POINT
  5
743
  8
DEFPOINTS
  6
BYBLOCK
 10
663.279907
 20
360.124756
 30
0.0
  0
ENDBLK
  5
744
  8
SIZE
  0
BLOCK
  8
SIZE
  2
*D30
 70
     1
 10
0.0
 20
0.0
 30
0.0
  3
*D30
  1

  0
TEXT
  5
747
  8
SIZE
  6
CONTINUOUS
 10
762.279883
 20
197.184769
 30
0.0
 40
2.8
  1
400
 50
90.00000499999999
 41
0.7
  7
STANDARD1
  0
LINE
  5
748
  8
SIZE
  6
CONTINUOUS
 10
315.92218
 20
400.124756
 30
0.0
 11
765.279907
 21
400.124756
 31
0.0
  0
LINE
  5
749
  8
SIZE
  6
CONTINUOUS
 10
315.92218
 20
0.124771
 30
0.0
 11
765.279907
 21
0.124771
 31
0.0
  0
LINE
  5
74A
  8
SIZE
  6
CONTINUOUS
 10
763.279907
 20
400.124756
 30
0.0
 11
763.279907
 21
0.124771
 31
0.0
  0
CIRCLE
  5
74B
  8
SIZE
  6
CONTINUOUS
 10
763.279907
 20
400.124756
 30
0.0
 40
0.5
  0
CIRCLE
  5
74C
  8
SIZE
  6
CONTINUOUS
 10
763.279907
 20
400.124756
 30
0.0
 40
0.4
  0
CIRCLE
  5
74D
  8
SIZE
  6
CONTINUOUS
 10
763.279907
 20
400.124756
 30
0.0
 40
0.3
  0
CIRCLE
  5
74E
  8
SIZE
  6
CONTINUOUS
 10
763.279907
 20
400.124756
 30
0.0
 40
0.2
  0
CIRCLE
  5
74F
  8
SIZE
  6
CONTINUOUS
 10
763.279907
 20
400.124756
 30
0.0
 40
0.1
  0
CIRCLE
  5
750
  8
SIZE
  6
CONTINUOUS
 10
763.279907
 20
0.124771
 30
0.0
 40
0.5
  0
CIRCLE
  5
751
  8
SIZE
  6
CONTINUOUS
 10
763.279907
 20
0.124771
 30
0.0
 40
0.4
  0
CIRCLE
  5
752
  8
SIZE
  6
CONTINUOUS
 10
763.279907
 20
0.124771
 30
0.0
 40
0.3
  0
CIRCLE
  5
753
  8
SIZE
  6
CONTINUOUS
 10
763.279907
 20
0.124771
 30
0.0
 40
0.2
  0
CIRCLE
  5
754
  8
SIZE
  6
CONTINUOUS
 10
763.279907
 20
0.124771
 30
0.0
 40
0.1
  0
POINT
  5
755
  8
DEFPOINTS
  6
BYBLOCK
 10
314.92218
 20
0.124771
 30
0.0
  0
POINT
  5
756
  8
DEFPOINTS
  6
BYBLOCK
 10
314.92218
 20
400.124756
 30
0.0
  0
POINT
  5
757
  8
DEFPOINTS
  6
BYBLOCK
 10
763.279907
 20
400.124756
 30
0.0
  0
ENDBLK
  5
758
  8
SIZE
  0
BLOCK
  8
SIZE
  2
*D31
 70
     1
 10
0.0
 20
0.0
 30
0.0
  3
*D31
  1

  0
TEXT
  5
75B
  8
SIZE
  6
CONTINUOUS
 10
245.962174
 20
-782.935645
 30
0.0
 40
2.8
  1
94
 50
0.000003
 41
0.7
  7
STANDARD1
  0
LINE
  5
75C
  8
SIZE
  6
CONTINUOUS
 10
200.92218
 20
-20.875229
 30
0.0
 11
200.92218
 21
-785.935669
 31
0.0
  0
LINE
  5
75D
  8
SIZE
  6
CONTINUOUS
 10
294.92218
 20
-20.875229
 30
0.0
 11
294.92218
 21
-785.935669
 31
0.0
  0
LINE
  5
75E
  8
SIZE
  6
CONTINUOUS
 10
200.92218
 20
-783.935669
 30
0.0
 11
294.92218
 21
-783.935669
 31
0.0
  0
CIRCLE
  5
75F
  8
SIZE
  6
CONTINUOUS
 10
200.92218
 20
-783.935669
 30
0.0
 40
0.5
  0
CIRCLE
  5
760
  8
SIZE
  6
CONTINUOUS
 10
200.92218
 20
-783.935669
 30
0.0
 40
0.4
  0
CIRCLE
  5
761
  8
SIZE
  6
CONTINUOUS
 10
200.92218
 20
-783.935669
 30
0.0
 40
0.3
  0
CIRCLE
  5
762
  8
SIZE
  6
CONTINUOUS
 10
200.92218
 20
-783.935669
 30
0.0
 40
0.2
  0
CIRCLE
  5
763
  8
SIZE
  6
CONTINUOUS
 10
200.92218
 20
-783.935669
 30
0.0
 40
0.1
  0
CIRCLE
  5
764
  8
SIZE
  6
CONTINUOUS
 10
294.92218
 20
-783.935669
 30
0.0
 40
0.5
  0
CIRCLE
  5
765
  8
SIZE
  6
CONTINUOUS
 10
294.92218
 20
-783.935669
 30
0.0
 40
0.4
  0
CIRCLE
  5
766
  8
SIZE
  6
CONTINUOUS
 10
294.92218
 20
-783.935669
 30
0.0
 40
0.3
  0
CIRCLE
  5
767
  8
SIZE
  6
CONTINUOUS
 10
294.92218
 20
-783.935669
 30
0.0
 40
0.2
  0
CIRCLE
  5
768
  8
SIZE
  6
CONTINUOUS
 10
294.92218
 20
-783.935669
 30
0.0
 40
0.1
  0
POINT
  5
769
  8
DEFPOINTS
  6
BYBLOCK
 10
294.92218
 20
-19.875229
 30
0.0
  0
POINT
  5
76A
  8
DEFPOINTS
  6
BYBLOCK
 10
200.92218
 20
-19.875229
 30
0.0
  0
POINT
  5
76B
  8
DEFPOINTS
  6
BYBLOCK
 10
200.92218
 20
-783.935669
 30
0.0
  0
ENDBLK
  5
76C
  8
SIZE
  0
BLOCK
  8
SIZE
  2
*D32
 70
     1
 10
0.0
 20
0.0
 30
0.0
  3
*D32
  1

  0
TEXT
  5
76F
  8
SIZE
  6
CONTINUOUS
 10
-770.389001
 20
213.184769
 30
0.0
 40
2.8
  1
432
 50
90.00000499999999
 41
0.7
  7
STANDARD1
  0
LINE
  5
770
  8
SIZE
  6
CONTINUOUS
 10
-278.07782
 20
432.124756
 30
0.0
 11
-771.388977
 21
432.124756
 31
0.0
  0
LINE
  5
771
  8
SIZE
  6
CONTINUOUS
 10
-276.07782
 20
0.124771
 30
0.0
 11
-771.388977
 21
0.124771
 31
0.0
  0
LINE
  5
772
  8
SIZE
  6
CONTINUOUS
 10
-769.388977
 20
432.124756
 30
0.0
 11
-769.388977
 21
0.124771
 31
0.0
  0
CIRCLE
  5
773
  8
SIZE
  6
CONTINUOUS
 10
-769.388977
 20
432.124756
 30
0.0
 40
0.5
  0
CIRCLE
  5
774
  8
SIZE
  6
CONTINUOUS
 10
-769.388977
 20
432.124756
 30
0.0
 40
0.4
  0
CIRCLE
  5
775
  8
SIZE
  6
CONTINUOUS
 10
-769.388977
 20
432.124756
 30
0.0
 40
0.3
  0
CIRCLE
  5
776
  8
SIZE
  6
CONTINUOUS
 10
-769.388977
 20
432.124756
 30
0.0
 40
0.2
  0
CIRCLE
  5
777
  8
SIZE
  6
CONTINUOUS
 10
-769.388977
 20
432.124756
 30
0.0
 40
0.1
  0
CIRCLE
  5
778
  8
SIZE
  6
CONTINUOUS
 10
-769.388977
 20
0.124771
 30
0.0
 40
0.5
  0
CIRCLE
  5
779
  8
SIZE
  6
CONTINUOUS
 10
-769.388977
 20
0.124771
 30
0.0
 40
0.4
  0
CIRCLE
  5
77A
  8
SIZE
  6
CONTINUOUS
 10
-769.388977
 20
0.124771
 30
0.0
 40
0.3
  0
CIRCLE
  5
77B
  8
SIZE
  6
CONTINUOUS
 10
-769.388977
 20
0.124771
 30
0.0
 40
0.2
  0
CIRCLE
  5
77C
  8
SIZE
  6
CONTINUOUS
 10
-769.388977
 20
0.124771
 30
0.0
 40
0.1
  0
POINT
  5
77D
  8
DEFPOINTS
  6
BYBLOCK
 10
-275.07782
 20
0.124771
 30
0.0
  0
POINT
  5
77E
  8
DEFPOINTS
  6
BYBLOCK
 10
-277.07782
 20
432.124756
 30
0.0
  0
POINT
  5
77F
  8
DEFPOINTS
  6
BYBLOCK
 10
-769.388977
 20
432.124756
 30
0.0
  0
ENDBLK
  5
780
  8
SIZE
  0
BLOCK
  8
SIZE
  2
*D33
 70
     1
 10
0.0
 20
0.0
 30
0.0
  3
*D33
  1

  0
TEXT
  5
783
  8
SIZE
  6
CONTINUOUS
 10
1.036249
 20
-782.935645
 30
0.0
 40
2.8
  1
402
 50
0.000003
 41
0.7
  7
STANDARD1
  0
LINE
  5
784
  8
SIZE
  6
CONTINUOUS
 10
200.92218
 20
-20.875229
 30
0.0
 11
200.92218
 21
-785.935669
 31
0.0
  0
LINE
  5
785
  8
SIZE
  6
CONTINUOUS
 10
-201.07782
 20
-20.875229
 30
0.0
 11
-201.07782
 21
-785.935669
 31
0.0
  0
LINE
  5
786
  8
SIZE
  6
CONTINUOUS
 10
200.92218
 20
-783.935669
 30
0.0
 11
-201.07782
 21
-783.935669
 31
0.0
  0
CIRCLE
  5
787
  8
SIZE
  6
CONTINUOUS
 10
200.92218
 20
-783.935669
 30
0.0
 40
0.5
  0
CIRCLE
  5
788
  8
SIZE
  6
CONTINUOUS
 10
200.92218
 20
-783.935669
 30
0.0
 40
0.4
  0
CIRCLE
  5
789
  8
SIZE
  6
CONTINUOUS
 10
200.92218
 20
-783.935669
 30
0.0
 40
0.3
  0
CIRCLE
  5
78A
  8
SIZE
  6
CONTINUOUS
 10
200.92218
 20
-783.935669
 30
0.0
 40
0.2
  0
CIRCLE
  5
78B
  8
SIZE
  6
CONTINUOUS
 10
200.92218
 20
-783.935669
 30
0.0
 40
0.1
  0
CIRCLE
  5
78C
  8
SIZE
  6
CONTINUOUS
 10
-201.07782
 20
-783.935669
 30
0.0
 40
0.5
  0
CIRCLE
  5
78D
  8
SIZE
  6
CONTINUOUS
 10
-201.07782
 20
-783.935669
 30
0.0
 40
0.4
  0
CIRCLE
  5
78E
  8
SIZE
  6
CONTINUOUS
 10
-201.07782
 20
-783.935669
 30
0.0
 40
0.3
  0
CIRCLE
  5
78F
  8
SIZE
  6
CONTINUOUS
 10
-201.07782
 20
-783.935669
 30
0.0
 40
0.2
  0
CIRCLE
  5
790
  8
SIZE
  6
CONTINUOUS
 10
-201.07782
 20
-783.935669
 30
0.0
 40
0.1
  0
POINT
  5
791
  8
DEFPOINTS
  6
BYBLOCK
 10
-201.07782
 20
-19.875229
 30
0.0
  0
POINT
  5
792
  8
DEFPOINTS
  6
BYBLOCK
 10
200.92218
 20
-19.875229
 30
0.0
  0
POINT
  5
793
  8
DEFPOINTS
  6
BYBLOCK
 10
200.92218
 20
-783.935669
 30
0.0
  0
ENDBLK
  5
794
  8
SIZE
  0
BLOCK
  8
SIZE
  2
*D34
 70
     1
 10
0.0
 20
0.0
 30
0.0
  3
*D34
  1

  0
TEXT
  5
797
  8
SIZE
  6
CONTINUOUS
 10
-250.037826
 20
-782.935645
 30
0.0
 40
2.8
  1
94
 50
0.000003
 41
0.7
  7
STANDARD1
  0
LINE
  5
798
  8
SIZE
  6
CONTINUOUS
 10
-295.07782
 20
-20.875229
 30
0.0
 11
-295.07782
 21
-785.935669
 31
0.0
  0
LINE
  5
799
  8
SIZE
  6
CONTINUOUS
 10
-201.07782
 20
-20.875229
 30
0.0
 11
-201.07782
 21
-785.935669
 31
0.0
  0
LINE
  5
79A
  8
SIZE
  6
CONTINUOUS
 10
-295.07782
 20
-783.935669
 30
0.0
 11
-201.07782
 21
-783.935669
 31
0.0
  0
CIRCLE
  5
79B
  8
SIZE
  6
CONTINUOUS
 10
-295.07782
 20
-783.935669
 30
0.0
 40
0.5
  0
CIRCLE
  5
79C
  8
SIZE
  6
CONTINUOUS
 10
-295.07782
 20
-783.935669
 30
0.0
 40
0.4
  0
CIRCLE
  5
79D
  8
SIZE
  6
CONTINUOUS
 10
-295.07782
 20
-783.935669
 30
0.0
 40
0.3
  0
CIRCLE
  5
79E
  8
SIZE
  6
CONTINUOUS
 10
-295.07782
 20
-783.935669
 30
0.0
 40
0.2
  0
CIRCLE
  5
79F
  8
SIZE
  6
CONTINUOUS
 10
-295.07782
 20
-783.935669
 30
0.0
 40
0.1
  0
CIRCLE
  5
7A0
  8
SIZE
  6
CONTINUOUS
 10
-201.07782
 20
-783.935669
 30
0.0
 40
0.5
  0
CIRCLE
  5
7A1
  8
SIZE
  6
CONTINUOUS
 10
-201.07782
 20
-783.935669
 30
0.0
 40
0.4
  0
CIRCLE
  5
7A2
  8
SIZE
  6
CONTINUOUS
 10
-201.07782
 20
-783.935669
 30
0.0
 40
0.3
  0
CIRCLE
  5
7A3
  8
SIZE
  6
CONTINUOUS
 10
-201.07782
 20
-783.935669
 30
0.0
 40
0.2
  0
CIRCLE
  5
7A4
  8
SIZE
  6
CONTINUOUS
 10
-201.07782
 20
-783.935669
 30
0.0
 40
0.1
  0
POINT
  5
7A5
  8
DEFPOINTS
  6
BYBLOCK
 10
-201.07782
 20
-19.875229
 30
0.0
  0
POINT
  5
7A6
  8
DEFPOINTS
  6
BYBLOCK
 10
-295.07782
 20
-19.875229
 30
0.0
  0
POINT
  5
7A7
  8
DEFPOINTS
  6
BYBLOCK
 10
-295.07782
 20
-783.935669
 30
0.0
  0
ENDBLK
  5
7A8
  8
SIZE
  0
BLOCK
  8
SIZE
  2
*D35
 70
     1
 10
0.0
 20
0.0
 30
0.0
  3
*D35
  1

  0
TEXT
  5
7AB
  8
SIZE
  6
CONTINUOUS
 10
-570.389001
 20
157.184769
 30
0.0
 40
2.8
  1
320
 50
90.00000499999999
 41
0.7
  7
STANDARD1
  0
LINE
  5
7AC
  8
SIZE
  6
CONTINUOUS
 10
-251.07782
 20
320.124756
 30
0.0
 11
-571.388977
 21
320.124756
 31
0.0
  0
LINE
  5
7AD
  8
SIZE
  6
CONTINUOUS
 10
-311.07782
 20
0.124771
 30
0.0
 11
-571.388977
 21
0.124771
 31
0.0
  0
LINE
  5
7AE
  8
SIZE
  6
CONTINUOUS
 10
-569.388977
 20
320.124756
 30
0.0
 11
-569.388977
 21
0.124771
 31
0.0
  0
CIRCLE
  5
7AF
  8
SIZE
  6
CONTINUOUS
 10
-569.388977
 20
320.124756
 30
0.0
 40
0.5
  0
CIRCLE
  5
7B0
  8
SIZE
  6
CONTINUOUS
 10
-569.388977
 20
320.124756
 30
0.0
 40
0.4
  0
CIRCLE
  5
7B1
  8
SIZE
  6
CONTINUOUS
 10
-569.388977
 20
320.124756
 30
0.0
 40
0.3
  0
CIRCLE
  5
7B2
  8
SIZE
  6
CONTINUOUS
 10
-569.388977
 20
320.124756
 30
0.0
 40
0.2
  0
CIRCLE
  5
7B3
  8
SIZE
  6
CONTINUOUS
 10
-569.388977
 20
320.124756
 30
0.0
 40
0.1
  0
CIRCLE
  5
7B4
  8
SIZE
  6
CONTINUOUS
 10
-569.388977
 20
0.124771
 30
0.0
 40
0.5
  0
CIRCLE
  5
7B5
  8
SIZE
  6
CONTINUOUS
 10
-569.388977
 20
0.124771
 30
0.0
 40
0.4
  0
CIRCLE
  5
7B6
  8
SIZE
  6
CONTINUOUS
 10
-569.388977
 20
0.124771
 30
0.0
 40
0.3
  0
CIRCLE
  5
7B7
  8
SIZE
  6
CONTINUOUS
 10
-569.388977
 20
0.124771
 30
0.0
 40
0.2
  0
CIRCLE
  5
7B8
  8
SIZE
  6
CONTINUOUS
 10
-569.388977
 20
0.124771
 30
0.0
 40
0.1
  0
POINT
  5
7B9
  8
DEFPOINTS
  6
BYBLOCK
 10
-310.07782
 20
0.124771
 30
0.0
  0
POINT
  5
7BA
  8
DEFPOINTS
  6
BYBLOCK
 10
-250.07782
 20
320.124756
 30
0.0
  0
POINT
  5
7BB
  8
DEFPOINTS
  6
BYBLOCK
 10
-569.388977
 20
320.124756
 30
0.0
  0
ENDBLK
  5
7BC
  8
SIZE
  0
BLOCK
  8
SIZE
  2
*D36
 70
     1
 10
0.0
 20
0.0
 30
0.0
  3
*D36
  1

  0
TEXT
  5
7BF
  8
SIZE
  6
CONTINUOUS
 10
562.279883
 20
157.184769
 30
0.0
 40
2.8
  1
320
 50
90.00000499999999
 41
0.7
  7
STANDARD1
  0
LINE
  5
7C0
  8
SIZE
  6
CONTINUOUS
 10
90.922195
 20
320.124756
 30
0.0
 11
565.279907
 21
320.124756
 31
0.0
  0
LINE
  5
7C1
  8
SIZE
  6
CONTINUOUS
 10
310.92218
 20
0.124771
 30
0.0
 11
565.279907
 21
0.124771
 31
0.0
  0
LINE
  5
7C2
  8
SIZE
  6
CONTINUOUS
 10
563.279907
 20
320.124756
 30
0.0
 11
563.279907
 21
0.124771
 31
0.0
  0
CIRCLE
  5
7C3
  8
SIZE
  6
CONTINUOUS
 10
563.279907
 20
320.124756
 30
0.0
 40
0.5
  0
CIRCLE
  5
7C4
  8
SIZE
  6
CONTINUOUS
 10
563.279907
 20
320.124756
 30
0.0
 40
0.4
  0
CIRCLE
  5
7C5
  8
SIZE
  6
CONTINUOUS
 10
563.279907
 20
320.124756
 30
0.0
 40
0.3
  0
CIRCLE
  5
7C6
  8
SIZE
  6
CONTINUOUS
 10
563.279907
 20
320.124756
 30
0.0
 40
0.2
  0
CIRCLE
  5
7C7
  8
SIZE
  6
CONTINUOUS
 10
563.279907
 20
320.124756
 30
0.0
 40
0.1
  0
CIRCLE
  5
7C8
  8
SIZE
  6
CONTINUOUS
 10
563.279907
 20
0.124771
 30
0.0
 40
0.5
  0
CIRCLE
  5
7C9
  8
SIZE
  6
CONTINUOUS
 10
563.279907
 20
0.124771
 30
0.0
 40
0.4
  0
CIRCLE
  5
7CA
  8
SIZE
  6
CONTINUOUS
 10
563.279907
 20
0.124771
 30
0.0
 40
0.3
  0
CIRCLE
  5
7CB
  8
SIZE
  6
CONTINUOUS
 10
563.279907
 20
0.124771
 30
0.0
 40
0.2
  0
CIRCLE
  5
7CC
  8
SIZE
  6
CONTINUOUS
 10
563.279907
 20
0.124771
 30
0.0
 40
0.1
  0
POINT
  5
7CD
  8
DEFPOINTS
  6
BYBLOCK
 10
309.92218
 20
0.124771
 30
0.0
  0
POINT
  5
7CE
  8
DEFPOINTS
  6
BYBLOCK
 10
89.922195
 20
320.124756
 30
0.0
  0
POINT
  5
7CF
  8
DEFPOINTS
  6
BYBLOCK
 10
563.279907
 20
320.124756
 30
0.0
  0
ENDBLK
  5
7D0
  8
SIZE
  0
BLOCK
  8
SIZE
  2
*D37
 70
     1
 10
0.0
 20
0.0
 30
0.0
  3
*D37
  1

  0
TEXT
  5
7D3
  8
SIZE
  6
CONTINUOUS
 10
-3.017801
 20
2721.124902
 30
0.0
 40
2.8
  1
630
 50
0.000003
 41
0.7
  7
STANDARD1
  0
LINE
  5
7D4
  8
SIZE
  6
CONTINUOUS
 10
-315.07782
 20
2371.124756
 30
0.0
 11
-315.07782
 21
2722.125
 31
0.0
  0
LINE
  5
7D5
  8
SIZE
  6
CONTINUOUS
 10
314.92218
 20
2371.124756
 30
0.0
 11
314.92218
 21
2722.125
 31
0.0
  0
LINE
  5
7D6
  8
SIZE
  6
CONTINUOUS
 10
-315.07782
 20
2720.125
 30
0.0
 11
314.92218
 21
2720.125
 31
0.0
  0
CIRCLE
  5
7D7
  8
SIZE
  6
CONTINUOUS
 10
-315.07782
 20
2720.125
 30
0.0
 40
0.5
  0
CIRCLE
  5
7D8
  8
SIZE
  6
CONTINUOUS
 10
-315.07782
 20
2720.125
 30
0.0
 40
0.4
  0
CIRCLE
  5
7D9
  8
SIZE
  6
CONTINUOUS
 10
-315.07782
 20
2720.125
 30
0.0
 40
0.3
  0
CIRCLE
  5
7DA
  8
SIZE
  6
CONTINUOUS
 10
-315.07782
 20
2720.125
 30
0.0
 40
0.2
  0
CIRCLE
  5
7DB
  8
SIZE
  6
CONTINUOUS
 10
-315.07782
 20
2720.125
 30
0.0
 40
0.1
  0
CIRCLE
  5
7DC
  8
SIZE
  6
CONTINUOUS
 10
314.92218
 20
2720.125
 30
0.0
 40
0.5
  0
CIRCLE
  5
7DD
  8
SIZE
  6
CONTINUOUS
 10
314.92218
 20
2720.125
 30
0.0
 40
0.4
  0
CIRCLE
  5
7DE
  8
SIZE
  6
CONTINUOUS
 10
314.92218
 20
2720.125
 30
0.0
 40
0.3
  0
CIRCLE
  5
7DF
  8
SIZE
  6
CONTINUOUS
 10
314.92218
 20
2720.125
 30
0.0
 40
0.2
  0
CIRCLE
  5
7E0
  8
SIZE
  6
CONTINUOUS
 10
314.92218
 20
2720.125
 30
0.0
 40
0.1
  0
POINT
  5
7E1
  8
DEFPOINTS
  6
BYBLOCK
 10
314.92218
 20
2370.124756
 30
0.0
  0
POINT
  5
7E2
  8
DEFPOINTS
  6
BYBLOCK
 10
-315.07782
 20
2370.124756
 30
0.0
  0
POINT
  5
7E3
  8
DEFPOINTS
  6
BYBLOCK
 10
-315.07782
 20
2720.125
 30
0.0
  0
ENDBLK
  5
7E4
  8
SIZE
  0
BLOCK
  8
SIZE
  2
*D38
 70
     1
 10
0.0
 20
0.0
 30
0.0
  3
*D38
  1

  0
TEXT
  5
7E7
  8
SIZE
  6
CONTINUOUS
 10
1062.279883
 20
2267.184815
 30
0.0
 40
2.8
  1
200
 50
90.00000499999999
 41
0.7
  7
STANDARD1
  0
LINE
  5
7E8
  8
SIZE
  6
CONTINUOUS
 10
315.92218
 20
2370.124756
 30
0.0
 11
1065.279907
 21
2370.124756
 31
0.0
  0
LINE
  5
7E9
  8
SIZE
  6
CONTINUOUS
 10
315.92218
 20
2170.124756
 30
0.0
 11
1065.279907
 21
2170.124756
 31
0.0
  0
LINE
  5
7EA
  8
SIZE
  6
CONTINUOUS
 10
1063.279907
 20
2370.124756
 30
0.0
 11
1063.279907
 21
2170.124756
 31
0.0
  0
CIRCLE
  5
7EB
  8
SIZE
  6
CONTINUOUS
 10
1063.279907
 20
2370.124756
 30
0.0
 40
0.5
  0
CIRCLE
  5
7EC
  8
SIZE
  6
CONTINUOUS
 10
1063.279907
 20
2370.124756
 30
0.0
 40
0.4
  0
CIRCLE
  5
7ED
  8
SIZE
  6
CONTINUOUS
 10
1063.279907
 20
2370.124756
 30
0.0
 40
0.3
  0
CIRCLE
  5
7EE
  8
SIZE
  6
CONTINUOUS
 10
1063.279907
 20
2370.124756
 30
0.0
 40
0.2
  0
CIRCLE
  5
7EF
  8
SIZE
  6
CONTINUOUS
 10
1063.279907
 20
2370.124756
 30
0.0
 40
0.1
  0
CIRCLE
  5
7F0
  8
SIZE
  6
CONTINUOUS
 10
1063.279907
 20
2170.124756
 30
0.0
 40
0.5
  0
CIRCLE
  5
7F1
  8
SIZE
  6
CONTINUOUS
 10
1063.279907
 20
2170.124756
 30
0.0
 40
0.4
  0
CIRCLE
  5
7F2
  8
SIZE
  6
CONTINUOUS
 10
1063.279907
 20
2170.124756
 30
0.0
 40
0.3
  0
CIRCLE
  5
7F3
  8
SIZE
  6
CONTINUOUS
 10
1063.279907
 20
2170.124756
 30
0.0
 40
0.2
  0
CIRCLE
  5
7F4
  8
SIZE
  6
CONTINUOUS
 10
1063.279907
 20
2170.124756
 30
0.0
 40
0.1
  0
POINT
  5
7F5
  8
DEFPOINTS
  6
BYBLOCK
 10
314.92218
 20
2170.124756
 30
0.0
  0
POINT
  5
7F6
  8
DEFPOINTS
  6
BYBLOCK
 10
314.92218
 20
2370.124756
 30
0.0
  0
POINT
  5
7F7
  8
DEFPOINTS
  6
BYBLOCK
 10
1063.279907
 20
2370.124756
 30
0.0
  0
ENDBLK
  5
7F8
  8
SIZE
  0
BLOCK
  8
SIZE
  2
*D39
 70
     1
 10
0.0
 20
0.0
 30
0.0
  3
*D39
  1

  0
TEXT
  5
7FB
  8
SIZE
  6
CONTINUOUS
 10
1.036253
 20
-882.935645
 30
0.0
 40
2.8
  1
630
 50
0.000003
 41
0.7
  7
STANDARD1
  0
LINE
  5
7FC
  8
SIZE
  6
CONTINUOUS
 10
314.92218
 20
199.124771
 30
0.0
 11
314.92218
 21
-885.935669
 31
0.0
  0
LINE
  5
7FD
  8
SIZE
  6
CONTINUOUS
 10
-315.07782
 20
199.124771
 30
0.0
 11
-315.07782
 21
-885.935669
 31
0.0
  0
LINE
  5
7FE
  8
SIZE
  6
CONTINUOUS
 10
314.92218
 20
-883.935669
 30
0.0
 11
-315.07782
 21
-883.935669
 31
0.0
  0
CIRCLE
  5
7FF
  8
SIZE
  6
CONTINUOUS
 10
314.92218
 20
-883.935669
 30
0.0
 40
0.5
  0
CIRCLE
  5
800
  8
SIZE
  6
CONTINUOUS
 10
314.92218
 20
-883.935669
 30
0.0
 40
0.4
  0
CIRCLE
  5
801
  8
SIZE
  6
CONTINUOUS
 10
314.92218
 20
-883.935669
 30
0.0
 40
0.3
  0
CIRCLE
  5
802
  8
SIZE
  6
CONTINUOUS
 10
314.92218
 20
-883.935669
 30
0.0
 40
0.2
  0
CIRCLE
  5
803
  8
SIZE
  6
CONTINUOUS
 10
314.92218
 20
-883.935669
 30
0.0
 40
0.1
  0
CIRCLE
  5
804
  8
SIZE
  6
CONTINUOUS
 10
-315.07782
 20
-883.935669
 30
0.0
 40
0.5
  0
CIRCLE
  5
805
  8
SIZE
  6
CONTINUOUS
 10
-315.07782
 20
-883.935669
 30
0.0
 40
0.4
  0
CIRCLE
  5
806
  8
SIZE
  6
CONTINUOUS
 10
-315.07782
 20
-883.935669
 30
0.0
 40
0.3
  0
CIRCLE
  5
807
  8
SIZE
  6
CONTINUOUS
 10
-315.07782
 20
-883.935669
 30
0.0
 40
0.2
  0
CIRCLE
  5
808
  8
SIZE
  6
CONTINUOUS
 10
-315.07782
 20
-883.935669
 30
0.0
 40
0.1
  0
POINT
  5
809
  8
DEFPOINTS
  6
BYBLOCK
 10
-315.07782
 20
200.124771
 30
0.0
  0
POINT
  5
80A
  8
DEFPOINTS
  6
BYBLOCK
 10
314.92218
 20
200.124771
 30
0.0
  0
POINT
  5
80B
  8
DEFPOINTS
  6
BYBLOCK
 10
314.92218
 20
-883.935669
 30
0.0
  0
ENDBLK
  5
80C
  8
SIZE
  0
ENDSEC
  0
SECTION
  2
ENTITIES
  0
LINE
  5
80D
  8
OUTLINE
  6
CONTINUOUS
 10
315.0
 20
2170.0
 30
0.0
 11
315.0
 21
200.0
 31
0.0
  0
LINE
  5
80E
  8
OUTLINE
  6
CONTINUOUS
 10
-36.5
 20
200.0
 30
0.0
 11
-36.5
 21
0.0
 31
0.0
  0
LINE
  5
80F
  8
OUTLINE
  6
CONTINUOUS
 10
-284.5
 20
0.0
 30
0.0
 11
-211.5
 21
0.0
 31
0.0
  0
LINE
  5
810
  8
OUTLINE
  6
CONTINUOUS
 10
-211.5
 20
200.0
 30
0.0
 11
-211.5
 21
0.0
 31
0.0
  0
LINE
  5
811
  8
OUTLINE
  6
CONTINUOUS
 10
-284.5
 20
200.0
 30
0.0
 11
-284.5
 21
0.0
 31
0.0
  0
LINE
  5
812
  8
OUTLINE
  6
CONTINUOUS
 10
36.5
 20
0.0
 30
0.0
 11
-36.5
 21
0.0
 31
0.0
  0
LINE
  5
813
  8
OUTLINE
  6
CONTINUOUS
 10
36.5
 20
200.0
 30
0.0
 11
36.5
 21
0.0
 31
0.0
  0
LINE
  5
814
  8
OUTLINE
  6
CONTINUOUS
 10
211.5
 20
200.0
 30
0.0
 11
211.5
 21
0.0
 31
0.0
  0
LINE
  5
815
  8
OUTLINE
  6
CONTINUOUS
 10
284.5
 20
200.0
 30
0.0
 11
284.5
 21
0.0
 31
0.0
  0
LINE
  5
816
  8
OUTLINE
  6
CONTINUOUS
 10
-315.0
 20
2170.0
 30
0.0
 11
-315.0
 21
200.0
 31
0.0
  0
LINE
  5
817
  8
OUTLINE
  6
CONTINUOUS
 10
315.0
 20
2170.0
 30
0.0
 11
-315.0
 21
2170.0
 31
0.0
  0
LINE
  5
818
  8
OUTLINE
  6
CONTINUOUS
 10
315.0
 20
200.0
 30
0.0
 11
-315.0
 21
200.0
 31
0.0
  0
LINE
  5
819
  8
OUTLINE
  6
CONTINUOUS
 10
284.5
 20
0.0
 30
0.0
 11
211.5
 21
0.0
 31
0.0
  0
LINE
  5
81A
  8
OUTLINE
  6
CONTINUOUS
 10
315.0
 20
400.0
 30
0.0
 11
-315.0
 21
400.0
 31
0.0
  0
LINE
  5
81B
  8
DETAIL
  6
CONTINUOUS
 10
-122.0
 20
432.0
 30
0.0
 11
-277.0
 21
432.0
 31
0.0
  0
LINE
  5
81C
  8
DETAIL
  6
CONTINUOUS
 10
-122.0
 20
652.0
 30
0.0
 11
-277.0
 21
652.0
 31
0.0
  0
LINE
  5
81D
  8
DETAIL
  6
CONTINUOUS
 10
-114.0
 20
644.0
 30
0.0
 11
-114.0
 21
440.0
 31
0.0
  0
LINE
  5
81E
  8
DETAIL
  6
CONTINUOUS
 10
-285.0
 20
644.0
 30
0.0
 11
-285.0
 21
440.0
 31
0.0
  0
ARC
  5
81F
  8
DETAIL
  6
CONTINUOUS
 10
-122.0
 20
644.0
 30
0.0
 40
8.0
 50
0.0
 51
90.0
  0
ARC
  5
820
  8
DETAIL
  6
CONTINUOUS
 10
-277.0
 20
644.0
 30
0.0
 40
8.0
 50
90.0
 51
180.0
  0
ARC
  5
821
  8
DETAIL
  6
CONTINUOUS
 10
-277.0
 20
440.0
 30
0.0
 40
8.0
 50
180.0
 51
270.0
  0
ARC
  5
822
  8
DETAIL
  6
CONTINUOUS
 10
-122.0
 20
440.0
 30
0.0
 40
8.0
 50
270.0
 51
0.0
  0
LINE
  5
823
  8
DETAIL
  6
CONTINUOUS
 10
-216.5
 20
594.5
 30
0.0
 11
-210.857817
 21
594.5
 31
0.0
  0
LINE
  5
824
  8
DETAIL
  6
CONTINUOUS
 10
-216.5
 20
609.5
 30
0.0
 11
-182.5
 21
609.5
 31
0.0
  0
LINE
  5
825
  8
DETAIL
  6
CONTINUOUS
 10
-179.5
 20
606.5
 30
0.0
 11
-179.5
 21
597.5
 31
0.0
  0
LINE
  5
826
  8
DETAIL
  6
CONTINUOUS
 10
-219.5
 20
606.5
 30
0.0
 11
-219.5
 21
597.5
 31
0.0
  0
ARC
  5
827
  8
DETAIL
  6
CONTINUOUS
 10
-199.5
 20
577.5
 30
0.0
 40
20.0
 50
60.40815399999996
 51
119.591846
  0
LINE
  5
828
  8
DETAIL
  6
CONTINUOUS
 10
-182.5
 20
594.5
 30
0.0
 11
-188.142184
 21
594.5
 31
0.0
  0
ARC
  5
829
  8
DETAIL
  6
CONTINUOUS
 10
-182.5
 20
606.5
 30
0.0
 40
3.0
 50
0.0
 51
90.0
  0
ARC
  5
82A
  8
DETAIL
  6
CONTINUOUS
 10
-188.142184
 20
597.5
 30
0.0
 40
3.0
 50
240.4081540000003
 51
270.0
  0
ARC
  5
82B
  8
DETAIL
  6
CONTINUOUS
 10
-182.5
 20
597.5
 30
0.0
 40
3.0
 50
270.0
 51
0.0
  0
ARC
  5
82C
  8
DETAIL
  6
CONTINUOUS
 10
-210.857817
 20
597.5
 30
0.0
 40
3.0
 50
270.0
 51
299.5918459999997
  0
ARC
  5
82D
  8
DETAIL
  6
CONTINUOUS
 10
-216.5
 20
606.5
 30
0.0
 40
3.0
 50
90.0
 51
180.0
  0
ARC
  5
82E
  8
DETAIL
  6
CONTINUOUS
 10
-216.5
 20
597.5
 30
0.0
 40
3.0
 50
180.0
 51
270.0
  0
LINE
  5
82F
  8
DETAIL
  6
CONTINUOUS
 10
93.69999999999999
 20
192.0
 30
0.0
 11
177.7
 21
192.0
 31
0.0
  0
LINE
  5
830
  8
DETAIL
  6
CONTINUOUS
 10
146.0
 20
2128.0
 30
0.0
 11
264.0
 21
2128.0
 31
0.0
  0
LINE
  5
831
  8
DETAIL
  6
CONTINUOUS
 10
270.0
 20
2122.0
 30
0.0
 11
270.0
 21
2016.0
 31
0.0
  0
LINE
  5
832
  8
DETAIL
  6
CONTINUOUS
 10
140.0
 20
2122.0
 30
0.0
 11
140.0
 21
2016.0
 31
0.0
  0
ARC
  5
833
  8
DETAIL
  6
CONTINUOUS
 10
264.0
 20
2122.0
 30
0.0
 40
6.0
 50
0.0
 51
90.0
  0
ARC
  5
834
  8
DETAIL
  6
CONTINUOUS
 10
146.0
 20
2122.0
 30
0.0
 40
6.0
 50
90.0
 51
180.0
  0
LINE
  5
835
  8
DETAIL
  6
CONTINUOUS
 10
146.0
 20
2122.0
 30
0.0
 11
264.0
 21
2122.0
 31
0.0
  0
LINE
  5
836
  8
DETAIL
  6
CONTINUOUS
 10
146.0
 20
2010.0
 30
0.0
 11
264.0
 21
2010.0
 31
0.0
  0
ARC
  5
837
  8
DETAIL
  6
CONTINUOUS
 10
264.0
 20
2016.0
 30
0.0
 40
6.0
 50
270.0
 51
0.0
  0
ARC
  5
838
  8
DETAIL
  6
CONTINUOUS
 10
146.0
 20
2016.0
 30
0.0
 40
6.0
 50
180.0
 51
270.0
  0
LINE
  5
839
  8
DETAIL
  6
CONTINUOUS
 10
264.0
 20
2122.0
 30
0.0
 11
264.0
 21
2014.0
 31
0.0
  0
LINE
  5
83A
  8
DETAIL
  6
CONTINUOUS
 10
146.0
 20
2122.0
 30
0.0
 11
146.0
 21
2014.0
 31
0.0
  0
LINE
  5
83B
  8
DETAIL
  6
CONTINUOUS
 10
148.0
 20
2025.0
 30
0.0
 11
262.0
 21
2025.0
 31
0.0
  0
LINE
  5
83C
  8
DETAIL
  6
CONTINUOUS
 10
148.0
 20
2012.0
 30
0.0
 11
262.0
 21
2012.0
 31
0.0
  0
ARC
  5
83D
  8
DETAIL
  6
CONTINUOUS
 10
262.0
 20
2014.0
 30
0.0
 40
2.0
 50
270.0
 51
0.0
  0
ARC
  5
83E
  8
DETAIL
  6
CONTINUOUS
 10
148.0
 20
2014.0
 30
0.0
 40
2.0
 50
180.0
 51
270.0
  0
ARC
  5
83F
  8
DETAIL
  6
CONTINUOUS
 10
262.0
 20
2027.0
 30
0.0
 40
2.0
 50
270.0
 51
0.0
  0
ARC
  5
840
  8
DETAIL
  6
CONTINUOUS
 10
148.0
 20
2027.0
 30
0.0
 40
2.0
 50
180.0
 51
270.0
  0
CIRCLE
  5
841
  8
DETAIL
  6
CONTINUOUS
 10
-202.5
 20
673.5
 30
0.0
 40
8.0
  0
ARC
  5
842
  8
DETAIL
  6
CONTINUOUS
 10
-273.0
 20
776.0
 30
0.0
 40
2.0
 50
90.0
 51
180.0
  0
ARC
  5
843
  8
DETAIL
  6
CONTINUOUS
 10
-132.0
 20
776.0
 30
0.0
 40
2.0
 50
0.0
 51
90.0
  0
ARC
  5
844
  8
DETAIL
  6
CONTINUOUS
 10
-267.0
 20
671.0
 30
0.0
 40
8.0
 50
180.0
 51
270.0
  0
ARC
  5
845
  8
DETAIL
  6
CONTINUOUS
 10
-138.0
 20
671.0
 30
0.0
 40
8.0
 50
270.0
 51
0.0
  0
LINE
  5
846
  8
DETAIL
  6
CONTINUOUS
 10
-267.0
 20
663.0
 30
0.0
 11
-138.0
 21
663.0
 31
0.0
  0
LINE
  5
847
  8
DETAIL
  6
CONTINUOUS
 10
-273.0
 20
778.0
 30
0.0
 11
-132.0
 21
778.0
 31
0.0
  0
LINE
  5
848
  8
DETAIL
  6
CONTINUOUS
 10
-275.0
 20
776.0
 30
0.0
 11
-275.0
 21
671.0
 31
0.0
  0
LINE
  5
849
  8
DETAIL
  6
CONTINUOUS
 10
-130.0
 20
776.0
 30
0.0
 11
-130.0
 21
671.0
 31
0.0
  0
LINE
  5
84A
  8
DETAIL
  6
CONTINUOUS
 10
121.2
 20
143.0
 30
0.0
 11
121.2
 21
188.5
 31
0.0
  0
LINE
  5
84B
  8
DETAIL
  6
CONTINUOUS
 10
112.353212
 20
163.5
 30
0.0
 11
121.2
 21
163.5
 31
0.0
  0
LINE
  5
84C
  8
DETAIL
  6
CONTINUOUS
 10
110.621161
 20
150.0
 30
0.0
 11
121.2
 21
150.0
 31
0.0
  0
LINE
  5
84D
  8
DETAIL
  6
CONTINUOUS
 10
157.2
 20
143.0
 30
0.0
 11
157.2
 21
188.5
 31
0.0
  0
LINE
  5
84E
  8
DETAIL
  6
CONTINUOUS
 10
110.621161
 20
139.0
 30
0.0
 11
153.2
 21
139.0
 31
0.0
  0
LINE
  5
84F
  8
DETAIL
  6
CONTINUOUS
 10
107.7
 20
188.5
 30
0.0
 11
170.7
 21
188.5
 31
0.0
  0
LINE
  5
850
  8
DETAIL
  6
CONTINUOUS
 10
170.7
 20
188.5
 30
0.0
 11
170.7
 21
192.0
 31
0.0
  0
ARC
  5
851
  8
DETAIL
  6
CONTINUOUS
 10
153.2
 20
143.0
 30
0.0
 40
4.0
 50
270.0
 51
0.0
  0
LINE
  5
852
  8
DETAIL
  6
CONTINUOUS
 10
-200.6875
 20
155.0
 30
0.0
 11
-175.3125
 21
155.0
 31
0.0
  0
ARC
  5
853
  8
DETAIL
  6
CONTINUOUS
 10
-40.0
 20
2210.0
 30
0.0
 40
5.0
 50
90.0
 51
180.0
  0
ARC
  5
854
  8
DETAIL
  6
CONTINUOUS
 10
40.0
 20
2210.0
 30
0.0
 40
5.0
 50
0.0
 51
90.0
  0
LINE
  5
855
  8
DETAIL
  6
CONTINUOUS
 10
40.0
 20
2215.0
 30
0.0
 11
-40.0
 21
2215.0
 31
0.0
  0
LINE
  5
856
  8
DETAIL
  6
CONTINUOUS
 10
-45.0
 20
2170.0
 30
0.0
 11
-45.0
 21
2210.0
 31
0.0
  0
LINE
  5
857
  8
DETAIL
  6
CONTINUOUS
 10
45.0
 20
2170.0
 30
0.0
 11
45.0
 21
2210.0
 31
0.0
  0
LINE
  5
858
  8
DETAIL
  6
CONTINUOUS
 10
211.5
 20
0.0
 30
0.0
 11
186.0
 21
0.0
 31
0.0
  0
LINE
  5
859
  8
DETAIL
  6
CONTINUOUS
 10
284.5
 20
0.0
 30
0.0
 11
310.0
 21
0.0
 31
0.0
  0
LINE
  5
85A
  8
DETAIL
  6
CONTINUOUS
 10
284.5
 20
3.2
 30
0.0
 11
310.0
 21
3.2
 31
0.0
  0
LINE
  5
85B
  8
DETAIL
  6
CONTINUOUS
 10
211.5
 20
3.2
 30
0.0
 11
186.0
 21
3.2
 31
0.0
  0
LINE
  5
85C
  8
DETAIL
  6
CONTINUOUS
 10
310.0
 20
0.0
 30
0.0
 11
310.0
 21
3.2
 31
0.0
  0
LINE
  5
85D
  8
DETAIL
  6
CONTINUOUS
 10
186.0
 20
0.0
 30
0.0
 11
186.0
 21
3.2
 31
0.0
  0
LINE
  5
85E
  8
DETAIL
  6
CONTINUOUS
 10
-284.5
 20
0.0
 30
0.0
 11
-310.0
 21
0.0
 31
0.0
  0
LINE
  5
85F
  8
DETAIL
  6
CONTINUOUS
 10
-284.5
 20
3.2
 30
0.0
 11
-310.0
 21
3.2
 31
0.0
  0
LINE
  5
860
  8
DETAIL
  6
CONTINUOUS
 10
-310.0
 20
0.0
 30
0.0
 11
-310.0
 21
3.2
 31
0.0
  0
LINE
  5
861
  8
DETAIL
  6
CONTINUOUS
 10
-211.5
 20
0.0
 30
0.0
 11
-186.0
 21
0.0
 31
0.0
  0
LINE
  5
862
  8
DETAIL
  6
CONTINUOUS
 10
-211.5
 20
3.2
 30
0.0
 11
-186.0
 21
3.2
 31
0.0
  0
LINE
  5
863
  8
DETAIL
  6
CONTINUOUS
 10
-186.0
 20
0.0
 30
0.0
 11
-186.0
 21
3.2
 31
0.0
  0
LINE
  5
864
  8
DETAIL
  6
CONTINUOUS
 10
284.5
 20
0.0
 30
0.0
 11
211.5
 21
0.0
 31
0.0
  0
LINE
  5
865
  8
DETAIL
  6
CONTINUOUS
 10
315.0
 20
200.0
 30
0.0
 11
-315.0
 21
200.0
 31
0.0
  0
LINE
  5
866
  8
DETAIL
  6
CONTINUOUS
 10
315.0
 20
2170.0
 30
0.0
 11
-315.0
 21
2170.0
 31
0.0
  0
LINE
  5
867
  8
DETAIL
  6
CONTINUOUS
 10
315.0
 20
200.0
 30
0.0
 11
315.0
 21
2170.0
 31
0.0
  0
LINE
  5
868
  8
DETAIL
  6
CONTINUOUS
 10
-315.0
 20
2166.0
 30
0.0
 11
-315.0
 21
200.0
 31
0.0
  0
LINE
  5
869
  8
DETAIL
  6
CONTINUOUS
 10
284.5
 20
200.0
 30
0.0
 11
284.5
 21
0.0
 31
0.0
  0
LINE
  5
86A
  8
DETAIL
  6
CONTINUOUS
 10
211.5
 20
200.0
 30
0.0
 11
211.5
 21
0.0
 31
0.0
  0
LINE
  5
86B
  8
DETAIL
  6
CONTINUOUS
 10
36.5
 20
200.0
 30
0.0
 11
36.5
 21
0.0
 31
0.0
  0
LINE
  5
86C
  8
DETAIL
  6
CONTINUOUS
 10
36.5
 20
0.0
 30
0.0
 11
-36.5
 21
0.0
 31
0.0
  0
LINE
  5
86D
  8
DETAIL
  6
CONTINUOUS
 10
-284.5
 20
200.0
 30
0.0
 11
-284.5
 21
0.0
 31
0.0
  0
LINE
  5
86E
  8
DETAIL
  6
CONTINUOUS
 10
-211.5
 20
183.5
 30
0.0
 11
-211.5
 21
0.0
 31
0.0
  0
LINE
  5
86F
  8
DETAIL
  6
CONTINUOUS
 10
-284.5
 20
0.0
 30
0.0
 11
-211.5
 21
0.0
 31
0.0
  0
LINE
  5
870
  8
DETAIL
  6
CONTINUOUS
 10
-36.5
 20
200.0
 30
0.0
 11
-36.5
 21
0.0
 31
0.0
  0
LINE
  5
871
  8
DETAIL
  6
CONTINUOUS
 10
-124.0
 20
779.0
 30
0.0
 11
-124.0
 21
665.0
 31
0.0
  0
ARC
  5
872
  8
DETAIL
  6
CONTINUOUS
 10
-132.0
 20
779.0
 30
0.0
 40
8.0
 50
0.0
 51
90.0
  0
ARC
  5
873
  8
DETAIL
  6
CONTINUOUS
 10
-273.0
 20
779.0
 30
0.0
 40
8.0
 50
90.0
 51
180.0
  0
LINE
  5
874
  8
DETAIL
  6
CONTINUOUS
 10
-132.0
 20
657.0
 30
0.0
 11
-273.0
 21
657.0
 31
0.0
  0
ARC
  5
875
  8
DETAIL
  6
CONTINUOUS
 10
-132.0
 20
665.0
 30
0.0
 40
8.0
 50
270.0
 51
0.0
  0
LINE
  5
876
  8
DETAIL
  6
CONTINUOUS
 10
-281.0
 20
779.0
 30
0.0
 11
-281.0
 21
665.0
 31
0.0
  0
ARC
  5
877
  8
DETAIL
  6
CONTINUOUS
 10
-273.0
 20
665.0
 30
0.0
 40
8.0
 50
180.0
 51
270.0
  0
LINE
  5
878
  8
DETAIL
  6
CONTINUOUS
 10
-273.0
 20
787.0
 30
0.0
 11
-132.0
 21
787.0
 31
0.0
  0
LINE
  5
879
  8
DETAIL
  6
CONTINUOUS
 10
-186.0
 20
0.0
 30
0.0
 11
-186.0
 21
3.2
 31
0.0
  0
LINE
  5
87A
  8
DETAIL
  6
CONTINUOUS
 10
-211.5
 20
3.2
 30
0.0
 11
-186.0
 21
3.2
 31
0.0
  0
LINE
  5
87B
  8
DETAIL
  6
CONTINUOUS
 10
-211.5
 20
0.0
 30
0.0
 11
-186.0
 21
0.0
 31
0.0
  0
LINE
  5
87C
  8
DETAIL
  6
CONTINUOUS
 10
-310.0
 20
0.0
 30
0.0
 11
-310.0
 21
3.2
 31
0.0
  0
LINE
  5
87D
  8
DETAIL
  6
CONTINUOUS
 10
-284.5
 20
3.2
 30
0.0
 11
-310.0
 21
3.2
 31
0.0
  0
LINE
  5
87E
  8
DETAIL
  6
CONTINUOUS
 10
-284.5
 20
0.0
 30
0.0
 11
-310.0
 21
0.0
 31
0.0
  0
LINE
  5
87F
  8
DETAIL
  6
CONTINUOUS
 10
186.0
 20
0.0
 30
0.0
 11
186.0
 21
3.2
 31
0.0
  0
LINE
  5
880
  8
DETAIL
  6
CONTINUOUS
 10
310.0
 20
0.0
 30
0.0
 11
310.0
 21
3.2
 31
0.0
  0
LINE
  5
881
  8
DETAIL
  6
CONTINUOUS
 10
211.5
 20
3.2
 30
0.0
 11
186.0
 21
3.2
 31
0.0
  0
LINE
  5
882
  8
DETAIL
  6
CONTINUOUS
 10
284.5
 20
3.2
 30
0.0
 11
310.0
 21
3.2
 31
0.0
  0
LINE
  5
883
  8
DETAIL
  6
CONTINUOUS
 10
284.5
 20
0.0
 30
0.0
 11
310.0
 21
0.0
 31
0.0
  0
LINE
  5
884
  8
DETAIL
  6
CONTINUOUS
 10
211.5
 20
0.0
 30
0.0
 11
186.0
 21
0.0
 31
0.0
  0
LINE
  5
885
  8
DETAIL
  6
CONTINUOUS
 10
315.0
 20
2144.0
 30
0.0
 11
-315.0
 21
2144.0
 31
0.0
  0
LINE
  5
886
  8
DETAIL
  6
CONTINUOUS
 10
45.0
 20
2170.0
 30
0.0
 11
45.0
 21
2210.0
 31
0.0
  0
LINE
  5
887
  8
DETAIL
  6
CONTINUOUS
 10
-45.0
 20
2170.0
 30
0.0
 11
-45.0
 21
2210.0
 31
0.0
  0
LINE
  5
888
  8
DETAIL
  6
CONTINUOUS
 10
40.0
 20
2215.0
 30
0.0
 11
-40.0
 21
2215.0
 31
0.0
  0
ARC
  5
889
  8
DETAIL
  6
CONTINUOUS
 10
40.0
 20
2210.0
 30
0.0
 40
5.0
 50
0.0
 51
90.0
  0
ARC
  5
88A
  8
DETAIL
  6
CONTINUOUS
 10
-40.0
 20
2210.0
 30
0.0
 40
5.0
 50
90.0
 51
180.0
  0
LINE
  5
88B
  8
DETAIL
  6
CONTINUOUS
 10
-164.0
 20
184.0
 30
0.0
 11
-212.0
 21
184.0
 31
0.0
  0
LINE
  5
88C
  8
DETAIL
  6
CONTINUOUS
 10
-168.0
 20
180.0
 30
0.0
 11
-164.0
 21
184.0
 31
0.0
  0
LINE
  5
88D
  8
DETAIL
  6
CONTINUOUS
 10
-164.0
 20
200.0
 30
0.0
 11
-164.0
 21
184.0
 31
0.0
  0
LINE
  5
88E
  8
DETAIL
  6
CONTINUOUS
 10
-208.0
 20
180.0
 30
0.0
 11
-168.0
 21
180.0
 31
0.0
  0
LINE
  5
88F
  8
DETAIL
  6
CONTINUOUS
 10
-208.0
 20
180.0
 30
0.0
 11
-212.0
 21
184.0
 31
0.0
  0
LINE
  5
890
  8
DETAIL
  6
CONTINUOUS
 10
-212.0
 20
200.0
 30
0.0
 11
-212.0
 21
184.0
 31
0.0
  0
LINE
  5
891
  8
DETAIL
  6
CONTINUOUS
 10
-205.783055
 20
180.0
 30
0.0
 11
-205.783055
 21
167.0
 31
0.0
  0
LINE
  5
892
  8
DETAIL
  6
CONTINUOUS
 10
-170.216946
 20
180.0
 30
0.0
 11
-170.216946
 21
167.0
 31
0.0
  0
LINE
  5
893
  8
DETAIL
  6
CONTINUOUS
 10
-205.783055
 20
167.0
 30
0.0
 11
-170.216946
 21
167.0
 31
0.0
  0
LINE
  5
894
  8
DETAIL
  6
CONTINUOUS
 10
-175.125
 20
155.0
 30
0.0
 11
-174.375
 21
167.0
 31
0.0
  0
LINE
  5
895
  8
DETAIL
  6
CONTINUOUS
 10
-200.875
 20
155.0
 30
0.0
 11
-201.625
 21
167.0
 31
0.0
  0
LINE
  5
896
  8
DETAIL
  6
CONTINUOUS
 10
315.0
 20
400.0
 30
0.0
 11
-315.0
 21
400.0
 31
0.0
  0
LINE
  5
897
  8
DETAIL
  6
CONTINUOUS
 10
244.15
 20
360.0
 30
0.0
 11
244.15
 21
400.0
 31
0.0
  0
LINE
  5
898
  8
DETAIL
  6
CONTINUOUS
 10
265.85
 20
360.0
 30
0.0
 11
244.15
 21
360.0
 31
0.0
  0
LINE
  5
899
  8
DETAIL
  6
CONTINUOUS
 10
265.85
 20
360.0
 30
0.0
 11
265.85
 21
400.0
 31
0.0
  0
LINE
  5
89A
  8
DETAIL
  6
CONTINUOUS
 10
265.85
 20
368.0
 30
0.0
 11
265.85
 21
400.0
 31
0.0
  0
LINE
  5
89B
  8
DETAIL
  6
CONTINUOUS
 10
56.4
 20
320.0
 30
0.0
 11
56.4
 21
400.0
 31
0.0
  0
LINE
  5
89C
  8
DETAIL
  6
CONTINUOUS
 10
83.6
 20
320.0
 30
0.0
 11
83.6
 21
400.0
 31
0.0
  0
LINE
  5
89D
  8
DETAIL
  6
CONTINUOUS
 10
83.6
 20
320.0
 30
0.0
 11
56.4
 21
320.0
 31
0.0
  0
LINE
  5
89E
  8
DETAIL
  6
CONTINUOUS
 10
-243.6
 20
320.0
 30
0.0
 11
-243.6
 21
400.0
 31
0.0
  0
LINE
  5
89F
  8
DETAIL
  6
CONTINUOUS
 10
-216.4
 20
320.0
 30
0.0
 11
-216.4
 21
400.0
 31
0.0
  0
LINE
  5
8A0
  8
DETAIL
  6
CONTINUOUS
 10
-216.4
 20
320.0
 30
0.0
 11
-243.6
 21
320.0
 31
0.0
  0
LINE
  5
8A1
  8
DETAIL
  6
CONTINUOUS
 10
107.7
 20
188.5
 30
0.0
 11
107.7
 21
192.0
 31
0.0
  0
LINE
  5
8A2
  8
DETAIL
  6
CONTINUOUS
 10
112.353212
 20
181.5
 30
0.0
 11
121.2
 21
181.5
 31
0.0
  0
ARC
  5
8A3
  8
DETAIL
  6
CONTINUOUS
 10
125.2
 20
143.0
 30
0.0
 40
4.0
 50
180.0
 51
270.0
  0
LINE
  5
8A4
  8
DETAIL
  6
CONTINUOUS
 10
177.7
 20
192.0
 30
0.0
 11
185.7
 21
200.0
 31
0.0
  0
LINE
  5
8A5
  8
DETAIL
  6
CONTINUOUS
 10
93.69999999999999
 20
192.0
 30
0.0
 11
85.69999999999999
 21
200.0
 31
0.0
  0
POLYLINE
  5
8A6
  8
DETAIL
  6
CONTINUOUS
 66
     1
 10
0.0
 20
0.0
 30
0.0
  0
VERTEX
  5
C36
  8
DETAIL
  6
CONTINUOUS
 10
110.621161
 20
150.0
 30
0.0
  0
VERTEX
  5
C37
  8
DETAIL
  6
CONTINUOUS
 10
110.084663
 20
149.894319
 30
0.0
  0
VERTEX
  5
C38
  8
DETAIL
  6
CONTINUOUS
 10
109.568782
 20
149.581337
 30
0.0
  0
VERTEX
  5
C39
  8
DETAIL
  6
CONTINUOUS
 10
109.093343
 20
149.073083
 30
0.0
  0
VERTEX
  5
C3A
  8
DETAIL
  6
CONTINUOUS
 10
108.676618
 20
148.389087
 30
0.0
  0
VERTEX
  5
C3B
  8
DETAIL
  6
CONTINUOUS
 10
108.33462
 20
147.555636
 30
0.0
  0
VERTEX
  5
C3C
  8
DETAIL
  6
CONTINUOUS
 10
108.080493
 20
146.604759
 30
0.0
  0
VERTEX
  5
C3D
  8
DETAIL
  6
CONTINUOUS
 10
107.924002
 20
145.572996
 30
0.0
  0
VERTEX
  5
C3E
  8
DETAIL
  6
CONTINUOUS
 10
107.871161
 20
144.5
 30
0.0
  0
VERTEX
  5
C3F
  8
DETAIL
  6
CONTINUOUS
 10
107.924002
 20
143.427003
 30
0.0
  0
VERTEX
  5
C40
  8
DETAIL
  6
CONTINUOUS
 10
108.080493
 20
142.395241
 30
0.0
  0
VERTEX
  5
C41
  8
DETAIL
  6
CONTINUOUS
 10
108.33462
 20
141.444363
 30
0.0
  0
VERTEX
  5
C42
  8
DETAIL
  6
CONTINUOUS
 10
108.676618
 20
140.610912
 30
0.0
  0
VERTEX
  5
C43
  8
DETAIL
  6
CONTINUOUS
 10
109.093343
 20
139.926917
 30
0.0
  0
VERTEX
  5
C44
  8
DETAIL
  6
CONTINUOUS
 10
109.568782
 20
139.418662
 30
0.0
  0
VERTEX
  5
C45
  8
DETAIL
  6
CONTINUOUS
 10
110.084663
 20
139.105681
 30
0.0
  0
VERTEX
  5
C46
  8
DETAIL
  6
CONTINUOUS
 10
110.621161
 20
139.0
 30
0.0
  0
SEQEND
  5
C5B
  8
DETAIL
  6
CONTINUOUS
  0
POLYLINE
  5
8B9
  8
DETAIL
  6
CONTINUOUS
 66
     1
 10
0.0
 20
0.0
 30
0.0
  0
VERTEX
  5
C47
  8
DETAIL
  6
CONTINUOUS
 10
111.833596
 20
163.560201
 30
0.0
  0
VERTEX
  5
C48
  8
DETAIL
  6
CONTINUOUS
 10
112.353212
 20
163.5
 30
0.0
  0
SEQEND
  5
C5C
  8
DETAIL
  6
CONTINUOUS
  0
POLYLINE
  5
8BD
  8
DETAIL
  6
CONTINUOUS
 66
     1
 10
0.0
 20
0.0
 30
0.0
  0
VERTEX
  5
C49
  8
DETAIL
  6
CONTINUOUS
 10
107.561205
 20
180.446487
 30
0.0
  0
VERTEX
  5
C4A
  8
DETAIL
  6
CONTINUOUS
 10
106.803851
 20
180.119309
 30
0.0
  0
VERTEX
  5
C4B
  8
DETAIL
  6
CONTINUOUS
 10
106.092246
 20
179.506242
 30
0.0
  0
VERTEX
  5
C4C
  8
DETAIL
  6
CONTINUOUS
 10
105.453088
 20
178.630289
 30
0.0
  0
VERTEX
  5
C4D
  8
DETAIL
  6
CONTINUOUS
 10
104.910361
 20
177.524319
 30
0.0
  0
VERTEX
  5
C4E
  8
DETAIL
  6
CONTINUOUS
 10
104.484428
 20
176.229827
 30
0.0
  0
VERTEX
  5
C4F
  8
DETAIL
  6
CONTINUOUS
 10
104.191271
 20
174.795386
 30
0.0
  0
VERTEX
  5
C50
  8
DETAIL
  6
CONTINUOUS
 10
104.04189
 20
173.274819
 30
0.0
  0
VERTEX
  5
C51
  8
DETAIL
  6
CONTINUOUS
 10
104.04189
 20
171.725179
 30
0.0
  0
VERTEX
  5
C52
  8
DETAIL
  6
CONTINUOUS
 10
104.191271
 20
170.204612
 30
0.0
  0
VERTEX
  5
C53
  8
DETAIL
  6
CONTINUOUS
 10
104.484428
 20
168.770172
 30
0.0
  0
VERTEX
  5
C54
  8
DETAIL
  6
CONTINUOUS
 10
104.910361
 20
167.47568
 30
0.0
  0
VERTEX
  5
C55
  8
DETAIL
  6
CONTINUOUS
 10
105.453088
 20
166.369709
 30
0.0
  0
VERTEX
  5
C56
  8
DETAIL
  6
CONTINUOUS
 10
106.092246
 20
165.493757
 30
0.0
  0
VERTEX
  5
C57
  8
DETAIL
  6
CONTINUOUS
 10
106.803852
 20
164.88069
 30
0.0
  0
VERTEX
  5
C58
  8
DETAIL
  6
CONTINUOUS
 10
107.561205
 20
164.553512
 30
0.0
  0
SEQEND
  5
C5D
  8
DETAIL
  6
CONTINUOUS
  0
LINE
  5
8CF
  8
DETAIL
  6
CONTINUOUS
 10
107.561205
 20
180.446487
 30
0.0
 11
111.833597
 21
181.439798
 31
0.0
  0
LINE
  5
8D0
  8
DETAIL
  6
CONTINUOUS
 10
111.833597
 20
163.560201
 30
0.0
 11
107.561205
 21
164.553512
 31
0.0
  0
POLYLINE
  5
8D1
  8
DETAIL
  6
CONTINUOUS
 66
     1
 10
0.0
 20
0.0
 30
0.0
  0
VERTEX
  5
C59
  8
DETAIL
  6
CONTINUOUS
 10
112.353212
 20
181.5
 30
0.0
  0
VERTEX
  5
C5A
  8
DETAIL
  6
CONTINUOUS
 10
111.833597
 20
181.439798
 30
0.0
  0
SEQEND
  5
C5E
  8
DETAIL
  6
CONTINUOUS
  0
LINE
  5
8D5
  8
BASIS
  6
DASHDOT
 10
0.0
 20
2265.0
 30
0.0
 11
0.0
 21
0.0
 31
0.0
  0
TEXT
  5
8D6
  8
SIZE
  6
CONTINUOUS
 62
    30
 10
290.54002
 20
1903.215585
 30
0.0
 40
2.8
  1
45
 50
0.0000029575586669
 41
0.7
  7
STANDARD1
  0
LINE
  5
8D7
  8
SIZE
  6
CONTINUOUS
 62
    30
 10
270.000012
 20
2014.999985
 30
0.0
 11
270.000012
 21
1900.215561
 31
0.0
  0
LINE
  5
8D8
  8
SIZE
  6
CONTINUOUS
 62
    30
 10
315.000012
 20
2168.999985
 30
0.0
 11
315.000012
 21
1900.215561
 31
0.0
  0
LINE
  5
8D9
  8
SIZE
  6
CONTINUOUS
 62
    30
 10
270.000012
 20
1902.215561
 30
0.0
 11
315.000012
 21
1902.215561
 31
0.0
  0
CIRCLE
  5
8DA
  8
SIZE
  6
CONTINUOUS
 62
    30
 10
270.000012
 20
1902.215561
 30
0.0
 40
0.5
  0
CIRCLE
  5
8DB
  8
SIZE
  6
CONTINUOUS
 62
    30
 10
270.000012
 20
1902.215561
 30
0.0
 40
0.4
  0
CIRCLE
  5
8DC
  8
SIZE
  6
CONTINUOUS
 62
    30
 10
270.000012
 20
1902.215561
 30
0.0
 40
0.3
  0
CIRCLE
  5
8DD
  8
SIZE
  6
CONTINUOUS
 62
    30
 10
270.000012
 20
1902.215561
 30
0.0
 40
0.2
  0
CIRCLE
  5
8DE
  8
SIZE
  6
CONTINUOUS
 62
    30
 10
270.000012
 20
1902.215561
 30
0.0
 40
0.1
  0
CIRCLE
  5
8DF
  8
SIZE
  6
CONTINUOUS
 62
    30
 10
315.000012
 20
1902.215561
 30
0.0
 40
0.5
  0
CIRCLE
  5
8E0
  8
SIZE
  6
CONTINUOUS
 62
    30
 10
315.000012
 20
1902.215561
 30
0.0
 40
0.4
  0
CIRCLE
  5
8E1
  8
SIZE
  6
CONTINUOUS
 62
    30
 10
315.000012
 20
1902.215561
 30
0.0
 40
0.3
  0
CIRCLE
  5
8E2
  8
SIZE
  6
CONTINUOUS
 62
    30
 10
315.000012
 20
1902.215561
 30
0.0
 40
0.2
  0
CIRCLE
  5
8E3
  8
SIZE
  6
CONTINUOUS
 62
    30
 10
315.000012
 20
1902.215561
 30
0.0
 40
0.1
  0
POINT
  5
8E4
  8
DEFPOINTS
  6
CONTINUOUS
 62
     7
 10
315.000012
 20
2169.999985
 30
0.0
  0
POINT
  5
8E5
  8
DEFPOINTS
  6
CONTINUOUS
 62
     7
 10
270.000012
 20
2015.999985
 30
0.0
  0
POINT
  5
8E6
  8
DEFPOINTS
  6
CONTINUOUS
 62
     7
 10
270.000012
 20
1902.215561
 30
0.0
  0
TEXT
  5
8E7
  8
SIZE
  6
CONTINUOUS
 62
    30
 10
862.3576840000001
 20
1001.080002
 30
0.0
 40
2.8
  1
2010
 50
90.00000499999999
 41
0.7
  7
STANDARD1
  0
LINE
  5
8E8
  8
SIZE
  6
CONTINUOUS
 62
    30
 10
265.000012
 20
2009.999985
 30
0.0
 11
865.357708
 21
2009.999985
 31
0.0
  0
LINE
  5
8E9
  8
SIZE
  6
CONTINUOUS
 62
    30
 10
311.000012
 20
0.0
 30
0.0
 11
865.357708
 21
0.0
 31
0.0
  0
LINE
  5
8EA
  8
SIZE
  6
CONTINUOUS
 62
    30
 10
863.357708
 20
2009.999985
 30
0.0
 11
863.357708
 21
0.0
 31
0.0
  0
CIRCLE
  5
8EB
  8
SIZE
  6
CONTINUOUS
 62
    30
 10
863.357708
 20
2009.999985
 30
0.0
 40
0.5
  0
CIRCLE
  5
8EC
  8
SIZE
  6
CONTINUOUS
 62
    30
 10
863.357708
 20
2009.999985
 30
0.0
 40
0.4
  0
CIRCLE
  5
8ED
  8
SIZE
  6
CONTINUOUS
 62
    30
 10
863.357708
 20
2009.999985
 30
0.0
 40
0.3
  0
CIRCLE
  5
8EE
  8
SIZE
  6
CONTINUOUS
 62
    30
 10
863.357708
 20
2009.999985
 30
0.0
 40
0.2
  0
CIRCLE
  5
8EF
  8
SIZE
  6
CONTINUOUS
 62
    30
 10
863.357708
 20
2009.999985
 30
0.0
 40
0.1
  0
CIRCLE
  5
8F0
  8
SIZE
  6
CONTINUOUS
 62
    30
 10
863.357708
 20
0.0
 30
0.0
 40
0.5
  0
CIRCLE
  5
8F1
  8
SIZE
  6
CONTINUOUS
 62
    30
 10
863.357708
 20
0.0
 30
0.0
 40
0.4
  0
CIRCLE
  5
8F2
  8
SIZE
  6
CONTINUOUS
 62
    30
 10
863.357708
 20
0.0
 30
0.0
 40
0.3
  0
CIRCLE
  5
8F3
  8
SIZE
  6
CONTINUOUS
 62
    30
 10
863.357708
 20
0.0
 30
0.0
 40
0.2
  0
CIRCLE
  5
8F4
  8
SIZE
  6
CONTINUOUS
 62
    30
 10
863.357708
 20
0.0
 30
0.0
 40
0.1
  0
POINT
  5
8F5
  8
DEFPOINTS
  6
CONTINUOUS
 62
     7
 10
310.000012
 20
0.0
 30
0.0
  0
POINT
  5
8F6
  8
DEFPOINTS
  6
CONTINUOUS
 62
     7
 10
264.000012
 20
2009.999985
 30
0.0
  0
POINT
  5
8F7
  8
DEFPOINTS
  6
CONTINUOUS
 62
     7
 10
863.357708
 20
2009.999985
 30
0.0
  0
TEXT
  5
8F8
  8
SIZE
  6
CONTINUOUS
 62
    30
 10
-353.782856
 20
541.420847
 30
0.0
 40
2.8
  1
30
 50
0.0000029575586669
 41
0.7
  7
STANDARD1
  0
LINE
  5
8F9
  8
SIZE
  6
CONTINUOUS
 62
    30
 10
-284.999988
 20
642.999985
 30
0.0
 11
-284.999988
 21
538.420822
 31
0.0
  0
LINE
  5
8FA
  8
SIZE
  6
CONTINUOUS
 62
    30
 10
-314.999988
 20
201.0
 30
0.0
 11
-314.999988
 21
542.420822
 31
0.0
  0
LINE
  5
8FB
  8
SIZE
  6
CONTINUOUS
 62
    30
 10
-279.999988
 20
540.420822
 30
0.0
 11
-355.18285
 21
540.420822
 31
0.0
  0
CIRCLE
  5
8FC
  8
SIZE
  6
CONTINUOUS
 62
    30
 10
-284.999988
 20
540.420822
 30
0.0
 40
0.5
  0
CIRCLE
  5
8FD
  8
SIZE
  6
CONTINUOUS
 62
    30
 10
-284.999988
 20
540.420822
 30
0.0
 40
0.4
  0
CIRCLE
  5
8FE
  8
SIZE
  6
CONTINUOUS
 62
    30
 10
-284.999988
 20
540.420822
 30
0.0
 40
0.3
  0
CIRCLE
  5
8FF
  8
SIZE
  6
CONTINUOUS
 62
    30
 10
-284.999988
 20
540.420822
 30
0.0
 40
0.2
  0
CIRCLE
  5
900
  8
SIZE
  6
CONTINUOUS
 62
    30
 10
-284.999988
 20
540.420822
 30
0.0
 40
0.1
  0
CIRCLE
  5
901
  8
SIZE
  6
CONTINUOUS
 62
    30
 10
-314.999988
 20
540.420822
 30
0.0
 40
0.5
  0
CIRCLE
  5
902
  8
SIZE
  6
CONTINUOUS
 62
    30
 10
-314.999988
 20
540.420822
 30
0.0
 40
0.4
  0
CIRCLE
  5
903
  8
SIZE
  6
CONTINUOUS
 62
    30
 10
-314.999988
 20
540.420822
 30
0.0
 40
0.3
  0
CIRCLE
  5
904
  8
SIZE
  6
CONTINUOUS
 62
    30
 10
-314.999988
 20
540.420822
 30
0.0
 40
0.2
  0
CIRCLE
  5
905
  8
SIZE
  6
CONTINUOUS
 62
    30
 10
-314.999988
 20
540.420822
 30
0.0
 40
0.1
  0
POINT
  5
906
  8
DEFPOINTS
  6
CONTINUOUS
 62
     7
 10
-314.999988
 20
200.0
 30
0.0
  0
POINT
  5
907
  8
DEFPOINTS
  6
CONTINUOUS
 62
     7
 10
-284.999988
 20
643.999985
 30
0.0
  0
POINT
  5
908
  8
DEFPOINTS
  6
CONTINUOUS
 62
     7
 10
-284.999988
 20
540.420822
 30
0.0
  0
TEXT
  5
909
  8
SIZE
  6
CONTINUOUS
 62
    30
 10
-353.782856
 20
877.836069
 30
0.0
 40
2.8
  1
34
 50
0.0000029575586669
 41
0.7
  7
STANDARD1
  0
LINE
  5
90A
  8
SIZE
  6
CONTINUOUS
 62
    30
 10
-280.999988
 20
779.999985
 30
0.0
 11
-280.999988
 21
878.836044
 31
0.0
  0
LINE
  5
90B
  8
SIZE
  6
CONTINUOUS
 62
    30
 10
-314.999988
 20
201.0
 30
0.0
 11
-314.999988
 21
878.836044
 31
0.0
  0
LINE
  5
90C
  8
SIZE
  6
CONTINUOUS
 62
    30
 10
-275.999988
 20
876.836044
 30
0.0
 11
-355.18285
 21
876.836044
 31
0.0
  0
CIRCLE
  5
90D
  8
SIZE
  6
CONTINUOUS
 62
    30
 10
-280.999988
 20
876.836044
 30
0.0
 40
0.5
  0
CIRCLE
  5
90E
  8
SIZE
  6
CONTINUOUS
 62
    30
 10
-280.999988
 20
876.836044
 30
0.0
 40
0.4
  0
CIRCLE
  5
90F
  8
SIZE
  6
CONTINUOUS
 62
    30
 10
-280.999988
 20
876.836044
 30
0.0
 40
0.3
  0
CIRCLE
  5
910
  8
SIZE
  6
CONTINUOUS
 62
    30
 10
-280.999988
 20
876.836044
 30
0.0
 40
0.2
  0
CIRCLE
  5
911
  8
SIZE
  6
CONTINUOUS
 62
    30
 10
-280.999988
 20
876.836044
 30
0.0
 40
0.1
  0
CIRCLE
  5
912
  8
SIZE
  6
CONTINUOUS
 62
    30
 10
-314.999988
 20
876.836044
 30
0.0
 40
0.5
  0
CIRCLE
  5
913
  8
SIZE
  6
CONTINUOUS
 62
    30
 10
-314.999988
 20
876.836044
 30
0.0
 40
0.4
  0
CIRCLE
  5
914
  8
SIZE
  6
CONTINUOUS
 62
    30
 10
-314.999988
 20
876.836044
 30
0.0
 40
0.3
  0
CIRCLE
  5
915
  8
SIZE
  6
CONTINUOUS
 62
    30
 10
-314.999988
 20
876.836044
 30
0.0
 40
0.2
  0
CIRCLE
  5
916
  8
SIZE
  6
CONTINUOUS
 62
    30
 10
-314.999988
 20
876.836044
 30
0.0
 40
0.1
  0
POINT
  5
917
  8
DEFPOINTS
  6
CONTINUOUS
 62
     7
 10
-314.999988
 20
200.0
 30
0.0
  0
POINT
  5
918
  8
DEFPOINTS
  6
CONTINUOUS
 62
     7
 10
-280.999988
 20
778.999985
 30
0.0
  0
POINT
  5
919
  8
DEFPOINTS
  6
CONTINUOUS
 62
     7
 10
-280.999988
 20
876.836044
 30
0.0
  0
TEXT
  5
91A
  8
SIZE
  6
CONTINUOUS
 62
    30
 10
-140.440006
 20
-583.060416
 30
0.0
 40
2.8
  1
275
 50
0.0000029575586669
 41
0.7
  7
STANDARD1
  0
LINE
  5
91B
  8
SIZE
  6
CONTINUOUS
 62
    30
 10
0.0
 20
-1.0
 30
0.0
 11
0.0
 21
-586.06044
 31
0.0
  0
LINE
  5
91C
  8
SIZE
  6
CONTINUOUS
 62
    30
 10
-274.999988
 20
378.999985
 30
0.0
 11
-274.999988
 21
-586.06044
 31
0.0
  0
LINE
  5
91D
  8
SIZE
  6
CONTINUOUS
 62
    30
 10
0.0
 20
-584.06044
 30
0.0
 11
-274.999988
 21
-584.06044
 31
0.0
  0
CIRCLE
  5
91E
  8
SIZE
  6
CONTINUOUS
 62
    30
 10
0.0
 20
-584.06044
 30
0.0
 40
0.5
  0
CIRCLE
  5
91F
  8
SIZE
  6
CONTINUOUS
 62
    30
 10
0.0
 20
-584.06044
 30
0.0
 40
0.4
  0
CIRCLE
  5
920
  8
SIZE
  6
CONTINUOUS
 62
    30
 10
0.0
 20
-584.06044
 30
0.0
 40
0.3
  0
CIRCLE
  5
921
  8
SIZE
  6
CONTINUOUS
 62
    30
 10
0.0
 20
-584.06044
 30
0.0
 40
0.2
  0
CIRCLE
  5
922
  8
SIZE
  6
CONTINUOUS
 62
    30
 10
0.0
 20
-584.06044
 30
0.0
 40
0.1
  0
CIRCLE
  5
923
  8
SIZE
  6
CONTINUOUS
 62
    30
 10
-274.999988
 20
-584.06044
 30
0.0
 40
0.5
  0
CIRCLE
  5
924
  8
SIZE
  6
CONTINUOUS
 62
    30
 10
-274.999988
 20
-584.06044
 30
0.0
 40
0.4
  0
CIRCLE
  5
925
  8
SIZE
  6
CONTINUOUS
 62
    30
 10
-274.999988
 20
-584.06044
 30
0.0
 40
0.3
  0
CIRCLE
  5
926
  8
SIZE
  6
CONTINUOUS
 62
    30
 10
-274.999988
 20
-584.06044
 30
0.0
 40
0.2
  0
CIRCLE
  5
927
  8
SIZE
  6
CONTINUOUS
 62
    30
 10
-274.999988
 20
-584.06044
 30
0.0
 40
0.1
  0
POINT
  5
928
  8
DEFPOINTS
  6
CONTINUOUS
 62
     7
 10
-274.999988
 20
379.999985
 30
0.0
  0
POINT
  5
929
  8
DEFPOINTS
  6
CONTINUOUS
 62
     7
 10
0.0
 20
0.0
 30
0.0
  0
POINT
  5
92A
  8
DEFPOINTS
  6
CONTINUOUS
 62
     7
 10
0.0
 20
-584.06044
 30
0.0
  0
TEXT
  5
92B
  8
SIZE
  6
CONTINUOUS
 62
    30
 10
-117.940006
 20
-483.060446
 30
0.0
 40
2.8
  1
230
 50
0.0000029575586669
 41
0.7
  7
STANDARD1
  0
LINE
  5
92C
  8
SIZE
  6
CONTINUOUS
 62
    30
 10
0.0
 20
-1.0
 30
0.0
 11
0.0
 21
-486.06044
 31
0.0
  0
LINE
  5
92D
  8
SIZE
  6
CONTINUOUS
 62
    30
 10
-230.000004
 20
298.999985
 30
0.0
 11
-230.000004
 21
-486.06044
 31
0.0
  0
LINE
  5
92E
  8
SIZE
  6
CONTINUOUS
 62
    30
 10
0.0
 20
-484.06044
 30
0.0
 11
-230.000004
 21
-484.06044
 31
0.0
  0
CIRCLE
  5
92F
  8
SIZE
  6
CONTINUOUS
 62
    30
 10
0.0
 20
-484.06044
 30
0.0
 40
0.5
  0
CIRCLE
  5
930
  8
SIZE
  6
CONTINUOUS
 62
    30
 10
0.0
 20
-484.06044
 30
0.0
 40
0.4
  0
CIRCLE
  5
931
  8
SIZE
  6
CONTINUOUS
 62
    30
 10
0.0
 20
-484.06044
 30
0.0
 40
0.3
  0
CIRCLE
  5
932
  8
SIZE
  6
CONTINUOUS
 62
    30
 10
0.0
 20
-484.06044
 30
0.0
 40
0.2
  0
CIRCLE
  5
933
  8
SIZE
  6
CONTINUOUS
 62
    30
 10
0.0
 20
-484.06044
 30
0.0
 40
0.1
  0
CIRCLE
  5
934
  8
SIZE
  6
CONTINUOUS
 62
    30
 10
-230.000004
 20
-484.06044
 30
0.0
 40
0.5
  0
CIRCLE
  5
935
  8
SIZE
  6
CONTINUOUS
 62
    30
 10
-230.000004
 20
-484.06044
 30
0.0
 40
0.4
  0
CIRCLE
  5
936
  8
SIZE
  6
CONTINUOUS
 62
    30
 10
-230.000004
 20
-484.06044
 30
0.0
 40
0.3
  0
CIRCLE
  5
937
  8
SIZE
  6
CONTINUOUS
 62
    30
 10
-230.000004
 20
-484.06044
 30
0.0
 40
0.2
  0
CIRCLE
  5
938
  8
SIZE
  6
CONTINUOUS
 62
    30
 10
-230.000004
 20
-484.06044
 30
0.0
 40
0.1
  0
POINT
  5
939
  8
DEFPOINTS
  6
CONTINUOUS
 62
     7
 10
-230.000004
 20
299.999985
 30
0.0
  0
POINT
  5
93A
  8
DEFPOINTS
  6
CONTINUOUS
 62
     7
 10
0.0
 20
0.0
 30
0.0
  0
POINT
  5
93B
  8
DEFPOINTS
  6
CONTINUOUS
 62
     7
 10
0.0
 20
-484.06044
 30
0.0
  0
TEXT
  5
93C
  8
SIZE
  6
CONTINUOUS
 62
    30
 10
124.559994
 20
-483.060446
 30
0.0
 40
2.8
  1
255
 50
0.0000029575586669
 41
0.7
  7
STANDARD1
  0
LINE
  5
93D
  8
SIZE
  6
CONTINUOUS
 62
    30
 10
0.0
 20
-1.0
 30
0.0
 11
0.0
 21
-486.06044
 31
0.0
  0
LINE
  5
93E
  8
SIZE
  6
CONTINUOUS
 62
    30
 10
254.999996
 20
338.999985
 30
0.0
 11
254.999996
 21
-486.06044
 31
0.0
  0
LINE
  5
93F
  8
SIZE
  6
CONTINUOUS
 62
    30
 10
0.0
 20
-484.06044
 30
0.0
 11
254.999996
 21
-484.06044
 31
0.0
  0
CIRCLE
  5
940
  8
SIZE
  6
CONTINUOUS
 62
    30
 10
0.0
 20
-484.06044
 30
0.0
 40
0.5
  0
CIRCLE
  5
941
  8
SIZE
  6
CONTINUOUS
 62
    30
 10
0.0
 20
-484.06044
 30
0.0
 40
0.4
  0
CIRCLE
  5
942
  8
SIZE
  6
CONTINUOUS
 62
    30
 10
0.0
 20
-484.06044
 30
0.0
 40
0.3
  0
CIRCLE
  5
943
  8
SIZE
  6
CONTINUOUS
 62
    30
 10
0.0
 20
-484.06044
 30
0.0
 40
0.2
  0
CIRCLE
  5
944
  8
SIZE
  6
CONTINUOUS
 62
    30
 10
0.0
 20
-484.06044
 30
0.0
 40
0.1
  0
CIRCLE
  5
945
  8
SIZE
  6
CONTINUOUS
 62
    30
 10
254.999996
 20
-484.06044
 30
0.0
 40
0.5
  0
CIRCLE
  5
946
  8
SIZE
  6
CONTINUOUS
 62
    30
 10
254.999996
 20
-484.06044
 30
0.0
 40
0.4
  0
CIRCLE
  5
947
  8
SIZE
  6
CONTINUOUS
 62
    30
 10
254.999996
 20
-484.06044
 30
0.0
 40
0.3
  0
CIRCLE
  5
948
  8
SIZE
  6
CONTINUOUS
 62
    30
 10
254.999996
 20
-484.06044
 30
0.0
 40
0.2
  0
CIRCLE
  5
949
  8
SIZE
  6
CONTINUOUS
 62
    30
 10
254.999996
 20
-484.06044
 30
0.0
 40
0.1
  0
POINT
  5
94A
  8
DEFPOINTS
  6
CONTINUOUS
 62
     7
 10
254.999996
 20
339.999985
 30
0.0
  0
POINT
  5
94B
  8
DEFPOINTS
  6
CONTINUOUS
 62
     7
 10
0.0
 20
0.0
 30
0.0
  0
POINT
  5
94C
  8
DEFPOINTS
  6
CONTINUOUS
 62
     7
 10
0.0
 20
-484.06044
 30
0.0
  0
TEXT
  5
94D
  8
SIZE
  6
CONTINUOUS
 62
    30
 10
51.071545
 20
-383.060446
 30
0.0
 40
2.8
  1
108
 50
0.0000029575586669
 41
0.7
  7
STANDARD1
  0
LINE
  5
94E
  8
SIZE
  6
CONTINUOUS
 62
    30
 10
0.0
 20
-1.0
 30
0.0
 11
0.0
 21
-386.06044
 31
0.0
  0
LINE
  5
94F
  8
SIZE
  6
CONTINUOUS
 62
    30
 10
108.023083
 20
151.5
 30
0.0
 11
108.023083
 21
-386.06044
 31
0.0
  0
LINE
  5
950
  8
SIZE
  6
CONTINUOUS
 62
    30
 10
0.0
 20
-384.06044
 30
0.0
 11
108.023083
 21
-384.06044
 31
0.0
  0
CIRCLE
  5
951
  8
SIZE
  6
CONTINUOUS
 62
    30
 10
0.0
 20
-384.06044
 30
0.0
 40
0.5
  0
CIRCLE
  5
952
  8
SIZE
  6
CONTINUOUS
 62
    30
 10
0.0
 20
-384.06044
 30
0.0
 40
0.4
  0
CIRCLE
  5
953
  8
SIZE
  6
CONTINUOUS
 62
    30
 10
0.0
 20
-384.06044
 30
0.0
 40
0.3
  0
CIRCLE
  5
954
  8
SIZE
  6
CONTINUOUS
 62
    30
 10
0.0
 20
-384.06044
 30
0.0
 40
0.2
  0
CIRCLE
  5
955
  8
SIZE
  6
CONTINUOUS
 62
    30
 10
0.0
 20
-384.06044
 30
0.0
 40
0.1
  0
CIRCLE
  5
956
  8
SIZE
  6
CONTINUOUS
 62
    30
 10
108.023083
 20
-384.06044
 30
0.0
 40
0.5
  0
CIRCLE
  5
957
  8
SIZE
  6
CONTINUOUS
 62
    30
 10
108.023083
 20
-384.06044
 30
0.0
 40
0.4
  0
CIRCLE
  5
958
  8
SIZE
  6
CONTINUOUS
 62
    30
 10
108.023083
 20
-384.06044
 30
0.0
 40
0.3
  0
CIRCLE
  5
959
  8
SIZE
  6
CONTINUOUS
 62
    30
 10
108.023083
 20
-384.06044
 30
0.0
 40
0.2
  0
CIRCLE
  5
95A
  8
SIZE
  6
CONTINUOUS
 62
    30
 10
108.023083
 20
-384.06044
 30
0.0
 40
0.1
  0
POINT
  5
95B
  8
DEFPOINTS
  6
CONTINUOUS
 62
     7
 10
108.023083
 20
152.5
 30
0.0
  0
POINT
  5
95C
  8
DEFPOINTS
  6
CONTINUOUS
 62
     7
 10
0.0
 20
0.0
 30
0.0
  0
POINT
  5
95D
  8
DEFPOINTS
  6
CONTINUOUS
 62
     7
 10
0.0
 20
-384.06044
 30
0.0
  0
TEXT
  5
95E
  8
SIZE
  6
CONTINUOUS
 62
    30
 10
-96.94000600000001
 20
-383.060446
 30
0.0
 40
2.8
  1
188
 50
0.0000029575586669
 41
0.7
  7
STANDARD1
  0
LINE
  5
95F
  8
SIZE
  6
CONTINUOUS
 62
    30
 10
0.0
 20
-1.0
 30
0.0
 11
0.0
 21
-386.06044
 31
0.0
  0
LINE
  5
960
  8
SIZE
  6
CONTINUOUS
 62
    30
 10
-188.000004
 20
134.0
 30
0.0
 11
-188.000004
 21
-386.06044
 31
0.0
  0
LINE
  5
961
  8
SIZE
  6
CONTINUOUS
 62
    30
 10
0.0
 20
-384.06044
 30
0.0
 11
-188.000004
 21
-384.06044
 31
0.0
  0
CIRCLE
  5
962
  8
SIZE
  6
CONTINUOUS
 62
    30
 10
0.0
 20
-384.06044
 30
0.0
 40
0.5
  0
CIRCLE
  5
963
  8
SIZE
  6
CONTINUOUS
 62
    30
 10
0.0
 20
-384.06044
 30
0.0
 40
0.4
  0
CIRCLE
  5
964
  8
SIZE
  6
CONTINUOUS
 62
    30
 10
0.0
 20
-384.06044
 30
0.0
 40
0.3
  0
CIRCLE
  5
965
  8
SIZE
  6
CONTINUOUS
 62
    30
 10
0.0
 20
-384.06044
 30
0.0
 40
0.2
  0
CIRCLE
  5
966
  8
SIZE
  6
CONTINUOUS
 62
    30
 10
0.0
 20
-384.06044
 30
0.0
 40
0.1
  0
CIRCLE
  5
967
  8
SIZE
  6
CONTINUOUS
 62
    30
 10
-188.000004
 20
-384.06044
 30
0.0
 40
0.5
  0
CIRCLE
  5
968
  8
SIZE
  6
CONTINUOUS
 62
    30
 10
-188.000004
 20
-384.06044
 30
0.0
 40
0.4
  0
CIRCLE
  5
969
  8
SIZE
  6
CONTINUOUS
 62
    30
 10
-188.000004
 20
-384.06044
 30
0.0
 40
0.3
  0
CIRCLE
  5
96A
  8
SIZE
  6
CONTINUOUS
 62
    30
 10
-188.000004
 20
-384.06044
 30
0.0
 40
0.2
  0
CIRCLE
  5
96B
  8
SIZE
  6
CONTINUOUS
 62
    30
 10
-188.000004
 20
-384.06044
 30
0.0
 40
0.1
  0
POINT
  5
96C
  8
DEFPOINTS
  6
CONTINUOUS
 62
     7
 10
-188.000004
 20
135.0
 30
0.0
  0
POINT
  5
96D
  8
DEFPOINTS
  6
CONTINUOUS
 62
     7
 10
0.0
 20
0.0
 30
0.0
  0
POINT
  5
96E
  8
DEFPOINTS
  6
CONTINUOUS
 62
     7
 10
0.0
 20
-384.06044
 30
0.0
  0
TEXT
  5
96F
  8
SIZE
  6
CONTINUOUS
 62
    30
 10
-92.94000600000001
 20
-283.060446
 30
0.0
 40
2.8
  1
180
 50
0.0000029575586669
 41
0.7
  7
STANDARD1
  0
LINE
  5
970
  8
SIZE
  6
CONTINUOUS
 62
    30
 10
0.0
 20
-1.0
 30
0.0
 11
0.0
 21
-286.06044
 31
0.0
  0
LINE
  5
971
  8
SIZE
  6
CONTINUOUS
 62
    30
 10
-180.000004
 20
378.999985
 30
0.0
 11
-180.000004
 21
-286.06044
 31
0.0
  0
LINE
  5
972
  8
SIZE
  6
CONTINUOUS
 62
    30
 10
0.0
 20
-284.06044
 30
0.0
 11
-180.000004
 21
-284.06044
 31
0.0
  0
CIRCLE
  5
973
  8
SIZE
  6
CONTINUOUS
 62
    30
 10
0.0
 20
-284.06044
 30
0.0
 40
0.5
  0
CIRCLE
  5
974
  8
SIZE
  6
CONTINUOUS
 62
    30
 10
0.0
 20
-284.06044
 30
0.0
 40
0.4
  0
CIRCLE
  5
975
  8
SIZE
  6
CONTINUOUS
 62
    30
 10
0.0
 20
-284.06044
 30
0.0
 40
0.3
  0
CIRCLE
  5
976
  8
SIZE
  6
CONTINUOUS
 62
    30
 10
0.0
 20
-284.06044
 30
0.0
 40
0.2
  0
CIRCLE
  5
977
  8
SIZE
  6
CONTINUOUS
 62
    30
 10
0.0
 20
-284.06044
 30
0.0
 40
0.1
  0
CIRCLE
  5
978
  8
SIZE
  6
CONTINUOUS
 62
    30
 10
-180.000004
 20
-284.06044
 30
0.0
 40
0.5
  0
CIRCLE
  5
979
  8
SIZE
  6
CONTINUOUS
 62
    30
 10
-180.000004
 20
-284.06044
 30
0.0
 40
0.4
  0
CIRCLE
  5
97A
  8
SIZE
  6
CONTINUOUS
 62
    30
 10
-180.000004
 20
-284.06044
 30
0.0
 40
0.3
  0
CIRCLE
  5
97B
  8
SIZE
  6
CONTINUOUS
 62
    30
 10
-180.000004
 20
-284.06044
 30
0.0
 40
0.2
  0
CIRCLE
  5
97C
  8
SIZE
  6
CONTINUOUS
 62
    30
 10
-180.000004
 20
-284.06044
 30
0.0
 40
0.1
  0
POINT
  5
97D
  8
DEFPOINTS
  6
CONTINUOUS
 62
     7
 10
-180.000004
 20
379.999985
 30
0.0
  0
POINT
  5
97E
  8
DEFPOINTS
  6
CONTINUOUS
 62
     7
 10
0.0
 20
0.0
 30
0.0
  0
POINT
  5
97F
  8
DEFPOINTS
  6
CONTINUOUS
 62
     7
 10
0.0
 20
-284.06044
 30
0.0
  0
TEXT
  5
980
  8
SIZE
  6
CONTINUOUS
 62
    30
 10
33.040001
 20
-283.060446
 30
0.0
 40
2.8
  1
70
 50
0.0000029575586669
 41
0.7
  7
STANDARD1
  0
LINE
  5
981
  8
SIZE
  6
CONTINUOUS
 62
    30
 10
0.0
 20
-1.0
 30
0.0
 11
0.0
 21
-286.06044
 31
0.0
  0
LINE
  5
982
  8
SIZE
  6
CONTINUOUS
 62
    30
 10
69.999996
 20
298.999985
 30
0.0
 11
69.999996
 21
-286.06044
 31
0.0
  0
LINE
  5
983
  8
SIZE
  6
CONTINUOUS
 62
    30
 10
0.0
 20
-284.06044
 30
0.0
 11
69.999996
 21
-284.06044
 31
0.0
  0
CIRCLE
  5
984
  8
SIZE
  6
CONTINUOUS
 62
    30
 10
0.0
 20
-284.06044
 30
0.0
 40
0.5
  0
CIRCLE
  5
985
  8
SIZE
  6
CONTINUOUS
 62
    30
 10
0.0
 20
-284.06044
 30
0.0
 40
0.4
  0
CIRCLE
  5
986
  8
SIZE
  6
CONTINUOUS
 62
    30
 10
0.0
 20
-284.06044
 30
0.0
 40
0.3
  0
CIRCLE
  5
987
  8
SIZE
  6
CONTINUOUS
 62
    30
 10
0.0
 20
-284.06044
 30
0.0
 40
0.2
  0
CIRCLE
  5
988
  8
SIZE
  6
CONTINUOUS
 62
    30
 10
0.0
 20
-284.06044
 30
0.0
 40
0.1
  0
CIRCLE
  5
989
  8
SIZE
  6
CONTINUOUS
 62
    30
 10
69.999996
 20
-284.06044
 30
0.0
 40
0.5
  0
CIRCLE
  5
98A
  8
SIZE
  6
CONTINUOUS
 62
    30
 10
69.999996
 20
-284.06044
 30
0.0
 40
0.4
  0
CIRCLE
  5
98B
  8
SIZE
  6
CONTINUOUS
 62
    30
 10
69.999996
 20
-284.06044
 30
0.0
 40
0.3
  0
CIRCLE
  5
98C
  8
SIZE
  6
CONTINUOUS
 62
    30
 10
69.999996
 20
-284.06044
 30
0.0
 40
0.2
  0
CIRCLE
  5
98D
  8
SIZE
  6
CONTINUOUS
 62
    30
 10
69.999996
 20
-284.06044
 30
0.0
 40
0.1
  0
POINT
  5
98E
  8
DEFPOINTS
  6
CONTINUOUS
 62
     7
 10
69.999996
 20
299.999985
 30
0.0
  0
POINT
  5
98F
  8
DEFPOINTS
  6
CONTINUOUS
 62
     7
 10
0.0
 20
0.0
 30
0.0
  0
POINT
  5
990
  8
DEFPOINTS
  6
CONTINUOUS
 62
     7
 10
0.0
 20
-284.06044
 30
0.0
  0
TEXT
  5
991
  8
SIZE
  6
CONTINUOUS
 62
    30
 10
1062.357684
 20
1081.079941
 30
0.0
 40
2.8
  1
2170
 50
90.00000499999999
 41
0.7
  7
STANDARD1
  0
LINE
  5
992
  8
SIZE
  6
CONTINUOUS
 62
    30
 10
316.000012
 20
2169.999985
 30
0.0
 11
1065.357708
 21
2169.999985
 31
0.0
  0
LINE
  5
993
  8
SIZE
  6
CONTINUOUS
 62
    30
 10
311.000012
 20
0.0
 30
0.0
 11
1065.357708
 21
0.0
 31
0.0
  0
LINE
  5
994
  8
SIZE
  6
CONTINUOUS
 62
    30
 10
1063.357708
 20
2169.999985
 30
0.0
 11
1063.357708
 21
0.0
 31
0.0
  0
CIRCLE
  5
995
  8
SIZE
  6
CONTINUOUS
 62
    30
 10
1063.357708
 20
2169.999985
 30
0.0
 40
0.5
  0
CIRCLE
  5
996
  8
SIZE
  6
CONTINUOUS
 62
    30
 10
1063.357708
 20
2169.999985
 30
0.0
 40
0.4
  0
CIRCLE
  5
997
  8
SIZE
  6
CONTINUOUS
 62
    30
 10
1063.357708
 20
2169.999985
 30
0.0
 40
0.3
  0
CIRCLE
  5
998
  8
SIZE
  6
CONTINUOUS
 62
    30
 10
1063.357708
 20
2169.999985
 30
0.0
 40
0.2
  0
CIRCLE
  5
999
  8
SIZE
  6
CONTINUOUS
 62
    30
 10
1063.357708
 20
2169.999985
 30
0.0
 40
0.1
  0
CIRCLE
  5
99A
  8
SIZE
  6
CONTINUOUS
 62
    30
 10
1063.357708
 20
0.0
 30
0.0
 40
0.5
  0
CIRCLE
  5
99B
  8
SIZE
  6
CONTINUOUS
 62
    30
 10
1063.357708
 20
0.0
 30
0.0
 40
0.4
  0
CIRCLE
  5
99C
  8
SIZE
  6
CONTINUOUS
 62
    30
 10
1063.357708
 20
0.0
 30
0.0
 40
0.3
  0
CIRCLE
  5
99D
  8
SIZE
  6
CONTINUOUS
 62
    30
 10
1063.357708
 20
0.0
 30
0.0
 40
0.2
  0
CIRCLE
  5
99E
  8
SIZE
  6
CONTINUOUS
 62
    30
 10
1063.357708
 20
0.0
 30
0.0
 40
0.1
  0
POINT
  5
99F
  8
DEFPOINTS
  6
CONTINUOUS
 62
     7
 10
310.000012
 20
0.0
 30
0.0
  0
POINT
  5
9A0
  8
DEFPOINTS
  6
CONTINUOUS
 62
     7
 10
315.000012
 20
2169.999985
 30
0.0
  0
POINT
  5
9A1
  8
DEFPOINTS
  6
CONTINUOUS
 62
     7
 10
1063.357708
 20
2169.999985
 30
0.0
  0
TEXT
  5
9A2
  8
SIZE
  6
CONTINUOUS
 62
    30
 10
962.3576840000001
 20
1181.079941
 30
0.0
 40
2.8
  1
1970
 50
90.00000499999999
 41
0.7
  7
STANDARD1
  0
LINE
  5
9A3
  8
SIZE
  6
CONTINUOUS
 62
    30
 10
316.000012
 20
200.0
 30
0.0
 11
965.357708
 21
200.0
 31
0.0
  0
LINE
  5
9A4
  8
SIZE
  6
CONTINUOUS
 62
    30
 10
316.000012
 20
2169.999985
 30
0.0
 11
965.357708
 21
2169.999985
 31
0.0
  0
LINE
  5
9A5
  8
SIZE
  6
CONTINUOUS
 62
    30
 10
963.357708
 20
200.0
 30
0.0
 11
963.357708
 21
2169.999985
 31
0.0
  0
CIRCLE
  5
9A6
  8
SIZE
  6
CONTINUOUS
 62
    30
 10
963.357708
 20
200.0
 30
0.0
 40
0.5
  0
CIRCLE
  5
9A7
  8
SIZE
  6
CONTINUOUS
 62
    30
 10
963.357708
 20
200.0
 30
0.0
 40
0.4
  0
CIRCLE
  5
9A8
  8
SIZE
  6
CONTINUOUS
 62
    30
 10
963.357708
 20
200.0
 30
0.0
 40
0.3
  0
CIRCLE
  5
9A9
  8
SIZE
  6
CONTINUOUS
 62
    30
 10
963.357708
 20
200.0
 30
0.0
 40
0.2
  0
CIRCLE
  5
9AA
  8
SIZE
  6
CONTINUOUS
 62
    30
 10
963.357708
 20
200.0
 30
0.0
 40
0.1
  0
CIRCLE
  5
9AB
  8
SIZE
  6
CONTINUOUS
 62
    30
 10
963.357708
 20
2169.999985
 30
0.0
 40
0.5
  0
CIRCLE
  5
9AC
  8
SIZE
  6
CONTINUOUS
 62
    30
 10
963.357708
 20
2169.999985
 30
0.0
 40
0.4
  0
CIRCLE
  5
9AD
  8
SIZE
  6
CONTINUOUS
 62
    30
 10
963.357708
 20
2169.999985
 30
0.0
 40
0.3
  0
CIRCLE
  5
9AE
  8
SIZE
  6
CONTINUOUS
 62
    30
 10
963.357708
 20
2169.999985
 30
0.0
 40
0.2
  0
CIRCLE
  5
9AF
  8
SIZE
  6
CONTINUOUS
 62
    30
 10
963.357708
 20
2169.999985
 30
0.0
 40
0.1
  0
POINT
  5
9B0
  8
DEFPOINTS
  6
CONTINUOUS
 62
     7
 10
315.000012
 20
2169.999985
 30
0.0
  0
POINT
  5
9B1
  8
DEFPOINTS
  6
CONTINUOUS
 62
     7
 10
315.000012
 20
200.0
 30
0.0
  0
POINT
  5
9B2
  8
DEFPOINTS
  6
CONTINUOUS
 62
     7
 10
963.357708
 20
200.0
 30
0.0
  0
TEXT
  5
9B3
  8
SIZE
  6
CONTINUOUS
 62
    30
 10
-870.3112
 20
1092.579941
 30
0.0
 40
2.8
  1
2193
 50
90.00000499999999
 41
0.7
  7
STANDARD1
  0
LINE
  5
9B4
  8
SIZE
  6
CONTINUOUS
 62
    30
 10
-51.0
 20
2192.999985
 30
0.0
 11
-871.3111759999999
 21
2192.999985
 31
0.0
  0
LINE
  5
9B5
  8
SIZE
  6
CONTINUOUS
 62
    30
 10
-310.999988
 20
0.0
 30
0.0
 11
-871.3111759999999
 21
0.0
 31
0.0
  0
LINE
  5
9B6
  8
SIZE
  6
CONTINUOUS
 62
    30
 10
-869.3111759999999
 20
2192.999985
 30
0.0
 11
-869.3111759999999
 21
0.0
 31
0.0
  0
CIRCLE
  5
9B7
  8
SIZE
  6
CONTINUOUS
 62
    30
 10
-869.3111759999999
 20
2192.999985
 30
0.0
 40
0.5
  0
CIRCLE
  5
9B8
  8
SIZE
  6
CONTINUOUS
 62
    30
 10
-869.3111759999999
 20
2192.999985
 30
0.0
 40
0.4
  0
CIRCLE
  5
9B9
  8
SIZE
  6
CONTINUOUS
 62
    30
 10
-869.3111759999999
 20
2192.999985
 30
0.0
 40
0.3
  0
CIRCLE
  5
9BA
  8
SIZE
  6
CONTINUOUS
 62
    30
 10
-869.3111759999999
 20
2192.999985
 30
0.0
 40
0.2
  0
CIRCLE
  5
9BB
  8
SIZE
  6
CONTINUOUS
 62
    30
 10
-869.3111759999999
 20
2192.999985
 30
0.0
 40
0.1
  0
CIRCLE
  5
9BC
  8
SIZE
  6
CONTINUOUS
 62
    30
 10
-869.3111759999999
 20
0.0
 30
0.0
 40
0.5
  0
CIRCLE
  5
9BD
  8
SIZE
  6
CONTINUOUS
 62
    30
 10
-869.3111759999999
 20
0.0
 30
0.0
 40
0.4
  0
CIRCLE
  5
9BE
  8
SIZE
  6
CONTINUOUS
 62
    30
 10
-869.3111759999999
 20
0.0
 30
0.0
 40
0.3
  0
CIRCLE
  5
9BF
  8
SIZE
  6
CONTINUOUS
 62
    30
 10
-869.3111759999999
 20
0.0
 30
0.0
 40
0.2
  0
CIRCLE
  5
9C0
  8
SIZE
  6
CONTINUOUS
 62
    30
 10
-869.3111759999999
 20
0.0
 30
0.0
 40
0.1
  0
POINT
  5
9C1
  8
DEFPOINTS
  6
CONTINUOUS
 62
     7
 10
-309.999988
 20
0.0
 30
0.0
  0
POINT
  5
9C2
  8
DEFPOINTS
  6
CONTINUOUS
 62
     7
 10
-50.0
 20
2192.999985
 30
0.0
  0
POINT
  5
9C3
  8
DEFPOINTS
  6
CONTINUOUS
 62
     7
 10
-869.3111759999999
 20
2192.999985
 30
0.0
  0
TEXT
  5
9C4
  8
SIZE
  6
CONTINUOUS
 62
    30
 10
-970.3112
 20
1103.579941
 30
0.0
 40
2.8
  1
2215
 50
90.00000499999999
 41
0.7
  7
STANDARD1
  0
LINE
  5
9C5
  8
SIZE
  6
CONTINUOUS
 62
    30
 10
-41.0
 20
2214.999985
 30
0.0
 11
-971.3111759999999
 21
2214.999985
 31
0.0
  0
LINE
  5
9C6
  8
SIZE
  6
CONTINUOUS
 62
    30
 10
-310.999988
 20
0.0
 30
0.0
 11
-971.3111759999999
 21
0.0
 31
0.0
  0
LINE
  5
9C7
  8
SIZE
  6
CONTINUOUS
 62
    30
 10
-969.3111759999999
 20
2214.999985
 30
0.0
 11
-969.3111759999999
 21
0.0
 31
0.0
  0
CIRCLE
  5
9C8
  8
SIZE
  6
CONTINUOUS
 62
    30
 10
-969.3111759999999
 20
2214.999985
 30
0.0
 40
0.5
  0
CIRCLE
  5
9C9
  8
SIZE
  6
CONTINUOUS
 62
    30
 10
-969.3111759999999
 20
2214.999985
 30
0.0
 40
0.4
  0
CIRCLE
  5
9CA
  8
SIZE
  6
CONTINUOUS
 62
    30
 10
-969.3111759999999
 20
2214.999985
 30
0.0
 40
0.3
  0
CIRCLE
  5
9CB
  8
SIZE
  6
CONTINUOUS
 62
    30
 10
-969.3111759999999
 20
2214.999985
 30
0.0
 40
0.2
  0
CIRCLE
  5
9CC
  8
SIZE
  6
CONTINUOUS
 62
    30
 10
-969.3111759999999
 20
2214.999985
 30
0.0
 40
0.1
  0
CIRCLE
  5
9CD
  8
SIZE
  6
CONTINUOUS
 62
    30
 10
-969.3111759999999
 20
0.0
 30
0.0
 40
0.5
  0
CIRCLE
  5
9CE
  8
SIZE
  6
CONTINUOUS
 62
    30
 10
-969.3111759999999
 20
0.0
 30
0.0
 40
0.4
  0
CIRCLE
  5
9CF
  8
SIZE
  6
CONTINUOUS
 62
    30
 10
-969.3111759999999
 20
0.0
 30
0.0
 40
0.3
  0
CIRCLE
  5
9D0
  8
SIZE
  6
CONTINUOUS
 62
    30
 10
-969.3111759999999
 20
0.0
 30
0.0
 40
0.2
  0
CIRCLE
  5
9D1
  8
SIZE
  6
CONTINUOUS
 62
    30
 10
-969.3111759999999
 20
0.0
 30
0.0
 40
0.1
  0
POINT
  5
9D2
  8
DEFPOINTS
  6
CONTINUOUS
 62
     7
 10
-309.999988
 20
0.0
 30
0.0
  0
POINT
  5
9D3
  8
DEFPOINTS
  6
CONTINUOUS
 62
     7
 10
-40.0
 20
2214.999985
 30
0.0
  0
POINT
  5
9D4
  8
DEFPOINTS
  6
CONTINUOUS
 62
     7
 10
-969.3111759999999
 20
2214.999985
 30
0.0
  0
TEXT
  5
9D5
  8
SIZE
  6
CONTINUOUS
 62
    30
 10
-670.3112
 20
539.059983
 30
0.0
 40
2.8
  1
220
 50
90.00000499999999
 41
0.7
  7
STANDARD1
  0
LINE
  5
9D6
  8
SIZE
  6
CONTINUOUS
 62
    30
 10
-278.000019
 20
651.999985
 30
0.0
 11
-671.3111759999999
 21
651.999985
 31
0.0
  0
LINE
  5
9D7
  8
SIZE
  6
CONTINUOUS
 62
    30
 10
-278.000019
 20
431.999985
 30
0.0
 11
-671.3111759999999
 21
431.999985
 31
0.0
  0
LINE
  5
9D8
  8
SIZE
  6
CONTINUOUS
 62
    30
 10
-669.3111759999999
 20
651.999985
 30
0.0
 11
-669.3111759999999
 21
431.999985
 31
0.0
  0
CIRCLE
  5
9D9
  8
SIZE
  6
CONTINUOUS
 62
    30
 10
-669.3111759999999
 20
651.999985
 30
0.0
 40
0.5
  0
CIRCLE
  5
9DA
  8
SIZE
  6
CONTINUOUS
 62
    30
 10
-669.3111759999999
 20
651.999985
 30
0.0
 40
0.4
  0
CIRCLE
  5
9DB
  8
SIZE
  6
CONTINUOUS
 62
    30
 10
-669.3111759999999
 20
651.999985
 30
0.0
 40
0.3
  0
CIRCLE
  5
9DC
  8
SIZE
  6
CONTINUOUS
 62
    30
 10
-669.3111759999999
 20
651.999985
 30
0.0
 40
0.2
  0
CIRCLE
  5
9DD
  8
SIZE
  6
CONTINUOUS
 62
    30
 10
-669.3111759999999
 20
651.999985
 30
0.0
 40
0.1
  0
CIRCLE
  5
9DE
  8
SIZE
  6
CONTINUOUS
 62
    30
 10
-669.3111759999999
 20
431.999985
 30
0.0
 40
0.5
  0
CIRCLE
  5
9DF
  8
SIZE
  6
CONTINUOUS
 62
    30
 10
-669.3111759999999
 20
431.999985
 30
0.0
 40
0.4
  0
CIRCLE
  5
9E0
  8
SIZE
  6
CONTINUOUS
 62
    30
 10
-669.3111759999999
 20
431.999985
 30
0.0
 40
0.3
  0
CIRCLE
  5
9E1
  8
SIZE
  6
CONTINUOUS
 62
    30
 10
-669.3111759999999
 20
431.999985
 30
0.0
 40
0.2
  0
CIRCLE
  5
9E2
  8
SIZE
  6
CONTINUOUS
 62
    30
 10
-669.3111759999999
 20
431.999985
 30
0.0
 40
0.1
  0
POINT
  5
9E3
  8
DEFPOINTS
  6
CONTINUOUS
 62
     7
 10
-277.000019
 20
431.999985
 30
0.0
  0
POINT
  5
9E4
  8
DEFPOINTS
  6
CONTINUOUS
 62
     7
 10
-277.000019
 20
651.999985
 30
0.0
  0
POINT
  5
9E5
  8
DEFPOINTS
  6
CONTINUOUS
 62
     7
 10
-669.3111759999999
 20
651.999985
 30
0.0
  0
TEXT
  5
9E6
  8
SIZE
  6
CONTINUOUS
 62
    30
 10
-202.440021
 20
541.738107
 30
0.0
 40
2.8
  1
171
 50
0.0000029575586669
 41
0.7
  7
STANDARD1
  0
LINE
  5
9E7
  8
SIZE
  6
CONTINUOUS
 62
    30
 10
-285.000019
 20
440.999985
 30
0.0
 11
-285.000019
 21
542.738083
 31
0.0
  0
LINE
  5
9E8
  8
SIZE
  6
CONTINUOUS
 62
    30
 10
-114.000004
 20
440.999985
 30
0.0
 11
-114.000004
 21
542.738083
 31
0.0
  0
LINE
  5
9E9
  8
SIZE
  6
CONTINUOUS
 62
    30
 10
-285.000019
 20
540.738083
 30
0.0
 11
-114.000004
 21
540.738083
 31
0.0
  0
CIRCLE
  5
9EA
  8
SIZE
  6
CONTINUOUS
 62
    30
 10
-285.000019
 20
540.738083
 30
0.0
 40
0.5
  0
CIRCLE
  5
9EB
  8
SIZE
  6
CONTINUOUS
 62
    30
 10
-285.000019
 20
540.738083
 30
0.0
 40
0.4
  0
CIRCLE
  5
9EC
  8
SIZE
  6
CONTINUOUS
 62
    30
 10
-285.000019
 20
540.738083
 30
0.0
 40
0.3
  0
CIRCLE
  5
9ED
  8
SIZE
  6
CONTINUOUS
 62
    30
 10
-285.000019
 20
540.738083
 30
0.0
 40
0.2
  0
CIRCLE
  5
9EE
  8
SIZE
  6
CONTINUOUS
 62
    30
 10
-285.000019
 20
540.738083
 30
0.0
 40
0.1
  0
CIRCLE
  5
9EF
  8
SIZE
  6
CONTINUOUS
 62
    30
 10
-114.000004
 20
540.738083
 30
0.0
 40
0.5
  0
CIRCLE
  5
9F0
  8
SIZE
  6
CONTINUOUS
 62
    30
 10
-114.000004
 20
540.738083
 30
0.0
 40
0.4
  0
CIRCLE
  5
9F1
  8
SIZE
  6
CONTINUOUS
 62
    30
 10
-114.000004
 20
540.738083
 30
0.0
 40
0.3
  0
CIRCLE
  5
9F2
  8
SIZE
  6
CONTINUOUS
 62
    30
 10
-114.000004
 20
540.738083
 30
0.0
 40
0.2
  0
CIRCLE
  5
9F3
  8
SIZE
  6
CONTINUOUS
 62
    30
 10
-114.000004
 20
540.738083
 30
0.0
 40
0.1
  0
POINT
  5
9F4
  8
DEFPOINTS
  6
CONTINUOUS
 62
     7
 10
-114.000004
 20
439.999985
 30
0.0
  0
POINT
  5
9F5
  8
DEFPOINTS
  6
CONTINUOUS
 62
     7
 10
-285.000019
 20
439.999985
 30
0.0
  0
POINT
  5
9F6
  8
DEFPOINTS
  6
CONTINUOUS
 62
     7
 10
-285.000019
 20
540.738083
 30
0.0
  0
TEXT
  5
9F7
  8
SIZE
  6
CONTINUOUS
 62
    30
 10
202.059979
 20
1903.215585
 30
0.0
 40
2.8
  1
130
 50
0.0000029575586669
 41
0.7
  7
STANDARD1
  0
LINE
  5
9F8
  8
SIZE
  6
CONTINUOUS
 62
    30
 10
269.999981
 20
2014.999985
 30
0.0
 11
269.999981
 21
1900.215561
 31
0.0
  0
LINE
  5
9F9
  8
SIZE
  6
CONTINUOUS
 62
    30
 10
139.999981
 20
2014.999985
 30
0.0
 11
139.999981
 21
1900.215561
 31
0.0
  0
LINE
  5
9FA
  8
SIZE
  6
CONTINUOUS
 62
    30
 10
269.999981
 20
1902.215561
 30
0.0
 11
139.999981
 21
1902.215561
 31
0.0
  0
CIRCLE
  5
9FB
  8
SIZE
  6
CONTINUOUS
 62
    30
 10
269.999981
 20
1902.215561
 30
0.0
 40
0.5
  0
CIRCLE
  5
9FC
  8
SIZE
  6
CONTINUOUS
 62
    30
 10
269.999981
 20
1902.215561
 30
0.0
 40
0.4
  0
CIRCLE
  5
9FD
  8
SIZE
  6
CONTINUOUS
 62
    30
 10
269.999981
 20
1902.215561
 30
0.0
 40
0.3
  0
CIRCLE
  5
9FE
  8
SIZE
  6
CONTINUOUS
 62
    30
 10
269.999981
 20
1902.215561
 30
0.0
 40
0.2
  0
CIRCLE
  5
9FF
  8
SIZE
  6
CONTINUOUS
 62
    30
 10
269.999981
 20
1902.215561
 30
0.0
 40
0.1
  0
CIRCLE
  5
A00
  8
SIZE
  6
CONTINUOUS
 62
    30
 10
139.999981
 20
1902.215561
 30
0.0
 40
0.5
  0
CIRCLE
  5
A01
  8
SIZE
  6
CONTINUOUS
 62
    30
 10
139.999981
 20
1902.215561
 30
0.0
 40
0.4
  0
CIRCLE
  5
A02
  8
SIZE
  6
CONTINUOUS
 62
    30
 10
139.999981
 20
1902.215561
 30
0.0
 40
0.3
  0
CIRCLE
  5
A03
  8
SIZE
  6
CONTINUOUS
 62
    30
 10
139.999981
 20
1902.215561
 30
0.0
 40
0.2
  0
CIRCLE
  5
A04
  8
SIZE
  6
CONTINUOUS
 62
    30
 10
139.999981
 20
1902.215561
 30
0.0
 40
0.1
  0
POINT
  5
A05
  8
DEFPOINTS
  6
CONTINUOUS
 62
     7
 10
139.999981
 20
2015.999985
 30
0.0
  0
POINT
  5
A06
  8
DEFPOINTS
  6
CONTINUOUS
 62
     7
 10
269.999981
 20
2015.999985
 30
0.0
  0
POINT
  5
A07
  8
DEFPOINTS
  6
CONTINUOUS
 62
     7
 10
269.999981
 20
1902.215561
 30
0.0
  0
TEXT
  5
A08
  8
SIZE
  6
CONTINUOUS
 62
    30
 10
860.3576840000001
 20
2066.060044
 30
0.0
 40
2.8
  1
118
 50
90.00000499999999
 41
0.7
  7
STANDARD1
  0
LINE
  5
A09
  8
SIZE
  6
CONTINUOUS
 62
    30
 10
264.999981
 20
2127.999985
 30
0.0
 11
863.357708
 21
2127.999985
 31
0.0
  0
LINE
  5
A0A
  8
SIZE
  6
CONTINUOUS
 62
    30
 10
264.999981
 20
2009.999985
 30
0.0
 11
863.357708
 21
2009.999985
 31
0.0
  0
LINE
  5
A0B
  8
SIZE
  6
CONTINUOUS
 62
    30
 10
861.357708
 20
2127.999985
 30
0.0
 11
861.357708
 21
2009.999985
 31
0.0
  0
CIRCLE
  5
A0C
  8
SIZE
  6
CONTINUOUS
 62
    30
 10
861.357708
 20
2127.999985
 30
0.0
 40
0.5
  0
CIRCLE
  5
A0D
  8
SIZE
  6
CONTINUOUS
 62
    30
 10
861.357708
 20
2127.999985
 30
0.0
 40
0.4
  0
CIRCLE
  5
A0E
  8
SIZE
  6
CONTINUOUS
 62
    30
 10
861.357708
 20
2127.999985
 30
0.0
 40
0.3
  0
CIRCLE
  5
A0F
  8
SIZE
  6
CONTINUOUS
 62
    30
 10
861.357708
 20
2127.999985
 30
0.0
 40
0.2
  0
CIRCLE
  5
A10
  8
SIZE
  6
CONTINUOUS
 62
    30
 10
861.357708
 20
2127.999985
 30
0.0
 40
0.1
  0
CIRCLE
  5
A11
  8
SIZE
  6
CONTINUOUS
 62
    30
 10
861.357708
 20
2009.999985
 30
0.0
 40
0.5
  0
CIRCLE
  5
A12
  8
SIZE
  6
CONTINUOUS
 62
    30
 10
861.357708
 20
2009.999985
 30
0.0
 40
0.4
  0
CIRCLE
  5
A13
  8
SIZE
  6
CONTINUOUS
 62
    30
 10
861.357708
 20
2009.999985
 30
0.0
 40
0.3
  0
CIRCLE
  5
A14
  8
SIZE
  6
CONTINUOUS
 62
    30
 10
861.357708
 20
2009.999985
 30
0.0
 40
0.2
  0
CIRCLE
  5
A15
  8
SIZE
  6
CONTINUOUS
 62
    30
 10
861.357708
 20
2009.999985
 30
0.0
 40
0.1
  0
POINT
  5
A16
  8
DEFPOINTS
  6
CONTINUOUS
 62
     7
 10
263.999981
 20
2009.999985
 30
0.0
  0
POINT
  5
A17
  8
DEFPOINTS
  6
CONTINUOUS
 62
     7
 10
263.999981
 20
2127.999985
 30
0.0
  0
POINT
  5
A18
  8
DEFPOINTS
  6
CONTINUOUS
 62
     7
 10
861.357708
 20
2127.999985
 30
0.0
  0
TEXT
  5
A19
  8
SIZE
  6
CONTINUOUS
 62
    30
 10
-1.96
 20
2571.000131
 30
0.0
 40
2.8
  1
90
 50
0.0000029575586669
 41
0.7
  7
STANDARD1
  0
LINE
  5
A1A
  8
SIZE
  6
CONTINUOUS
 62
    30
 10
-44.999996
 20
2210.999985
 30
0.0
 11
-44.999996
 21
2572.000229
 31
0.0
  0
LINE
  5
A1B
  8
SIZE
  6
CONTINUOUS
 62
    30
 10
45.000004
 20
2210.999985
 30
0.0
 11
45.000004
 21
2572.000229
 31
0.0
  0
LINE
  5
A1C
  8
SIZE
  6
CONTINUOUS
 62
    30
 10
-44.999996
 20
2570.000229
 30
0.0
 11
45.000004
 21
2570.000229
 31
0.0
  0
CIRCLE
  5
A1D
  8
SIZE
  6
CONTINUOUS
 62
    30
 10
-44.999996
 20
2570.000229
 30
0.0
 40
0.5
  0
CIRCLE
  5
A1E
  8
SIZE
  6
CONTINUOUS
 62
    30
 10
-44.999996
 20
2570.000229
 30
0.0
 40
0.4
  0
CIRCLE
  5
A1F
  8
SIZE
  6
CONTINUOUS
 62
    30
 10
-44.999996
 20
2570.000229
 30
0.0
 40
0.3
  0
CIRCLE
  5
A20
  8
SIZE
  6
CONTINUOUS
 62
    30
 10
-44.999996
 20
2570.000229
 30
0.0
 40
0.2
  0
CIRCLE
  5
A21
  8
SIZE
  6
CONTINUOUS
 62
    30
 10
-44.999996
 20
2570.000229
 30
0.0
 40
0.1
  0
CIRCLE
  5
A22
  8
SIZE
  6
CONTINUOUS
 62
    30
 10
45.000004
 20
2570.000229
 30
0.0
 40
0.5
  0
CIRCLE
  5
A23
  8
SIZE
  6
CONTINUOUS
 62
    30
 10
45.000004
 20
2570.000229
 30
0.0
 40
0.4
  0
CIRCLE
  5
A24
  8
SIZE
  6
CONTINUOUS
 62
    30
 10
45.000004
 20
2570.000229
 30
0.0
 40
0.3
  0
CIRCLE
  5
A25
  8
SIZE
  6
CONTINUOUS
 62
    30
 10
45.000004
 20
2570.000229
 30
0.0
 40
0.2
  0
CIRCLE
  5
A26
  8
SIZE
  6
CONTINUOUS
 62
    30
 10
45.000004
 20
2570.000229
 30
0.0
 40
0.1
  0
POINT
  5
A27
  8
DEFPOINTS
  6
CONTINUOUS
 62
     7
 10
45.000004
 20
2209.999985
 30
0.0
  0
POINT
  5
A28
  8
DEFPOINTS
  6
CONTINUOUS
 62
     7
 10
-44.999996
 20
2209.999985
 30
0.0
  0
POINT
  5
A29
  8
DEFPOINTS
  6
CONTINUOUS
 62
     7
 10
-44.999996
 20
2570.000229
 30
0.0
  0
TEXT
  5
A2A
  8
SIZE
  6
CONTINUOUS
 62
    30
 10
962.3576840000001
 20
97.060005
 30
0.0
 40
2.8
  1
200
 50
90.00000499999999
 41
0.7
  7
STANDARD1
  0
LINE
  5
A2B
  8
SIZE
  6
CONTINUOUS
 62
    30
 10
310.999981
 20
0.0
 30
0.0
 11
965.357708
 21
0.0
 31
0.0
  0
LINE
  5
A2C
  8
SIZE
  6
CONTINUOUS
 62
    30
 10
315.999981
 20
200.0
 30
0.0
 11
965.357708
 21
200.0
 31
0.0
  0
LINE
  5
A2D
  8
SIZE
  6
CONTINUOUS
 62
    30
 10
963.357708
 20
0.0
 30
0.0
 11
963.357708
 21
200.0
 31
0.0
  0
CIRCLE
  5
A2E
  8
SIZE
  6
CONTINUOUS
 62
    30
 10
963.357708
 20
0.0
 30
0.0
 40
0.5
  0
CIRCLE
  5
A2F
  8
SIZE
  6
CONTINUOUS
 62
    30
 10
963.357708
 20
0.0
 30
0.0
 40
0.4
  0
CIRCLE
  5
A30
  8
SIZE
  6
CONTINUOUS
 62
    30
 10
963.357708
 20
0.0
 30
0.0
 40
0.3
  0
CIRCLE
  5
A31
  8
SIZE
  6
CONTINUOUS
 62
    30
 10
963.357708
 20
0.0
 30
0.0
 40
0.2
  0
CIRCLE
  5
A32
  8
SIZE
  6
CONTINUOUS
 62
    30
 10
963.357708
 20
0.0
 30
0.0
 40
0.1
  0
CIRCLE
  5
A33
  8
SIZE
  6
CONTINUOUS
 62
    30
 10
963.357708
 20
200.0
 30
0.0
 40
0.5
  0
CIRCLE
  5
A34
  8
SIZE
  6
CONTINUOUS
 62
    30
 10
963.357708
 20
200.0
 30
0.0
 40
0.4
  0
CIRCLE
  5
A35
  8
SIZE
  6
CONTINUOUS
 62
    30
 10
963.357708
 20
200.0
 30
0.0
 40
0.3
  0
CIRCLE
  5
A36
  8
SIZE
  6
CONTINUOUS
 62
    30
 10
963.357708
 20
200.0
 30
0.0
 40
0.2
  0
CIRCLE
  5
A37
  8
SIZE
  6
CONTINUOUS
 62
    30
 10
963.357708
 20
200.0
 30
0.0
 40
0.1
  0
POINT
  5
A38
  8
DEFPOINTS
  6
CONTINUOUS
 62
     7
 10
314.999981
 20
200.0
 30
0.0
  0
POINT
  5
A39
  8
DEFPOINTS
  6
CONTINUOUS
 62
     7
 10
309.999981
 20
0.0
 30
0.0
  0
POINT
  5
A3A
  8
DEFPOINTS
  6
CONTINUOUS
 62
     7
 10
963.357708
 20
0.0
 30
0.0
  0
TEXT
  5
A3B
  8
SIZE
  6
CONTINUOUS
 62
    30
 10
-770.3112
 20
541.559983
 30
0.0
 40
2.8
  1
225
 50
90.00000499999999
 41
0.7
  7
STANDARD1
  0
LINE
  5
A3C
  8
SIZE
  6
CONTINUOUS
 62
    30
 10
-278.000019
 20
431.999985
 30
0.0
 11
-771.3111759999999
 21
431.999985
 31
0.0
  0
LINE
  5
A3D
  8
SIZE
  6
CONTINUOUS
 62
    30
 10
-274.000019
 20
656.999985
 30
0.0
 11
-771.3111759999999
 21
656.999985
 31
0.0
  0
LINE
  5
A3E
  8
SIZE
  6
CONTINUOUS
 62
    30
 10
-769.3111759999999
 20
431.999985
 30
0.0
 11
-769.3111759999999
 21
656.999985
 31
0.0
  0
CIRCLE
  5
A3F
  8
SIZE
  6
CONTINUOUS
 62
    30
 10
-769.3111759999999
 20
431.999985
 30
0.0
 40
0.5
  0
CIRCLE
  5
A40
  8
SIZE
  6
CONTINUOUS
 62
    30
 10
-769.3111759999999
 20
431.999985
 30
0.0
 40
0.4
  0
CIRCLE
  5
A41
  8
SIZE
  6
CONTINUOUS
 62
    30
 10
-769.3111759999999
 20
431.999985
 30
0.0
 40
0.3
  0
CIRCLE
  5
A42
  8
SIZE
  6
CONTINUOUS
 62
    30
 10
-769.3111759999999
 20
431.999985
 30
0.0
 40
0.2
  0
CIRCLE
  5
A43
  8
SIZE
  6
CONTINUOUS
 62
    30
 10
-769.3111759999999
 20
431.999985
 30
0.0
 40
0.1
  0
CIRCLE
  5
A44
  8
SIZE
  6
CONTINUOUS
 62
    30
 10
-769.3111759999999
 20
656.999985
 30
0.0
 40
0.5
  0
CIRCLE
  5
A45
  8
SIZE
  6
CONTINUOUS
 62
    30
 10
-769.3111759999999
 20
656.999985
 30
0.0
 40
0.4
  0
CIRCLE
  5
A46
  8
SIZE
  6
CONTINUOUS
 62
    30
 10
-769.3111759999999
 20
656.999985
 30
0.0
 40
0.3
  0
CIRCLE
  5
A47
  8
SIZE
  6
CONTINUOUS
 62
    30
 10
-769.3111759999999
 20
656.999985
 30
0.0
 40
0.2
  0
CIRCLE
  5
A48
  8
SIZE
  6
CONTINUOUS
 62
    30
 10
-769.3111759999999
 20
656.999985
 30
0.0
 40
0.1
  0
POINT
  5
A49
  8
DEFPOINTS
  6
CONTINUOUS
 62
     7
 10
-273.000019
 20
656.999985
 30
0.0
  0
POINT
  5
A4A
  8
DEFPOINTS
  6
CONTINUOUS
 62
     7
 10
-277.000019
 20
431.999985
 30
0.0
  0
POINT
  5
A4B
  8
DEFPOINTS
  6
CONTINUOUS
 62
     7
 10
-769.3111759999999
 20
431.999985
 30
0.0
  0
TEXT
  5
A4C
  8
SIZE
  6
CONTINUOUS
 62
    30
 10
-205.440021
 20
877.353891
 30
0.0
 40
2.8
  1
157
 50
0.0000029575586669
 41
0.7
  7
STANDARD1
  0
LINE
  5
A4D
  8
SIZE
  6
CONTINUOUS
 62
    30
 10
-281.000019
 20
779.999985
 30
0.0
 11
-281.000019
 21
878.353867
 31
0.0
  0
LINE
  5
A4E
  8
SIZE
  6
CONTINUOUS
 62
    30
 10
-124.000004
 20
779.999985
 30
0.0
 11
-124.000004
 21
878.353867
 31
0.0
  0
LINE
  5
A4F
  8
SIZE
  6
CONTINUOUS
 62
    30
 10
-281.000019
 20
876.353867
 30
0.0
 11
-124.000004
 21
876.353867
 31
0.0
  0
CIRCLE
  5
A50
  8
SIZE
  6
CONTINUOUS
 62
    30
 10
-281.000019
 20
876.353867
 30
0.0
 40
0.5
  0
CIRCLE
  5
A51
  8
SIZE
  6
CONTINUOUS
 62
    30
 10
-281.000019
 20
876.353867
 30
0.0
 40
0.4
  0
CIRCLE
  5
A52
  8
SIZE
  6
CONTINUOUS
 62
    30
 10
-281.000019
 20
876.353867
 30
0.0
 40
0.3
  0
CIRCLE
  5
A53
  8
SIZE
  6
CONTINUOUS
 62
    30
 10
-281.000019
 20
876.353867
 30
0.0
 40
0.2
  0
CIRCLE
  5
A54
  8
SIZE
  6
CONTINUOUS
 62
    30
 10
-281.000019
 20
876.353867
 30
0.0
 40
0.1
  0
CIRCLE
  5
A55
  8
SIZE
  6
CONTINUOUS
 62
    30
 10
-124.000004
 20
876.353867
 30
0.0
 40
0.5
  0
CIRCLE
  5
A56
  8
SIZE
  6
CONTINUOUS
 62
    30
 10
-124.000004
 20
876.353867
 30
0.0
 40
0.4
  0
CIRCLE
  5
A57
  8
SIZE
  6
CONTINUOUS
 62
    30
 10
-124.000004
 20
876.353867
 30
0.0
 40
0.3
  0
CIRCLE
  5
A58
  8
SIZE
  6
CONTINUOUS
 62
    30
 10
-124.000004
 20
876.353867
 30
0.0
 40
0.2
  0
CIRCLE
  5
A59
  8
SIZE
  6
CONTINUOUS
 62
    30
 10
-124.000004
 20
876.353867
 30
0.0
 40
0.1
  0
POINT
  5
A5A
  8
DEFPOINTS
  6
CONTINUOUS
 62
     7
 10
-124.000004
 20
778.999985
 30
0.0
  0
POINT
  5
A5B
  8
DEFPOINTS
  6
CONTINUOUS
 62
     7
 10
-281.000019
 20
778.999985
 30
0.0
  0
POINT
  5
A5C
  8
DEFPOINTS
  6
CONTINUOUS
 62
     7
 10
-281.000019
 20
876.353867
 30
0.0
  0
TEXT
  5
A5D
  8
SIZE
  6
CONTINUOUS
 62
    30
 10
-770.3112
 20
719.059983
 30
0.0
 40
2.8
  1
130
 50
90.00000499999999
 41
0.7
  7
STANDARD1
  0
LINE
  5
A5E
  8
SIZE
  6
CONTINUOUS
 62
    30
 10
-274.000019
 20
656.999985
 30
0.0
 11
-771.3111759999999
 21
656.999985
 31
0.0
  0
LINE
  5
A5F
  8
SIZE
  6
CONTINUOUS
 62
    30
 10
-274.000019
 20
786.999985
 30
0.0
 11
-771.3111759999999
 21
786.999985
 31
0.0
  0
LINE
  5
A60
  8
SIZE
  6
CONTINUOUS
 62
    30
 10
-769.3111759999999
 20
656.999985
 30
0.0
 11
-769.3111759999999
 21
786.999985
 31
0.0
  0
CIRCLE
  5
A61
  8
SIZE
  6
CONTINUOUS
 62
    30
 10
-769.3111759999999
 20
656.999985
 30
0.0
 40
0.5
  0
CIRCLE
  5
A62
  8
SIZE
  6
CONTINUOUS
 62
    30
 10
-769.3111759999999
 20
656.999985
 30
0.0
 40
0.4
  0
CIRCLE
  5
A63
  8
SIZE
  6
CONTINUOUS
 62
    30
 10
-769.3111759999999
 20
656.999985
 30
0.0
 40
0.3
  0
CIRCLE
  5
A64
  8
SIZE
  6
CONTINUOUS
 62
    30
 10
-769.3111759999999
 20
656.999985
 30
0.0
 40
0.2
  0
CIRCLE
  5
A65
  8
SIZE
  6
CONTINUOUS
 62
    30
 10
-769.3111759999999
 20
656.999985
 30
0.0
 40
0.1
  0
CIRCLE
  5
A66
  8
SIZE
  6
CONTINUOUS
 62
    30
 10
-769.3111759999999
 20
786.999985
 30
0.0
 40
0.5
  0
CIRCLE
  5
A67
  8
SIZE
  6
CONTINUOUS
 62
    30
 10
-769.3111759999999
 20
786.999985
 30
0.0
 40
0.4
  0
CIRCLE
  5
A68
  8
SIZE
  6
CONTINUOUS
 62
    30
 10
-769.3111759999999
 20
786.999985
 30
0.0
 40
0.3
  0
CIRCLE
  5
A69
  8
SIZE
  6
CONTINUOUS
 62
    30
 10
-769.3111759999999
 20
786.999985
 30
0.0
 40
0.2
  0
CIRCLE
  5
A6A
  8
SIZE
  6
CONTINUOUS
 62
    30
 10
-769.3111759999999
 20
786.999985
 30
0.0
 40
0.1
  0
POINT
  5
A6B
  8
DEFPOINTS
  6
CONTINUOUS
 62
     7
 10
-273.000019
 20
786.999985
 30
0.0
  0
POINT
  5
A6C
  8
DEFPOINTS
  6
CONTINUOUS
 62
     7
 10
-273.000019
 20
656.999985
 30
0.0
  0
POINT
  5
A6D
  8
DEFPOINTS
  6
CONTINUOUS
 62
     7
 10
-769.3111759999999
 20
656.999985
 30
0.0
  0
TEXT
  5
A6E
  8
SIZE
  6
CONTINUOUS
 62
    30
 10
-670.3112
 20
197.059998
 30
0.0
 40
2.8
  1
400
 50
90.00000499999999
 41
0.7
  7
STANDARD1
  0
LINE
  5
A6F
  8
SIZE
  6
CONTINUOUS
 62
    30
 10
-316.000019
 20
399.999985
 30
0.0
 11
-671.3111759999999
 21
399.999985
 31
0.0
  0
LINE
  5
A70
  8
SIZE
  6
CONTINUOUS
 62
    30
 10
-311.000019
 20
0.0
 30
0.0
 11
-671.3111759999999
 21
0.0
 31
0.0
  0
LINE
  5
A71
  8
SIZE
  6
CONTINUOUS
 62
    30
 10
-669.3111759999999
 20
399.999985
 30
0.0
 11
-669.3111759999999
 21
0.0
 31
0.0
  0
CIRCLE
  5
A72
  8
SIZE
  6
CONTINUOUS
 62
    30
 10
-669.3111759999999
 20
399.999985
 30
0.0
 40
0.5
  0
CIRCLE
  5
A73
  8
SIZE
  6
CONTINUOUS
 62
    30
 10
-669.3111759999999
 20
399.999985
 30
0.0
 40
0.4
  0
CIRCLE
  5
A74
  8
SIZE
  6
CONTINUOUS
 62
    30
 10
-669.3111759999999
 20
399.999985
 30
0.0
 40
0.3
  0
CIRCLE
  5
A75
  8
SIZE
  6
CONTINUOUS
 62
    30
 10
-669.3111759999999
 20
399.999985
 30
0.0
 40
0.2
  0
CIRCLE
  5
A76
  8
SIZE
  6
CONTINUOUS
 62
    30
 10
-669.3111759999999
 20
399.999985
 30
0.0
 40
0.1
  0
CIRCLE
  5
A77
  8
SIZE
  6
CONTINUOUS
 62
    30
 10
-669.3111759999999
 20
0.0
 30
0.0
 40
0.5
  0
CIRCLE
  5
A78
  8
SIZE
  6
CONTINUOUS
 62
    30
 10
-669.3111759999999
 20
0.0
 30
0.0
 40
0.4
  0
CIRCLE
  5
A79
  8
SIZE
  6
CONTINUOUS
 62
    30
 10
-669.3111759999999
 20
0.0
 30
0.0
 40
0.3
  0
CIRCLE
  5
A7A
  8
SIZE
  6
CONTINUOUS
 62
    30
 10
-669.3111759999999
 20
0.0
 30
0.0
 40
0.2
  0
CIRCLE
  5
A7B
  8
SIZE
  6
CONTINUOUS
 62
    30
 10
-669.3111759999999
 20
0.0
 30
0.0
 40
0.1
  0
POINT
  5
A7C
  8
DEFPOINTS
  6
CONTINUOUS
 62
     7
 10
-310.000019
 20
0.0
 30
0.0
  0
POINT
  5
A7D
  8
DEFPOINTS
  6
CONTINUOUS
 62
     7
 10
-315.000019
 20
399.999985
 30
0.0
  0
POINT
  5
A7E
  8
DEFPOINTS
  6
CONTINUOUS
 62
     7
 10
-669.3111759999999
 20
399.999985
 30
0.0
  0
TEXT
  5
A7F
  8
SIZE
  6
CONTINUOUS
 62
    30
 10
-1.96
 20
2471.000131
 30
0.0
 40
2.8
  1
60
 50
0.0000029575586669
 41
0.7
  7
STANDARD1
  0
LINE
  5
A80
  8
SIZE
  6
CONTINUOUS
 62
    30
 10
-30.0
 20
2213.999985
 30
0.0
 11
-30.0
 21
2472.000229
 31
0.0
  0
LINE
  5
A81
  8
SIZE
  6
CONTINUOUS
 62
    30
 10
30.0
 20
2213.999985
 30
0.0
 11
30.0
 21
2472.000229
 31
0.0
  0
LINE
  5
A82
  8
SIZE
  6
CONTINUOUS
 62
    30
 10
-30.0
 20
2470.000229
 30
0.0
 11
30.0
 21
2470.000229
 31
0.0
  0
CIRCLE
  5
A83
  8
SIZE
  6
CONTINUOUS
 62
    30
 10
-30.0
 20
2470.000229
 30
0.0
 40
0.5
  0
CIRCLE
  5
A84
  8
SIZE
  6
CONTINUOUS
 62
    30
 10
-30.0
 20
2470.000229
 30
0.0
 40
0.4
  0
CIRCLE
  5
A85
  8
SIZE
  6
CONTINUOUS
 62
    30
 10
-30.0
 20
2470.000229
 30
0.0
 40
0.3
  0
CIRCLE
  5
A86
  8
SIZE
  6
CONTINUOUS
 62
    30
 10
-30.0
 20
2470.000229
 30
0.0
 40
0.2
  0
CIRCLE
  5
A87
  8
SIZE
  6
CONTINUOUS
 62
    30
 10
-30.0
 20
2470.000229
 30
0.0
 40
0.1
  0
CIRCLE
  5
A88
  8
SIZE
  6
CONTINUOUS
 62
    30
 10
30.0
 20
2470.000229
 30
0.0
 40
0.5
  0
CIRCLE
  5
A89
  8
SIZE
  6
CONTINUOUS
 62
    30
 10
30.0
 20
2470.000229
 30
0.0
 40
0.4
  0
CIRCLE
  5
A8A
  8
SIZE
  6
CONTINUOUS
 62
    30
 10
30.0
 20
2470.000229
 30
0.0
 40
0.3
  0
CIRCLE
  5
A8B
  8
SIZE
  6
CONTINUOUS
 62
    30
 10
30.0
 20
2470.000229
 30
0.0
 40
0.2
  0
CIRCLE
  5
A8C
  8
SIZE
  6
CONTINUOUS
 62
    30
 10
30.0
 20
2470.000229
 30
0.0
 40
0.1
  0
POINT
  5
A8D
  8
DEFPOINTS
  6
CONTINUOUS
 62
     7
 10
30.0
 20
2212.999985
 30
0.0
  0
POINT
  5
A8E
  8
DEFPOINTS
  6
CONTINUOUS
 62
     7
 10
-30.0
 20
2212.999985
 30
0.0
  0
POINT
  5
A8F
  8
DEFPOINTS
  6
CONTINUOUS
 62
     7
 10
-30.0
 20
2470.000229
 30
0.0
  0
TEXT
  5
A90
  8
SIZE
  6
CONTINUOUS
 62
    30
 10
-1.009974
 20
-683.060416
 30
0.0
 40
2.8
  1
496
 50
0.0000029575586669
 41
0.7
  7
STANDARD1
  0
LINE
  5
A91
  8
SIZE
  6
CONTINUOUS
 62
    30
 10
247.999981
 20
-21.0
 30
0.0
 11
247.999981
 21
-686.06044
 31
0.0
  0
LINE
  5
A92
  8
SIZE
  6
CONTINUOUS
 62
    30
 10
-248.000019
 20
-21.0
 30
0.0
 11
-248.000019
 21
-686.06044
 31
0.0
  0
LINE
  5
A93
  8
SIZE
  6
CONTINUOUS
 62
    30
 10
247.999981
 20
-684.06044
 30
0.0
 11
-248.000019
 21
-684.06044
 31
0.0
  0
CIRCLE
  5
A94
  8
SIZE
  6
CONTINUOUS
 62
    30
 10
247.999981
 20
-684.06044
 30
0.0
 40
0.5
  0
CIRCLE
  5
A95
  8
SIZE
  6
CONTINUOUS
 62
    30
 10
247.999981
 20
-684.06044
 30
0.0
 40
0.4
  0
CIRCLE
  5
A96
  8
SIZE
  6
CONTINUOUS
 62
    30
 10
247.999981
 20
-684.06044
 30
0.0
 40
0.3
  0
CIRCLE
  5
A97
  8
SIZE
  6
CONTINUOUS
 62
    30
 10
247.999981
 20
-684.06044
 30
0.0
 40
0.2
  0
CIRCLE
  5
A98
  8
SIZE
  6
CONTINUOUS
 62
    30
 10
247.999981
 20
-684.06044
 30
0.0
 40
0.1
  0
CIRCLE
  5
A99
  8
SIZE
  6
CONTINUOUS
 62
    30
 10
-248.000019
 20
-684.06044
 30
0.0
 40
0.5
  0
CIRCLE
  5
A9A
  8
SIZE
  6
CONTINUOUS
 62
    30
 10
-248.000019
 20
-684.06044
 30
0.0
 40
0.4
  0
CIRCLE
  5
A9B
  8
SIZE
  6
CONTINUOUS
 62
    30
 10
-248.000019
 20
-684.06044
 30
0.0
 40
0.3
  0
CIRCLE
  5
A9C
  8
SIZE
  6
CONTINUOUS
 62
    30
 10
-248.000019
 20
-684.06044
 30
0.0
 40
0.2
  0
CIRCLE
  5
A9D
  8
SIZE
  6
CONTINUOUS
 62
    30
 10
-248.000019
 20
-684.06044
 30
0.0
 40
0.1
  0
POINT
  5
A9E
  8
DEFPOINTS
  6
CONTINUOUS
 62
     7
 10
-248.000019
 20
-20.0
 30
0.0
  0
POINT
  5
A9F
  8
DEFPOINTS
  6
CONTINUOUS
 62
     7
 10
247.999981
 20
-20.0
 30
0.0
  0
POINT
  5
AA0
  8
DEFPOINTS
  6
CONTINUOUS
 62
     7
 10
247.999981
 20
-684.06044
 30
0.0
  0
TEXT
  5
AA1
  8
SIZE
  6
CONTINUOUS
 62
    30
 10
-470.311231
 20
74.560005
 30
0.0
 40
2.8
  1
155
 50
90.00000499999999
 41
0.7
  7
STANDARD1
  0
LINE
  5
AA2
  8
SIZE
  6
CONTINUOUS
 62
    30
 10
-209.000019
 20
155.0
 30
0.0
 11
-471.311237
 21
155.0
 31
0.0
  0
LINE
  5
AA3
  8
SIZE
  6
CONTINUOUS
 62
    30
 10
-311.000019
 20
0.0
 30
0.0
 11
-471.311237
 21
0.0
 31
0.0
  0
LINE
  5
AA4
  8
SIZE
  6
CONTINUOUS
 62
    30
 10
-469.311237
 20
155.0
 30
0.0
 11
-469.311237
 21
0.0
 31
0.0
  0
CIRCLE
  5
AA5
  8
SIZE
  6
CONTINUOUS
 62
    30
 10
-469.311237
 20
155.0
 30
0.0
 40
0.5
  0
CIRCLE
  5
AA6
  8
SIZE
  6
CONTINUOUS
 62
    30
 10
-469.311237
 20
155.0
 30
0.0
 40
0.4
  0
CIRCLE
  5
AA7
  8
SIZE
  6
CONTINUOUS
 62
    30
 10
-469.311237
 20
155.0
 30
0.0
 40
0.3
  0
CIRCLE
  5
AA8
  8
SIZE
  6
CONTINUOUS
 62
    30
 10
-469.311237
 20
155.0
 30
0.0
 40
0.2
  0
CIRCLE
  5
AA9
  8
SIZE
  6
CONTINUOUS
 62
    30
 10
-469.311237
 20
155.0
 30
0.0
 40
0.1
  0
CIRCLE
  5
AAA
  8
SIZE
  6
CONTINUOUS
 62
    30
 10
-469.311237
 20
0.0
 30
0.0
 40
0.5
  0
CIRCLE
  5
AAB
  8
SIZE
  6
CONTINUOUS
 62
    30
 10
-469.311237
 20
0.0
 30
0.0
 40
0.4
  0
CIRCLE
  5
AAC
  8
SIZE
  6
CONTINUOUS
 62
    30
 10
-469.311237
 20
0.0
 30
0.0
 40
0.3
  0
CIRCLE
  5
AAD
  8
SIZE
  6
CONTINUOUS
 62
    30
 10
-469.311237
 20
0.0
 30
0.0
 40
0.2
  0
CIRCLE
  5
AAE
  8
SIZE
  6
CONTINUOUS
 62
    30
 10
-469.311237
 20
0.0
 30
0.0
 40
0.1
  0
POINT
  5
AAF
  8
DEFPOINTS
  6
CONTINUOUS
 62
     7
 10
-310.000019
 20
0.0
 30
0.0
  0
POINT
  5
AB0
  8
DEFPOINTS
  6
CONTINUOUS
 62
     7
 10
-208.000019
 20
155.0
 30
0.0
  0
POINT
  5
AB1
  8
DEFPOINTS
  6
CONTINUOUS
 62
     7
 10
-469.311237
 20
155.0
 30
0.0
  0
TEXT
  5
AB2
  8
SIZE
  6
CONTINUOUS
 62
    30
 10
462.357684
 20
83.310005
 30
0.0
 40
2.8
  1
173
 50
90.00000499999999
 41
0.7
  7
STANDARD1
  0
LINE
  5
AB3
  8
SIZE
  6
CONTINUOUS
 62
    30
 10
129.023091
 20
172.5
 30
0.0
 11
465.357678
 21
172.5
 31
0.0
  0
LINE
  5
AB4
  8
SIZE
  6
CONTINUOUS
 62
    30
 10
268.999981
 20
0.0
 30
0.0
 11
465.357678
 21
0.0
 31
0.0
  0
LINE
  5
AB5
  8
SIZE
  6
CONTINUOUS
 62
    30
 10
463.357678
 20
172.5
 30
0.0
 11
463.357678
 21
0.0
 31
0.0
  0
CIRCLE
  5
AB6
  8
SIZE
  6
CONTINUOUS
 62
    30
 10
463.357678
 20
172.5
 30
0.0
 40
0.5
  0
CIRCLE
  5
AB7
  8
SIZE
  6
CONTINUOUS
 62
    30
 10
463.357678
 20
172.5
 30
0.0
 40
0.4
  0
CIRCLE
  5
AB8
  8
SIZE
  6
CONTINUOUS
 62
    30
 10
463.357678
 20
172.5
 30
0.0
 40
0.3
  0
CIRCLE
  5
AB9
  8
SIZE
  6
CONTINUOUS
 62
    30
 10
463.357678
 20
172.5
 30
0.0
 40
0.2
  0
CIRCLE
  5
ABA
  8
SIZE
  6
CONTINUOUS
 62
    30
 10
463.357678
 20
172.5
 30
0.0
 40
0.1
  0
CIRCLE
  5
ABB
  8
SIZE
  6
CONTINUOUS
 62
    30
 10
463.357678
 20
0.0
 30
0.0
 40
0.5
  0
CIRCLE
  5
ABC
  8
SIZE
  6
CONTINUOUS
 62
    30
 10
463.357678
 20
0.0
 30
0.0
 40
0.4
  0
CIRCLE
  5
ABD
  8
SIZE
  6
CONTINUOUS
 62
    30
 10
463.357678
 20
0.0
 30
0.0
 40
0.3
  0
CIRCLE
  5
ABE
  8
SIZE
  6
CONTINUOUS
 62
    30
 10
463.357678
 20
0.0
 30
0.0
 40
0.2
  0
CIRCLE
  5
ABF
  8
SIZE
  6
CONTINUOUS
 62
    30
 10
463.357678
 20
0.0
 30
0.0
 40
0.1
  0
POINT
  5
AC0
  8
DEFPOINTS
  6
CONTINUOUS
 62
     7
 10
267.999981
 20
0.0
 30
0.0
  0
POINT
  5
AC1
  8
DEFPOINTS
  6
CONTINUOUS
 62
     7
 10
128.023091
 20
172.5
 30
0.0
  0
POINT
  5
AC2
  8
DEFPOINTS
  6
CONTINUOUS
 62
     7
 10
463.357678
 20
172.5
 30
0.0
  0
TEXT
  5
AC3
  8
SIZE
  6
CONTINUOUS
 62
    30
 10
662.3576840000001
 20
177.059998
 30
0.0
 40
2.8
  1
360
 50
90.00000499999999
 41
0.7
  7
STANDARD1
  0
LINE
  5
AC4
  8
SIZE
  6
CONTINUOUS
 62
    30
 10
275.999981
 20
359.999985
 30
0.0
 11
665.357708
 21
359.999985
 31
0.0
  0
LINE
  5
AC5
  8
SIZE
  6
CONTINUOUS
 62
    30
 10
275.999981
 20
0.0
 30
0.0
 11
665.357708
 21
0.0
 31
0.0
  0
LINE
  5
AC6
  8
SIZE
  6
CONTINUOUS
 62
    30
 10
663.357708
 20
359.999985
 30
0.0
 11
663.357708
 21
0.0
 31
0.0
  0
CIRCLE
  5
AC7
  8
SIZE
  6
CONTINUOUS
 62
    30
 10
663.357708
 20
359.999985
 30
0.0
 40
0.5
  0
CIRCLE
  5
AC8
  8
SIZE
  6
CONTINUOUS
 62
    30
 10
663.357708
 20
359.999985
 30
0.0
 40
0.4
  0
CIRCLE
  5
AC9
  8
SIZE
  6
CONTINUOUS
 62
    30
 10
663.357708
 20
359.999985
 30
0.0
 40
0.3
  0
CIRCLE
  5
ACA
  8
SIZE
  6
CONTINUOUS
 62
    30
 10
663.357708
 20
359.999985
 30
0.0
 40
0.2
  0
CIRCLE
  5
ACB
  8
SIZE
  6
CONTINUOUS
 62
    30
 10
663.357708
 20
359.999985
 30
0.0
 40
0.1
  0
CIRCLE
  5
ACC
  8
SIZE
  6
CONTINUOUS
 62
    30
 10
663.357708
 20
0.0
 30
0.0
 40
0.5
  0
CIRCLE
  5
ACD
  8
SIZE
  6
CONTINUOUS
 62
    30
 10
663.357708
 20
0.0
 30
0.0
 40
0.4
  0
CIRCLE
  5
ACE
  8
SIZE
  6
CONTINUOUS
 62
    30
 10
663.357708
 20
0.0
 30
0.0
 40
0.3
  0
CIRCLE
  5
ACF
  8
SIZE
  6
CONTINUOUS
 62
    30
 10
663.357708
 20
0.0
 30
0.0
 40
0.2
  0
CIRCLE
  5
AD0
  8
SIZE
  6
CONTINUOUS
 62
    30
 10
663.357708
 20
0.0
 30
0.0
 40
0.1
  0
POINT
  5
AD1
  8
DEFPOINTS
  6
CONTINUOUS
 62
     7
 10
274.999981
 20
0.0
 30
0.0
  0
POINT
  5
AD2
  8
DEFPOINTS
  6
CONTINUOUS
 62
     7
 10
274.999981
 20
359.999985
 30
0.0
  0
POINT
  5
AD3
  8
DEFPOINTS
  6
CONTINUOUS
 62
     7
 10
663.357708
 20
359.999985
 30
0.0
  0
TEXT
  5
AD4
  8
SIZE
  6
CONTINUOUS
 62
    30
 10
762.3576840000001
 20
197.059998
 30
0.0
 40
2.8
  1
400
 50
90.00000499999999
 41
0.7
  7
STANDARD1
  0
LINE
  5
AD5
  8
SIZE
  6
CONTINUOUS
 62
    30
 10
315.999981
 20
399.999985
 30
0.0
 11
765.357708
 21
399.999985
 31
0.0
  0
LINE
  5
AD6
  8
SIZE
  6
CONTINUOUS
 62
    30
 10
315.999981
 20
0.0
 30
0.0
 11
765.357708
 21
0.0
 31
0.0
  0
LINE
  5
AD7
  8
SIZE
  6
CONTINUOUS
 62
    30
 10
763.357708
 20
399.999985
 30
0.0
 11
763.357708
 21
0.0
 31
0.0
  0
CIRCLE
  5
AD8
  8
SIZE
  6
CONTINUOUS
 62
    30
 10
763.357708
 20
399.999985
 30
0.0
 40
0.5
  0
CIRCLE
  5
AD9
  8
SIZE
  6
CONTINUOUS
 62
    30
 10
763.357708
 20
399.999985
 30
0.0
 40
0.4
  0
CIRCLE
  5
ADA
  8
SIZE
  6
CONTINUOUS
 62
    30
 10
763.357708
 20
399.999985
 30
0.0
 40
0.3
  0
CIRCLE
  5
ADB
  8
SIZE
  6
CONTINUOUS
 62
    30
 10
763.357708
 20
399.999985
 30
0.0
 40
0.2
  0
CIRCLE
  5
ADC
  8
SIZE
  6
CONTINUOUS
 62
    30
 10
763.357708
 20
399.999985
 30
0.0
 40
0.1
  0
CIRCLE
  5
ADD
  8
SIZE
  6
CONTINUOUS
 62
    30
 10
763.357708
 20
0.0
 30
0.0
 40
0.5
  0
CIRCLE
  5
ADE
  8
SIZE
  6
CONTINUOUS
 62
    30
 10
763.357708
 20
0.0
 30
0.0
 40
0.4
  0
CIRCLE
  5
ADF
  8
SIZE
  6
CONTINUOUS
 62
    30
 10
763.357708
 20
0.0
 30
0.0
 40
0.3
  0
CIRCLE
  5
AE0
  8
SIZE
  6
CONTINUOUS
 62
    30
 10
763.357708
 20
0.0
 30
0.0
 40
0.2
  0
CIRCLE
  5
AE1
  8
SIZE
  6
CONTINUOUS
 62
    30
 10
763.357708
 20
0.0
 30
0.0
 40
0.1
  0
POINT
  5
AE2
  8
DEFPOINTS
  6
CONTINUOUS
 62
     7
 10
314.999981
 20
0.0
 30
0.0
  0
POINT
  5
AE3
  8
DEFPOINTS
  6
CONTINUOUS
 62
     7
 10
314.999981
 20
399.999985
 30
0.0
  0
POINT
  5
AE4
  8
DEFPOINTS
  6
CONTINUOUS
 62
     7
 10
763.357708
 20
399.999985
 30
0.0
  0
TEXT
  5
AE5
  8
SIZE
  6
CONTINUOUS
 62
    30
 10
246.039975
 20
-783.060416
 30
0.0
 40
2.8
  1
94
 50
0.0000029575586669
 41
0.7
  7
STANDARD1
  0
LINE
  5
AE6
  8
SIZE
  6
CONTINUOUS
 62
    30
 10
200.999981
 20
-21.0
 30
0.0
 11
200.999981
 21
-786.06044
 31
0.0
  0
LINE
  5
AE7
  8
SIZE
  6
CONTINUOUS
 62
    30
 10
294.999981
 20
-21.0
 30
0.0
 11
294.999981
 21
-786.06044
 31
0.0
  0
LINE
  5
AE8
  8
SIZE
  6
CONTINUOUS
 62
    30
 10
200.999981
 20
-784.06044
 30
0.0
 11
294.999981
 21
-784.06044
 31
0.0
  0
CIRCLE
  5
AE9
  8
SIZE
  6
CONTINUOUS
 62
    30
 10
200.999981
 20
-784.06044
 30
0.0
 40
0.5
  0
CIRCLE
  5
AEA
  8
SIZE
  6
CONTINUOUS
 62
    30
 10
200.999981
 20
-784.06044
 30
0.0
 40
0.4
  0
CIRCLE
  5
AEB
  8
SIZE
  6
CONTINUOUS
 62
    30
 10
200.999981
 20
-784.06044
 30
0.0
 40
0.3
  0
CIRCLE
  5
AEC
  8
SIZE
  6
CONTINUOUS
 62
    30
 10
200.999981
 20
-784.06044
 30
0.0
 40
0.2
  0
CIRCLE
  5
AED
  8
SIZE
  6
CONTINUOUS
 62
    30
 10
200.999981
 20
-784.06044
 30
0.0
 40
0.1
  0
CIRCLE
  5
AEE
  8
SIZE
  6
CONTINUOUS
 62
    30
 10
294.999981
 20
-784.06044
 30
0.0
 40
0.5
  0
CIRCLE
  5
AEF
  8
SIZE
  6
CONTINUOUS
 62
    30
 10
294.999981
 20
-784.06044
 30
0.0
 40
0.4
  0
CIRCLE
  5
AF0
  8
SIZE
  6
CONTINUOUS
 62
    30
 10
294.999981
 20
-784.06044
 30
0.0
 40
0.3
  0
CIRCLE
  5
AF1
  8
SIZE
  6
CONTINUOUS
 62
    30
 10
294.999981
 20
-784.06044
 30
0.0
 40
0.2
  0
CIRCLE
  5
AF2
  8
SIZE
  6
CONTINUOUS
 62
    30
 10
294.999981
 20
-784.06044
 30
0.0
 40
0.1
  0
POINT
  5
AF3
  8
DEFPOINTS
  6
CONTINUOUS
 62
     7
 10
294.999981
 20
-20.0
 30
0.0
  0
POINT
  5
AF4
  8
DEFPOINTS
  6
CONTINUOUS
 62
     7
 10
200.999981
 20
-20.0
 30
0.0
  0
POINT
  5
AF5
  8
DEFPOINTS
  6
CONTINUOUS
 62
     7
 10
200.999981
 20
-784.06044
 30
0.0
  0
TEXT
  5
AF6
  8
SIZE
  6
CONTINUOUS
 62
    30
 10
-770.3112
 20
213.059998
 30
0.0
 40
2.8
  1
432
 50
90.00000499999999
 41
0.7
  7
STANDARD1
  0
LINE
  5
AF7
  8
SIZE
  6
CONTINUOUS
 62
    30
 10
-278.000019
 20
431.999985
 30
0.0
 11
-771.3111759999999
 21
431.999985
 31
0.0
  0
LINE
  5
AF8
  8
SIZE
  6
CONTINUOUS
 62
    30
 10
-276.000019
 20
0.0
 30
0.0
 11
-771.3111759999999
 21
0.0
 31
0.0
  0
LINE
  5
AF9
  8
SIZE
  6
CONTINUOUS
 62
    30
 10
-769.3111759999999
 20
431.999985
 30
0.0
 11
-769.3111759999999
 21
0.0
 31
0.0
  0
CIRCLE
  5
AFA
  8
SIZE
  6
CONTINUOUS
 62
    30
 10
-769.3111759999999
 20
431.999985
 30
0.0
 40
0.5
  0
CIRCLE
  5
AFB
  8
SIZE
  6
CONTINUOUS
 62
    30
 10
-769.3111759999999
 20
431.999985
 30
0.0
 40
0.4
  0
CIRCLE
  5
AFC
  8
SIZE
  6
CONTINUOUS
 62
    30
 10
-769.3111759999999
 20
431.999985
 30
0.0
 40
0.3
  0
CIRCLE
  5
AFD
  8
SIZE
  6
CONTINUOUS
 62
    30
 10
-769.3111759999999
 20
431.999985
 30
0.0
 40
0.2
  0
CIRCLE
  5
AFE
  8
SIZE
  6
CONTINUOUS
 62
    30
 10
-769.3111759999999
 20
431.999985
 30
0.0
 40
0.1
  0
CIRCLE
  5
AFF
  8
SIZE
  6
CONTINUOUS
 62
    30
 10
-769.3111759999999
 20
0.0
 30
0.0
 40
0.5
  0
CIRCLE
  5
B00
  8
SIZE
  6
CONTINUOUS
 62
    30
 10
-769.3111759999999
 20
0.0
 30
0.0
 40
0.4
  0
CIRCLE
  5
B01
  8
SIZE
  6
CONTINUOUS
 62
    30
 10
-769.3111759999999
 20
0.0
 30
0.0
 40
0.3
  0
CIRCLE
  5
B02
  8
SIZE
  6
CONTINUOUS
 62
    30
 10
-769.3111759999999
 20
0.0
 30
0.0
 40
0.2
  0
CIRCLE
  5
B03
  8
SIZE
  6
CONTINUOUS
 62
    30
 10
-769.3111759999999
 20
0.0
 30
0.0
 40
0.1
  0
POINT
  5
B04
  8
DEFPOINTS
  6
CONTINUOUS
 62
     7
 10
-275.000019
 20
0.0
 30
0.0
  0
POINT
  5
B05
  8
DEFPOINTS
  6
CONTINUOUS
 62
     7
 10
-277.000019
 20
431.999985
 30
0.0
  0
POINT
  5
B06
  8
DEFPOINTS
  6
CONTINUOUS
 62
     7
 10
-769.3111759999999
 20
431.999985
 30
0.0
  0
TEXT
  5
B07
  8
SIZE
  6
CONTINUOUS
 62
    30
 10
1.11405
 20
-783.060416
 30
0.0
 40
2.8
  1
402
 50
0.0000029575586669
 41
0.7
  7
STANDARD1
  0
LINE
  5
B08
  8
SIZE
  6
CONTINUOUS
 62
    30
 10
200.999981
 20
-21.0
 30
0.0
 11
200.999981
 21
-786.06044
 31
0.0
  0
LINE
  5
B09
  8
SIZE
  6
CONTINUOUS
 62
    30
 10
-201.000019
 20
-21.0
 30
0.0
 11
-201.000019
 21
-786.06044
 31
0.0
  0
LINE
  5
B0A
  8
SIZE
  6
CONTINUOUS
 62
    30
 10
200.999981
 20
-784.06044
 30
0.0
 11
-201.000019
 21
-784.06044
 31
0.0
  0
CIRCLE
  5
B0B
  8
SIZE
  6
CONTINUOUS
 62
    30
 10
200.999981
 20
-784.06044
 30
0.0
 40
0.5
  0
CIRCLE
  5
B0C
  8
SIZE
  6
CONTINUOUS
 62
    30
 10
200.999981
 20
-784.06044
 30
0.0
 40
0.4
  0
CIRCLE
  5
B0D
  8
SIZE
  6
CONTINUOUS
 62
    30
 10
200.999981
 20
-784.06044
 30
0.0
 40
0.3
  0
CIRCLE
  5
B0E
  8
SIZE
  6
CONTINUOUS
 62
    30
 10
200.999981
 20
-784.06044
 30
0.0
 40
0.2
  0
CIRCLE
  5
B0F
  8
SIZE
  6
CONTINUOUS
 62
    30
 10
200.999981
 20
-784.06044
 30
0.0
 40
0.1
  0
CIRCLE
  5
B10
  8
SIZE
  6
CONTINUOUS
 62
    30
 10
-201.000019
 20
-784.06044
 30
0.0
 40
0.5
  0
CIRCLE
  5
B11
  8
SIZE
  6
CONTINUOUS
 62
    30
 10
-201.000019
 20
-784.06044
 30
0.0
 40
0.4
  0
CIRCLE
  5
B12
  8
SIZE
  6
CONTINUOUS
 62
    30
 10
-201.000019
 20
-784.06044
 30
0.0
 40
0.3
  0
CIRCLE
  5
B13
  8
SIZE
  6
CONTINUOUS
 62
    30
 10
-201.000019
 20
-784.06044
 30
0.0
 40
0.2
  0
CIRCLE
  5
B14
  8
SIZE
  6
CONTINUOUS
 62
    30
 10
-201.000019
 20
-784.06044
 30
0.0
 40
0.1
  0
POINT
  5
B15
  8
DEFPOINTS
  6
CONTINUOUS
 62
     7
 10
-201.000019
 20
-20.0
 30
0.0
  0
POINT
  5
B16
  8
DEFPOINTS
  6
CONTINUOUS
 62
     7
 10
200.999981
 20
-20.0
 30
0.0
  0
POINT
  5
B17
  8
DEFPOINTS
  6
CONTINUOUS
 62
     7
 10
200.999981
 20
-784.06044
 30
0.0
  0
TEXT
  5
B18
  8
SIZE
  6
CONTINUOUS
 62
    30
 10
-249.960025
 20
-783.060416
 30
0.0
 40
2.8
  1
94
 50
0.0000029575586669
 41
0.7
  7
STANDARD1
  0
LINE
  5
B19
  8
SIZE
  6
CONTINUOUS
 62
    30
 10
-295.000019
 20
-21.0
 30
0.0
 11
-295.000019
 21
-786.06044
 31
0.0
  0
LINE
  5
B1A
  8
SIZE
  6
CONTINUOUS
 62
    30
 10
-201.000019
 20
-21.0
 30
0.0
 11
-201.000019
 21
-786.06044
 31
0.0
  0
LINE
  5
B1B
  8
SIZE
  6
CONTINUOUS
 62
    30
 10
-295.000019
 20
-784.06044
 30
0.0
 11
-201.000019
 21
-784.06044
 31
0.0
  0
CIRCLE
  5
B1C
  8
SIZE
  6
CONTINUOUS
 62
    30
 10
-295.000019
 20
-784.06044
 30
0.0
 40
0.5
  0
CIRCLE
  5
B1D
  8
SIZE
  6
CONTINUOUS
 62
    30
 10
-295.000019
 20
-784.06044
 30
0.0
 40
0.4
  0
CIRCLE
  5
B1E
  8
SIZE
  6
CONTINUOUS
 62
    30
 10
-295.000019
 20
-784.06044
 30
0.0
 40
0.3
  0
CIRCLE
  5
B1F
  8
SIZE
  6
CONTINUOUS
 62
    30
 10
-295.000019
 20
-784.06044
 30
0.0
 40
0.2
  0
CIRCLE
  5
B20
  8
SIZE
  6
CONTINUOUS
 62
    30
 10
-295.000019
 20
-784.06044
 30
0.0
 40
0.1
  0
CIRCLE
  5
B21
  8
SIZE
  6
CONTINUOUS
 62
    30
 10
-201.000019
 20
-784.06044
 30
0.0
 40
0.5
  0
CIRCLE
  5
B22
  8
SIZE
  6
CONTINUOUS
 62
    30
 10
-201.000019
 20
-784.06044
 30
0.0
 40
0.4
  0
CIRCLE
  5
B23
  8
SIZE
  6
CONTINUOUS
 62
    30
 10
-201.000019
 20
-784.06044
 30
0.0
 40
0.3
  0
CIRCLE
  5
B24
  8
SIZE
  6
CONTINUOUS
 62
    30
 10
-201.000019
 20
-784.06044
 30
0.0
 40
0.2
  0
CIRCLE
  5
B25
  8
SIZE
  6
CONTINUOUS
 62
    30
 10
-201.000019
 20
-784.06044
 30
0.0
 40
0.1
  0
POINT
  5
B26
  8
DEFPOINTS
  6
CONTINUOUS
 62
     7
 10
-201.000019
 20
-20.0
 30
0.0
  0
POINT
  5
B27
  8
DEFPOINTS
  6
CONTINUOUS
 62
     7
 10
-295.000019
 20
-20.0
 30
0.0
  0
POINT
  5
B28
  8
DEFPOINTS
  6
CONTINUOUS
 62
     7
 10
-295.000019
 20
-784.06044
 30
0.0
  0
TEXT
  5
B29
  8
SIZE
  6
CONTINUOUS
 62
    30
 10
-570.3112
 20
157.059998
 30
0.0
 40
2.8
  1
320
 50
90.00000499999999
 41
0.7
  7
STANDARD1
  0
LINE
  5
B2A
  8
SIZE
  6
CONTINUOUS
 62
    30
 10
-251.000019
 20
319.999985
 30
0.0
 11
-571.3111759999999
 21
319.999985
 31
0.0
  0
LINE
  5
B2B
  8
SIZE
  6
CONTINUOUS
 62
    30
 10
-311.000019
 20
0.0
 30
0.0
 11
-571.3111759999999
 21
0.0
 31
0.0
  0
LINE
  5
B2C
  8
SIZE
  6
CONTINUOUS
 62
    30
 10
-569.3111759999999
 20
319.999985
 30
0.0
 11
-569.3111759999999
 21
0.0
 31
0.0
  0
CIRCLE
  5
B2D
  8
SIZE
  6
CONTINUOUS
 62
    30
 10
-569.3111759999999
 20
319.999985
 30
0.0
 40
0.5
  0
CIRCLE
  5
B2E
  8
SIZE
  6
CONTINUOUS
 62
    30
 10
-569.3111759999999
 20
319.999985
 30
0.0
 40
0.4
  0
CIRCLE
  5
B2F
  8
SIZE
  6
CONTINUOUS
 62
    30
 10
-569.3111759999999
 20
319.999985
 30
0.0
 40
0.3
  0
CIRCLE
  5
B30
  8
SIZE
  6
CONTINUOUS
 62
    30
 10
-569.3111759999999
 20
319.999985
 30
0.0
 40
0.2
  0
CIRCLE
  5
B31
  8
SIZE
  6
CONTINUOUS
 62
    30
 10
-569.3111759999999
 20
319.999985
 30
0.0
 40
0.1
  0
CIRCLE
  5
B32
  8
SIZE
  6
CONTINUOUS
 62
    30
 10
-569.3111759999999
 20
0.0
 30
0.0
 40
0.5
  0
CIRCLE
  5
B33
  8
SIZE
  6
CONTINUOUS
 62
    30
 10
-569.3111759999999
 20
0.0
 30
0.0
 40
0.4
  0
CIRCLE
  5
B34
  8
SIZE
  6
CONTINUOUS
 62
    30
 10
-569.3111759999999
 20
0.0
 30
0.0
 40
0.3
  0
CIRCLE
  5
B35
  8
SIZE
  6
CONTINUOUS
 62
    30
 10
-569.3111759999999
 20
0.0
 30
0.0
 40
0.2
  0
CIRCLE
  5
B36
  8
SIZE
  6
CONTINUOUS
 62
    30
 10
-569.3111759999999
 20
0.0
 30
0.0
 40
0.1
  0
POINT
  5
B37
  8
DEFPOINTS
  6
CONTINUOUS
 62
     7
 10
-310.000019
 20
0.0
 30
0.0
  0
POINT
  5
B38
  8
DEFPOINTS
  6
CONTINUOUS
 62
     7
 10
-250.000019
 20
319.999985
 30
0.0
  0
POINT
  5
B39
  8
DEFPOINTS
  6
CONTINUOUS
 62
     7
 10
-569.3111759999999
 20
319.999985
 30
0.0
  0
TEXT
  5
B3A
  8
SIZE
  6
CONTINUOUS
 62
    30
 10
562.3576840000001
 20
157.059998
 30
0.0
 40
2.8
  1
320
 50
90.00000499999999
 41
0.7
  7
STANDARD1
  0
LINE
  5
B3B
  8
SIZE
  6
CONTINUOUS
 62
    30
 10
90.999996
 20
319.999985
 30
0.0
 11
565.357708
 21
319.999985
 31
0.0
  0
LINE
  5
B3C
  8
SIZE
  6
CONTINUOUS
 62
    30
 10
310.999981
 20
0.0
 30
0.0
 11
565.357708
 21
0.0
 31
0.0
  0
LINE
  5
B3D
  8
SIZE
  6
CONTINUOUS
 62
    30
 10
563.357708
 20
319.999985
 30
0.0
 11
563.357708
 21
0.0
 31
0.0
  0
CIRCLE
  5
B3E
  8
SIZE
  6
CONTINUOUS
 62
    30
 10
563.357708
 20
319.999985
 30
0.0
 40
0.5
  0
CIRCLE
  5
B3F
  8
SIZE
  6
CONTINUOUS
 62
    30
 10
563.357708
 20
319.999985
 30
0.0
 40
0.4
  0
CIRCLE
  5
B40
  8
SIZE
  6
CONTINUOUS
 62
    30
 10
563.357708
 20
319.999985
 30
0.0
 40
0.3
  0
CIRCLE
  5
B41
  8
SIZE
  6
CONTINUOUS
 62
    30
 10
563.357708
 20
319.999985
 30
0.0
 40
0.2
  0
CIRCLE
  5
B42
  8
SIZE
  6
CONTINUOUS
 62
    30
 10
563.357708
 20
319.999985
 30
0.0
 40
0.1
  0
CIRCLE
  5
B43
  8
SIZE
  6
CONTINUOUS
 62
    30
 10
563.357708
 20
0.0
 30
0.0
 40
0.5
  0
CIRCLE
  5
B44
  8
SIZE
  6
CONTINUOUS
 62
    30
 10
563.357708
 20
0.0
 30
0.0
 40
0.4
  0
CIRCLE
  5
B45
  8
SIZE
  6
CONTINUOUS
 62
    30
 10
563.357708
 20
0.0
 30
0.0
 40
0.3
  0
CIRCLE
  5
B46
  8
SIZE
  6
CONTINUOUS
 62
    30
 10
563.357708
 20
0.0
 30
0.0
 40
0.2
  0
CIRCLE
  5
B47
  8
SIZE
  6
CONTINUOUS
 62
    30
 10
563.357708
 20
0.0
 30
0.0
 40
0.1
  0
POINT
  5
B48
  8
DEFPOINTS
  6
CONTINUOUS
 62
     7
 10
309.999981
 20
0.0
 30
0.0
  0
POINT
  5
B49
  8
DEFPOINTS
  6
CONTINUOUS
 62
     7
 10
89.999996
 20
319.999985
 30
0.0
  0
POINT
  5
B4A
  8
DEFPOINTS
  6
CONTINUOUS
 62
     7
 10
563.357708
 20
319.999985
 30
0.0
  0
TEXT
  5
B4B
  8
SIZE
  6
CONTINUOUS
 62
    30
 10
-2.94
 20
2721.000131
 30
0.0
 40
2.8
  1
630
 50
0.0000029575586669
 41
0.7
  7
STANDARD1
  0
LINE
  5
B4C
  8
SIZE
  6
CONTINUOUS
 62
    30
 10
-315.000019
 20
2370.999985
 30
0.0
 11
-315.000019
 21
2722.000229
 31
0.0
  0
LINE
  5
B4D
  8
SIZE
  6
CONTINUOUS
 62
    30
 10
314.999981
 20
2370.999985
 30
0.0
 11
314.999981
 21
2722.000229
 31
0.0
  0
LINE
  5
B4E
  8
SIZE
  6
CONTINUOUS
 62
    30
 10
-315.000019
 20
2720.000229
 30
0.0
 11
314.999981
 21
2720.000229
 31
0.0
  0
CIRCLE
  5
B4F
  8
SIZE
  6
CONTINUOUS
 62
    30
 10
-315.000019
 20
2720.000229
 30
0.0
 40
0.5
  0
CIRCLE
  5
B50
  8
SIZE
  6
CONTINUOUS
 62
    30
 10
-315.000019
 20
2720.000229
 30
0.0
 40
0.4
  0
CIRCLE
  5
B51
  8
SIZE
  6
CONTINUOUS
 62
    30
 10
-315.000019
 20
2720.000229
 30
0.0
 40
0.3
  0
CIRCLE
  5
B52
  8
SIZE
  6
CONTINUOUS
 62
    30
 10
-315.000019
 20
2720.000229
 30
0.0
 40
0.2
  0
CIRCLE
  5
B53
  8
SIZE
  6
CONTINUOUS
 62
    30
 10
-315.000019
 20
2720.000229
 30
0.0
 40
0.1
  0
CIRCLE
  5
B54
  8
SIZE
  6
CONTINUOUS
 62
    30
 10
314.999981
 20
2720.000229
 30
0.0
 40
0.5
  0
CIRCLE
  5
B55
  8
SIZE
  6
CONTINUOUS
 62
    30
 10
314.999981
 20
2720.000229
 30
0.0
 40
0.4
  0
CIRCLE
  5
B56
  8
SIZE
  6
CONTINUOUS
 62
    30
 10
314.999981
 20
2720.000229
 30
0.0
 40
0.3
  0
CIRCLE
  5
B57
  8
SIZE
  6
CONTINUOUS
 62
    30
 10
314.999981
 20
2720.000229
 30
0.0
 40
0.2
  0
CIRCLE
  5
B58
  8
SIZE
  6
CONTINUOUS
 62
    30
 10
314.999981
 20
2720.000229
 30
0.0
 40
0.1
  0
POINT
  5
B59
  8
DEFPOINTS
  6
CONTINUOUS
 62
     7
 10
314.999981
 20
2369.999985
 30
0.0
  0
POINT
  5
B5A
  8
DEFPOINTS
  6
CONTINUOUS
 62
     7
 10
-315.000019
 20
2369.999985
 30
0.0
  0
POINT
  5
B5B
  8
DEFPOINTS
  6
CONTINUOUS
 62
     7
 10
-315.000019
 20
2720.000229
 30
0.0
  0
TEXT
  5
B5C
  8
SIZE
  6
CONTINUOUS
 62
    30
 10
1062.357684
 20
2267.060044
 30
0.0
 40
2.8
  1
200
 50
90.00000499999999
 41
0.7
  7
STANDARD1
  0
LINE
  5
B5D
  8
SIZE
  6
CONTINUOUS
 62
    30
 10
315.999981
 20
2369.999985
 30
0.0
 11
1065.357708
 21
2369.999985
 31
0.0
  0
LINE
  5
B5E
  8
SIZE
  6
CONTINUOUS
 62
    30
 10
315.999981
 20
2169.999985
 30
0.0
 11
1065.357708
 21
2169.999985
 31
0.0
  0
LINE
  5
B5F
  8
SIZE
  6
CONTINUOUS
 62
    30
 10
1063.357708
 20
2369.999985
 30
0.0
 11
1063.357708
 21
2169.999985
 31
0.0
  0
CIRCLE
  5
B60
  8
SIZE
  6
CONTINUOUS
 62
    30
 10
1063.357708
 20
2369.999985
 30
0.0
 40
0.5
  0
CIRCLE
  5
B61
  8
SIZE
  6
CONTINUOUS
 62
    30
 10
1063.357708
 20
2369.999985
 30
0.0
 40
0.4
  0
CIRCLE
  5
B62
  8
SIZE
  6
CONTINUOUS
 62
    30
 10
1063.357708
 20
2369.999985
 30
0.0
 40
0.3
  0
CIRCLE
  5
B63
  8
SIZE
  6
CONTINUOUS
 62
    30
 10
1063.357708
 20
2369.999985
 30
0.0
 40
0.2
  0
CIRCLE
  5
B64
  8
SIZE
  6
CONTINUOUS
 62
    30
 10
1063.357708
 20
2369.999985
 30
0.0
 40
0.1
  0
CIRCLE
  5
B65
  8
SIZE
  6
CONTINUOUS
 62
    30
 10
1063.357708
 20
2169.999985
 30
0.0
 40
0.5
  0
CIRCLE
  5
B66
  8
SIZE
  6
CONTINUOUS
 62
    30
 10
1063.357708
 20
2169.999985
 30
0.0
 40
0.4
  0
CIRCLE
  5
B67
  8
SIZE
  6
CONTINUOUS
 62
    30
 10
1063.357708
 20
2169.999985
 30
0.0
 40
0.3
  0
CIRCLE
  5
B68
  8
SIZE
  6
CONTINUOUS
 62
    30
 10
1063.357708
 20
2169.999985
 30
0.0
 40
0.2
  0
CIRCLE
  5
B69
  8
SIZE
  6
CONTINUOUS
 62
    30
 10
1063.357708
 20
2169.999985
 30
0.0
 40
0.1
  0
POINT
  5
B6A
  8
DEFPOINTS
  6
CONTINUOUS
 62
     7
 10
314.999981
 20
2169.999985
 30
0.0
  0
POINT
  5
B6B
  8
DEFPOINTS
  6
CONTINUOUS
 62
     7
 10
314.999981
 20
2369.999985
 30
0.0
  0
POINT
  5
B6C
  8
DEFPOINTS
  6
CONTINUOUS
 62
     7
 10
1063.357708
 20
2369.999985
 30
0.0
  0
TEXT
  5
B6D
  8
SIZE
  6
CONTINUOUS
 62
    30
 10
1.114054
 20
-883.060416
 30
0.0
 40
2.8
  1
630
 50
0.0000029575586669
 41
0.7
  7
STANDARD1
  0
LINE
  5
B6E
  8
SIZE
  6
CONTINUOUS
 62
    30
 10
314.999981
 20
199.0
 30
0.0
 11
314.999981
 21
-886.06044
 31
0.0
  0
LINE
  5
B6F
  8
SIZE
  6
CONTINUOUS
 62
    30
 10
-315.000019
 20
199.0
 30
0.0
 11
-315.000019
 21
-886.06044
 31
0.0
  0
LINE
  5
B70
  8
SIZE
  6
CONTINUOUS
 62
    30
 10
314.999981
 20
-884.06044
 30
0.0
 11
-315.000019
 21
-884.06044
 31
0.0
  0
CIRCLE
  5
B71
  8
SIZE
  6
CONTINUOUS
 62
    30
 10
314.999981
 20
-884.06044
 30
0.0
 40
0.5
  0
CIRCLE
  5
B72
  8
SIZE
  6
CONTINUOUS
 62
    30
 10
314.999981
 20
-884.06044
 30
0.0
 40
0.4
  0
CIRCLE
  5
B73
  8
SIZE
  6
CONTINUOUS
 62
    30
 10
314.999981
 20
-884.06044
 30
0.0
 40
0.3
  0
CIRCLE
  5
B74
  8
SIZE
  6
CONTINUOUS
 62
    30
 10
314.999981
 20
-884.06044
 30
0.0
 40
0.2
  0
CIRCLE
  5
B75
  8
SIZE
  6
CONTINUOUS
 62
    30
 10
314.999981
 20
-884.06044
 30
0.0
 40
0.1
  0
CIRCLE
  5
B76
  8
SIZE
  6
CONTINUOUS
 62
    30
 10
-315.000019
 20
-884.06044
 30
0.0
 40
0.5
  0
CIRCLE
  5
B77
  8
SIZE
  6
CONTINUOUS
 62
    30
 10
-315.000019
 20
-884.06044
 30
0.0
 40
0.4
  0
CIRCLE
  5
B78
  8
SIZE
  6
CONTINUOUS
 62
    30
 10
-315.000019
 20
-884.06044
 30
0.0
 40
0.3
  0
CIRCLE
  5
B79
  8
SIZE
  6
CONTINUOUS
 62
    30
 10
-315.000019
 20
-884.06044
 30
0.0
 40
0.2
  0
CIRCLE
  5
B7A
  8
SIZE
  6
CONTINUOUS
 62
    30
 10
-315.000019
 20
-884.06044
 30
0.0
 40
0.1
  0
POINT
  5
B7B
  8
DEFPOINTS
  6
CONTINUOUS
 62
     7
 10
-315.000019
 20
200.0
 30
0.0
  0
POINT
  5
B7C
  8
DEFPOINTS
  6
CONTINUOUS
 62
     7
 10
314.999981
 20
200.0
 30
0.0
  0
POINT
  5
B7D
  8
DEFPOINTS
  6
CONTINUOUS
 62
     7
 10
314.999981
 20
-884.06044
 30
0.0
  0
TEXT
  5
B7E
  8
NOTE
  6
CONTINUOUS
 10
1127.596234
 20
2159.831528
 30
0.0
 40
40.0
  1
メンテナンススペース
 50
89.99999100000001
 41
0.672917
  7
STANDARD1
  0
LINE
  5
B7F
  8
NOTE
  6
CONTINUOUS
 10
724.481121
 20
510.999985
 30
0.0
 11
390.5311400000001
 21
510.999985
 31
0.0
  0
LINE
  5
B80
  8
NOTE
  6
CONTINUOUS
 10
390.5311400000001
 20
510.999985
 30
0.0
 11
254.999981
 21
359.999985
 31
0.0
  0
LINE
  5
B81
  8
NOTE
  6
CONTINUOUS
 10
254.999981
 20
359.999985
 30
0.0
 11
255.905156
 21
361.783425
 31
0.0
  0
LINE
  5
B82
  8
NOTE
  6
CONTINUOUS
 10
254.999981
 20
359.999985
 30
0.0
 11
256.675605
 21
361.091902
 31
0.0
  0
TEXT
  5
B83
  8
NOTE
  6
CONTINUOUS
 10
438.981152
 20
511.999985
 30
0.0
 40
40.0
  1
BH R1/2(φ21.7)
 50
359.9999890330789
 41
0.517754
  7
STANDARD1
  0
LINE
  5
B84
  8
NOTE
  6
CONTINUOUS
 10
-882.287433
 20
-419.000015
 30
0.0
 11
-548.337421
 21
-419.000015
 31
0.0
  0
LINE
  5
B85
  8
NOTE
  6
CONTINUOUS
 10
-548.337421
 20
-419.000015
 30
0.0
 11
-188.000019
 21
155.0
 31
0.0
  0
LINE
  5
B86
  8
NOTE
  6
CONTINUOUS
 10
-188.000019
 20
155.0
 30
0.0
 11
-188.588739
 21
153.088611
 31
0.0
  0
LINE
  5
B87
  8
NOTE
  6
CONTINUOUS
 10
-188.000019
 20
155.0
 30
0.0
 11
-189.46556
 21
153.639049
 31
0.0
  0
TEXT
  5
B88
  8
NOTE
  6
CONTINUOUS
 10
-882.287433
 20
-418.000015
 30
0.0
 40
39.99999999999999
  1
WD R3/4(φ27.2)
 50
0.0000029575586669
 41
0.5177540000000002
  7
STANDARD1
  0
LINE
  5
B89
  8
NOTE
  6
CONTINUOUS
 10
639.363201
 20
-416.664688
 30
0.0
 11
480.913189
 21
-416.664688
 31
0.0
  0
LINE
  5
B8A
  8
NOTE
  6
CONTINUOUS
 10
480.913189
 20
-416.664688
 30
0.0
 11
108.023075
 21
172.5
 31
0.0
  0
LINE
  5
B8B
  8
NOTE
  6
CONTINUOUS
 10
108.023075
 20
172.5
 30
0.0
 11
109.493621
 21
171.144457
 31
0.0
  0
LINE
  5
B8C
  8
NOTE
  6
CONTINUOUS
 10
108.023075
 20
172.5
 30
0.0
 11
108.618833
 21
170.590793
 31
0.0
  0
TEXT
  5
B8D
  8
NOTE
  6
CONTINUOUS
 10
529.363201
 20
-415.664688
 30
0.0
 40
40.0
  1
D φ18
 50
359.9999889998961
 41
0.574479
  7
STANDARD1
  0
LINE
  5
B8E
  8
NOTE
  6
CONTINUOUS
 10
-589.748432
 20
2470.000229
 30
0.0
 11
-283.198444
 21
2470.000229
 31
0.0
  0
LINE
  5
B8F
  8
NOTE
  6
CONTINUOUS
 10
-283.198444
 20
2470.000229
 30
0.0
 11
-20.0
 21
2214.999985
 31
0.0
  0
LINE
  5
B90
  8
NOTE
  6
CONTINUOUS
 10
-20.0
 20
2214.999985
 30
0.0
 11
-21.747652
 21
2215.972461
 31
0.0
  0
LINE
  5
B91
  8
NOTE
  6
CONTINUOUS
 10
-20.0
 20
2214.999985
 30
0.0
 11
-21.027273
 21
2216.716
 31
0.0
  0
TEXT
  5
B92
  8
NOTE
  6
CONTINUOUS
 10
-589.748432
 20
2471.000229
 30
0.0
 40
39.99999999999999
  1
上部振れ止め金具
 50
0.0000029575586669
 41
0.6729170000000001
  7
STANDARD1
  0
TEXT
  5
B93
  8
NOTE
  6
CONTINUOUS
 10
-135.260334
 20
2670.693833
 30
0.0
 40
40.0
  1
メンテナンススペース
 50
359.9999960875177
 41
0.672917
  7
STANDARD1
  0
LINE
  5
B94
  8
NOTE
  6
CONTINUOUS
 10
484.942181
 20
2470.000229
 30
0.0
 11
280.792187
 21
2470.000229
 31
0.0
  0
LINE
  5
B95
  8
NOTE
  6
CONTINUOUS
 10
280.792187
 20
2470.000229
 30
0.0
 11
30.0
 21
2192.999985
 31
0.0
  0
LINE
  5
B96
  8
NOTE
  6
CONTINUOUS
 10
30.0
 20
2192.999985
 30
0.0
 11
30.912869
 21
2194.779499
 31
0.0
  0
LINE
  5
B97
  8
NOTE
  6
CONTINUOUS
 10
30.0
 20
2192.999985
 30
0.0
 11
31.680325
 21
2194.084655
 31
0.0
  0
TEXT
  5
B98
  8
NOTE
  6
CONTINUOUS
 10
329.242199
 20
2471.000229
 30
0.0
 40
39.99999999999999
  1
AH 2-M10
 50
0.0000029575586669
 41
0.513158
  7
STANDARD1
  0
LINE
  5
B99
  8
NOTE
  6
CONTINUOUS
 10
685.063214
 20
-316.664688
 30
0.0
 11
480.913189
 21
-316.664688
 31
0.0
  0
LINE
  5
B9A
  8
NOTE
  6
CONTINUOUS
 10
480.913189
 20
-316.664688
 30
0.0
 11
247.999981
 21
0.0
 31
0.0
  0
LINE
  5
B9B
  8
NOTE
  6
CONTINUOUS
 10
247.999981
 20
0.0
 30
0.0
 11
249.56161
 21
-1.249525
 31
0.0
  0
LINE
  5
B9C
  8
NOTE
  6
CONTINUOUS
 10
247.999981
 20
0.0
 30
0.0
 11
248.727629
 21
-1.862935
 31
0.0
  0
TEXT
  5
B9D
  8
NOTE
  6
CONTINUOUS
 10
529.363201
 20
-315.664688
 30
0.0
 40
39.99999999999999
  1
AH 3-M12
 50
0.0000029575586669
 41
0.513158
  7
STANDARD1
  0
LINE
  5
B9E
  8
NOTE
  6
CONTINUOUS
 10
685.063214
 20
-150.0
 30
0.0
 11
480.913189
 21
-150.0
 31
0.0
  0
LINE
  5
B9F
  8
NOTE
  6
CONTINUOUS
 10
480.913189
 20
-150.0
 30
0.0
 11
294.999981
 21
0.0
 31
0.0
  0
LINE
  5
BA0
  8
NOTE
  6
CONTINUOUS
 10
294.999981
 20
0.0
 30
0.0
 11
296.828524
 21
-0.810205
 31
0.0
  0
LINE
  5
BA1
  8
NOTE
  6
CONTINUOUS
 10
294.999981
 20
0.0
 30
0.0
 11
296.178443
 21
-1.61593
 31
0.0
  0
TEXT
  5
BA2
  8
NOTE
  6
CONTINUOUS
 10
529.363201
 20
-149.0
 30
0.0
 40
39.99999999999999
  1
AH 4-M12
 50
0.0000029575586669
 41
0.513158
  7
STANDARD1
  0
TEXT
  5
BA3
  8
NOTE
  6
CONTINUOUS
 10
496.307781
 20
-205.118729
 30
0.0
 40
40.0
  1
（脚固定金具使用時のみ）
 50
359.9999960875177
 41
0.672917
  7
STANDARD1
  0
LINE
  5
BA4
  8
NOTE
  6
CONTINUOUS
 10
-882.287433
 20
-239.0
 30
0.0
 11
-548.337421
 21
-239.0
 31
0.0
  0
LINE
  5
BA5
  8
NOTE
  6
CONTINUOUS
 10
-548.337421
 20
-239.0
 30
0.0
 11
-230.000019
 21
319.999985
 31
0.0
  0
LINE
  5
BA6
  8
NOTE
  6
CONTINUOUS
 10
-230.000019
 20
319.999985
 30
0.0
 11
-230.506201
 21
318.0651
 31
0.0
  0
LINE
  5
BA7
  8
NOTE
  6
CONTINUOUS
 10
-230.000019
 20
319.999985
 30
0.0
 11
-231.405828
 21
318.577416
 31
0.0
  0
TEXT
  5
BA8
  8
NOTE
  6
CONTINUOUS
 10
-882.287433
 20
-238.000015
 30
0.0
 40
39.99999999999999
  1
HW R3/4(φ27.2)
 50
0.0000029575586669
 41
0.5177540000000002
  7
STANDARD1
  0
LINE
  5
BA9
  8
NOTE
  6
CONTINUOUS
 10
-773.521076
 20
-150.0
 30
0.0
 11
-556.571064
 21
-150.0
 31
0.0
  0
LINE
  5
BAA
  8
NOTE
  6
CONTINUOUS
 10
-556.571064
 20
-150.0
 30
0.0
 11
-275.000019
 21
399.999985
 31
0.0
  0
LINE
  5
BAB
  8
NOTE
  6
CONTINUOUS
 10
-275.000019
 20
399.999985
 30
0.0
 11
-275.419599
 21
398.044492
 31
0.0
  0
LINE
  5
BAC
  8
NOTE
  6
CONTINUOUS
 10
-275.000019
 20
399.999985
 30
0.0
 11
-276.341133
 21
398.516269
 31
0.0
  0
TEXT
  5
BAD
  8
NOTE
  6
CONTINUOUS
 10
-773.521076
 20
-149.0
 30
0.0
 40
39.99999999999999
  1
CL φ32.5
 50
0.0000029575586669
 41
0.5410260000000001
  7
STANDARD1
  0
LINE
  5
BAE
  8
NOTE
  6
CONTINUOUS
 10
-797.587421
 20
-329.000015
 30
0.0
 11
-548.337421
 21
-329.000015
 31
0.0
  0
LINE
  5
BAF
  8
NOTE
  6
CONTINUOUS
 10
-548.337421
 20
-329.000015
 30
0.0
 11
-180.000019
 21
399.999985
 31
0.0
  0
LINE
  5
BB0
  8
NOTE
  6
CONTINUOUS
 10
-180.000019
 20
399.999985
 30
0.0
 11
-180.40921
 21
398.042292
 31
0.0
  0
LINE
  5
BB1
  8
NOTE
  6
CONTINUOUS
 10
-180.000019
 20
399.999985
 30
0.0
 11
-181.333235
 21
398.509168
 31
0.0
  0
TEXT
  5
BB2
  8
NOTE
  6
CONTINUOUS
 10
-797.587421
 20
-328.000015
 30
0.0
 40
39.99999999999999
  1
EL φ49×59
 50
0.0000030783246592
 41
0.5586110000000001
  7
STANDARD1
  0
LINE
  5
BB3
  8
NOTE
  6
CONTINUOUS
 10
720.889813
 20
610.999985
 30
0.0
 11
386.939801
 21
610.999985
 31
0.0
  0
LINE
  5
BB4
  8
NOTE
  6
CONTINUOUS
 10
386.939801
 20
610.999985
 30
0.0
 11
69.999996
 21
319.999985
 31
0.0
  0
LINE
  5
BB5
  8
NOTE
  6
CONTINUOUS
 10
69.999996
 20
319.999985
 30
0.0
 11
71.072924
 21
321.687832
 31
0.0
  0
LINE
  5
BB6
  8
NOTE
  6
CONTINUOUS
 10
69.999996
 20
319.999985
 30
0.0
 11
71.773102
 21
320.925239
 31
0.0
  0
TEXT
  5
BB7
  8
NOTE
  6
CONTINUOUS
 10
435.389813
 20
611.999985
 30
0.0
 40
39.99999999999999
  1
CW R3/4(φ27.2)
 50
0.0000029575586669
 41
0.5177540000000002
  7
STANDARD1
  0
LINE
  5
BB8
  8
NOTE
  6
CONTINUOUS
 10
235.0
 20
360.0
 30
0.0
 11
275.0
 21
360.0
 31
0.0
  0
LINE
  5
BB9
  8
NOTE
  6
CONTINUOUS
 10
255.0
 20
340.0
 30
0.0
 11
255.0
 21
380.0
 31
0.0
  0
LINE
  5
BBA
  8
NOTE
  6
CONTINUOUS
 10
-10.0
 20
2193.0
 30
0.0
 11
-50.0
 21
2193.0
 31
0.0
  0
LINE
  5
BBB
  8
NOTE
  6
CONTINUOUS
 10
-30.0
 20
2173.0
 30
0.0
 11
-30.0
 21
2213.0
 31
0.0
  0
LINE
  5
BBC
  8
NOTE
  6
CONTINUOUS
 10
10.0
 20
2193.0
 30
0.0
 11
50.0
 21
2193.0
 31
0.0
  0
LINE
  5
BBD
  8
NOTE
  6
CONTINUOUS
 10
30.0
 20
2173.0
 30
0.0
 11
30.0
 21
2213.0
 31
0.0
  0
LINE
  5
BBE
  8
NOTE
  6
CONTINUOUS
 10
268.0
 20
0.0
 30
0.0
 11
228.0
 21
0.0
 31
0.0
  0
LINE
  5
BBF
  8
NOTE
  6
CONTINUOUS
 10
248.0
 20
-20.0
 30
0.0
 11
248.0
 21
20.0
 31
0.0
  0
LINE
  5
BC0
  8
NOTE
  6
CONTINUOUS
 10
20.0
 20
0.0
 30
0.0
 11
-20.0
 21
0.0
 31
0.0
  0
LINE
  5
BC1
  8
NOTE
  6
CONTINUOUS
 10
0.0
 20
-20.0
 30
0.0
 11
0.0
 21
20.0
 31
0.0
  0
LINE
  5
BC2
  8
NOTE
  6
CONTINUOUS
 10
-228.0
 20
0.0
 30
0.0
 11
-268.0
 21
0.0
 31
0.0
  0
LINE
  5
BC3
  8
NOTE
  6
CONTINUOUS
 10
-248.0
 20
-20.0
 30
0.0
 11
-248.0
 21
20.0
 31
0.0
  0
LINE
  5
BC4
  8
NOTE
  6
CONTINUOUS
 10
-188.0
 20
135.0
 30
0.0
 11
-188.0
 21
175.0
 31
0.0
  0
LINE
  5
BC5
  8
NOTE
  6
CONTINUOUS
 10
-168.0
 20
155.0
 30
0.0
 11
-208.0
 21
155.0
 31
0.0
  0
LINE
  5
BC6
  8
NOTE
  6
CONTINUOUS
 10
108.023085
 20
152.5
 30
0.0
 11
108.023085
 21
192.5
 31
0.0
  0
LINE
  5
BC7
  8
NOTE
  6
CONTINUOUS
 10
88.023085
 20
172.5
 30
0.0
 11
128.023085
 21
172.5
 31
0.0
  0
LINE
  5
BC8
  8
NOTE
  6
CONTINUOUS
 10
295.0
 20
-20.0
 30
0.0
 11
295.0
 21
20.0
 31
0.0
  0
LINE
  5
BC9
  8
NOTE
  6
CONTINUOUS
 10
315.0
 20
0.0
 30
0.0
 11
275.0
 21
0.0
 31
0.0
  0
LINE
  5
BCA
  8
NOTE
  6
CONTINUOUS
 10
181.0
 20
0.0
 30
0.0
 11
221.0
 21
0.0
 31
0.0
  0
LINE
  5
BCB
  8
NOTE
  6
CONTINUOUS
 10
201.0
 20
-20.0
 30
0.0
 11
201.0
 21
20.0
 31
0.0
  0
LINE
  5
BCC
  8
NOTE
  6
CONTINUOUS
 10
-315.0
 20
0.0
 30
0.0
 11
-275.0
 21
0.0
 31
0.0
  0
LINE
  5
BCD
  8
NOTE
  6
CONTINUOUS
 10
-295.0
 20
-20.0
 30
0.0
 11
-295.0
 21
20.0
 31
0.0
  0
LINE
  5
BCE
  8
NOTE
  6
CONTINUOUS
 10
-181.0
 20
0.0
 30
0.0
 11
-221.0
 21
0.0
 31
0.0
  0
LINE
  5
BCF
  8
NOTE
  6
CONTINUOUS
 10
-201.0
 20
-20.0
 30
0.0
 11
-201.0
 21
20.0
 31
0.0
  0
LINE
  5
BD0
  8
NOTE
  6
CONTINUOUS
 10
-199.0
 20
400.0
 30
0.0
 11
-159.0
 21
400.0
 31
0.0
  0
LINE
  5
BD1
  8
NOTE
  6
CONTINUOUS
 10
-180.0
 20
380.0
 30
0.0
 11
-180.0
 21
420.0
 31
0.0
  0
LINE
  5
BD2
  8
NOTE
  6
CONTINUOUS
 10
-294.0
 20
400.0
 30
0.0
 11
-254.0
 21
400.0
 31
0.0
  0
LINE
  5
BD3
  8
NOTE
  6
CONTINUOUS
 10
-275.0
 20
380.0
 30
0.0
 11
-275.0
 21
420.0
 31
0.0
  0
LINE
  5
BD4
  8
NOTE
  6
CONTINUOUS
 10
-250.0
 20
320.0
 30
0.0
 11
-210.0
 21
320.0
 31
0.0
  0
LINE
  5
BD5
  8
NOTE
  6
CONTINUOUS
 10
-230.0
 20
300.0
 30
0.0
 11
-230.0
 21
340.0
 31
0.0
  0
LINE
  5
BD6
  8
NOTE
  6
CONTINUOUS
 10
50.0
 20
320.0
 30
0.0
 11
90.0
 21
320.0
 31
0.0
  0
LINE
  5
BD7
  8
NOTE
  6
CONTINUOUS
 10
70.0
 20
300.0
 30
0.0
 11
70.0
 21
340.0
 31
0.0
  0
CIRCLE
  5
BD8
  8
ARRANGE
  6
CONTINUOUS
 10
0.0
 20
0.0
 30
0.0
 40
15.0
  0
CIRCLE
  5
BD9
  8
FIX
  6
CONTINUOUS
 10
-30.0
 20
2193.0
 30
0.0
 40
5.0
  0
CIRCLE
  5
BDA
  8
FIX
  6
CONTINUOUS
 10
30.0
 20
2193.0
 30
0.0
 40
5.0
  0
CIRCLE
  5
BDB
  8
FIX
  6
CONTINUOUS
 10
248.0
 20
0.0
 30
0.0
 40
6.0
  0
CIRCLE
  5
BDC
  8
FIX
  6
CONTINUOUS
 10
0.0
 20
0.0
 30
0.0
 40
6.0
  0
CIRCLE
  5
BDD
  8
FIX
  6
CONTINUOUS
 10
-248.0
 20
0.0
 30
0.0
 40
6.0
  0
CIRCLE
  5
BDE
  8
FIX
  6
CONTINUOUS
 10
-295.0
 20
0.0
 30
0.0
 40
6.0
  0
CIRCLE
  5
BDF
  8
FIX
  6
CONTINUOUS
 10
-201.0
 20
0.0
 30
0.0
 40
6.0
  0
CIRCLE
  5
BE0
  8
FIX
  6
CONTINUOUS
 10
201.0
 20
0.0
 30
0.0
 40
6.0
  0
CIRCLE
  5
BE1
  8
FIX
  6
CONTINUOUS
 10
248.0
 20
0.0
 30
0.0
 40
6.0
  0
CIRCLE
  5
BE2
  8
FIX
  6
CONTINUOUS
 10
295.0
 20
0.0
 30
0.0
 40
6.0
  0
LINE
  5
BE3
  8
SERVICESPACE
  6
DASHDOT
 10
-315.0
 20
2170.0
 30
0.0
 11
-315.0
 21
2370.0
 31
0.0
  0
LINE
  5
BE4
  8
SERVICESPACE
  6
DASHDOT
 10
-315.0
 20
2170.0
 30
0.0
 11
315.0
 21
2170.0
 31
0.0
  0
LINE
  5
BE5
  8
SERVICESPACE
  6
DASHDOT
 10
315.0
 20
2170.0
 30
0.0
 11
315.0
 21
2370.0
 31
0.0
  0
LINE
  5
BE6
  8
SERVICESPACE
  6
DASHDOT
 10
-315.0
 20
2370.0
 30
0.0
 11
315.0
 21
2370.0
 31
0.0
  0
LINE
  5
BE7
  8
SERVICESPACE
  6
DASHDOT
 10
-315.0
 20
2370.0
 30
0.0
 11
315.0
 21
2170.0
 31
0.0
  0
LINE
  5
BE8
  8
SERVICESPACE
  6
DASHDOT
 10
315.0
 20
2370.0
 30
0.0
 11
-315.0
 21
2170.0
 31
0.0
  0
TEXT
  5
BE9
  8
ETC
  6
CONTINUOUS
 10
640.4472470000001
 20
2663.996811
 30
0.0
 40
40.0
  1
TT46C22
 50
359.9999960875177
 41
0.4875
  7
STANDARD1
  0
TEXT
  5
BEA
  8
ETC
  6
CONTINUOUS
 10
640.4472470000001
 20
2622.496811
 30
0.0
 40
40.0
  1
電気温水器
 50
359.9999960875177
 41
0.672917
  7
STANDARD1
  0
ENDSEC
  0
EOF
