  0
SECTION
  2
HEADER
  9
$ACADVER
  1
AC1009
  9
$DWGCODEPAGE
  3
dos932
  9
$INSBASE
 10
0.0
 20
0.0
 30
0.0
  9
$EXTMIN
 10
-1011.440894
 20
-894.295618
 30
0.0
  9
$EXTMAX
 10
1125.199785
 20
2762.264746
 30
0.0
  9
$LIMMIN
 10
0.0
 20
0.0
  9
$LIMMAX
 10
12.0
 20
9.0
  9
$ORTHOMODE
 70
     0
  9
$REGENMODE
 70
     1
  9
$FILLMODE
 70
     1
  9
$QTEXTMODE
 70
     0
  9
$MIRRTEXT
 70
     1
  9
$DRAGMODE
 70
     2
  9
$LTSCALE
 40
1.0
  9
$OSMODE
 70
    37
  9
$ATTMODE
 70
     1
  9
$TEXTSIZE
 40
2.8
  9
$TRACEWID
 40
0.05
  9
$TEXTSTYLE
  7
STANDARD1
  9
$CLAYER
  8
0
  9
$CELTYPE
  6
CONTINUOUS
  9
$CECOLOR
 62
   256
  9
$DIMSCALE
 40
1.0
  9
$DIMASZ
 40
10.0
  9
$DIMEXO
 40
10.0
  9
$DIMDLI
 40
8.0
  9
$DIMRND
 40
0.0
  9
$DIMDLE
 40
0.0
  9
$DIMEXE
 40
12.5
  9
$DIMTP
 40
0.0
  9
$DIMTM
 40
0.0
  9
$DIMTXT
 40
30.0
  9
$DIMCEN
 40
2.5
  9
$DIMTSZ
 40
0.0
  9
$DIMTOL
 70
     0
  9
$DIMLIM
 70
     0
  9
$DIMTIH
 70
     0
  9
$DIMTOH
 70
     0
  9
$DIMSE1
 70
     0
  9
$DIMSE2
 70
     0
  9
$DIMTAD
 70
     3
  9
$DIMZIN
 70
    12
  9
$DIMBLK
  1

  9
$DIMASO
 70
     1
  9
$DIMSHO
 70
     1
  9
$DIMPOST
  1

  9
$DIMAPOST
  1

  9
$DIMALT
 70
     0
  9
$DIMALTD
 70
     4
  9
$DIMALTF
 40
25.4
  9
$DIMLFAC
 40
1.0
  9
$DIMTOFL
 70
     1
  9
$DIMTVP
 40
0.0
  9
$DIMTIX
 70
     0
  9
$DIMSOXD
 70
     0
  9
$DIMSAH
 70
     1
  9
$DIMBLK1
  1
ORIGIN
  9
$DIMBLK2
  1
ORIGIN
  9
$DIMSTYLE
  2
STANDARD
  9
$DIMCLRD
 70
     0
  9
$DIMCLRE
 70
     0
  9
$DIMCLRT
 70
     0
  9
$DIMTFAC
 40
0.714286
  9
$DIMGAP
 40
10.0
  9
$LUNITS
 70
     2
  9
$LUPREC
 70
     3
  9
$SKETCHINC
 40
0.1
  9
$FILLETRAD
 40
0.0
  9
$AUNITS
 70
     0
  9
$AUPREC
 70
     0
  9
$MENU
  1
acad
  9
$ELEVATION
 40
0.0
  9
$PELEVATION
 40
0.0
  9
$THICKNESS
 40
0.0
  9
$LIMCHECK
 70
     0
  9
$CHAMFERA
 40
0.0
  9
$CHAMFERB
 40
0.0
  9
$SKPOLY
 70
     0
  9
$TDCREATE
 40
2454359.439907396
  9
$TDUPDATE
 40
2457459.559527188
  9
$TDINDWG
 40
0.0
  9
$TDUSRTIMER
 40
0.0
  9
$USRTIMER
 70
     1
  9
$ANGBASE
 50
0.0
  9
$ANGDIR
 70
     0
  9
$PDMODE
 70
     0
  9
$PDSIZE
 40
0.0
  9
$PLINEWID
 40
0.0
  9
$COORDS
 70
     1
  9
$SPLFRAME
 70
     0
  9
$SPLINETYPE
 70
     6
  9
$SPLINESEGS
 70
     8
  9
$ATTDIA
 70
     0
  9
$ATTREQ
 70
     1
  9
$HANDLING
 70
     1
  9
$HANDSEED
  5
FA7
  9
$SURFTAB1
 70
     6
  9
$SURFTAB2
 70
     6
  9
$SURFTYPE
 70
     6
  9
$SURFU
 70
     6
  9
$SURFV
 70
     6
  9
$UCSNAME
  2

  9
$UCSORG
 10
0.0
 20
0.0
 30
0.0
  9
$UCSXDIR
 10
1.0
 20
0.0
 30
0.0
  9
$UCSYDIR
 10
0.0
 20
1.0
 30
0.0
  9
$PUCSNAME
  2

  9
$PUCSORG
 10
0.0
 20
0.0
 30
0.0
  9
$PUCSXDIR
 10
1.0
 20
0.0
 30
0.0
  9
$PUCSYDIR
 10
0.0
 20
1.0
 30
0.0
  9
$USERI1
 70
     0
  9
$USERI2
 70
     0
  9
$USERI3
 70
     0
  9
$USERI4
 70
     0
  9
$USERI5
 70
     0
  9
$USERR1
 40
0.0
  9
$USERR2
 40
0.0
  9
$USERR3
 40
0.0
  9
$USERR4
 40
0.0
  9
$USERR5
 40
0.0
  9
$WORLDVIEW
 70
     1
  9
$SHADEDGE
 70
     3
  9
$SHADEDIF
 70
    70
  9
$TILEMODE
 70
     1
  9
$MAXACTVP
 70
    48
  9
$PLIMCHECK
 70
     0
  9
$PEXTMIN
 10
1.000000000000000E+20
 20
1.000000000000000E+20
 30
1.000000000000000E+20
  9
$PEXTMAX
 10
-1.000000000000000E+20
 20
-1.000000000000000E+20
 30
-1.000000000000000E+20
  9
$PLIMMIN
 10
0.0
 20
0.0
  9
$PLIMMAX
 10
12.0
 20
9.0
  9
$UNITMODE
 70
     0
  9
$VISRETAIN
 70
     1
  9
$PLINEGEN
 70
     0
  9
$PSLTSCALE
 70
     1
  0
ENDSEC
  0
SECTION
  2
TABLES
  0
TABLE
  2
VPORT
 70
     1
  0
VPORT
  2
*ACTIVE
 70
     0
 10
0.0
 20
0.0
 11
1.0
 21
1.0
 12
76.179433
 22
918.734515
 13
0.0
 23
0.0
 14
1.0
 24
1.0
 15
0.0
 25
0.0
 16
0.0
 26
0.0
 36
1.0
 17
0.0
 27
0.0
 37
0.0
 40
3678.619509
 41
2.745223000000001
 42
50.0
 43
0.0
 44
0.0
 50
0.0
 51
0.0
 71
     0
 72
   100
 73
     1
 74
     1
 75
     0
 76
     0
 77
     0
 78
     0
  0
ENDTAB
  0
TABLE
  2
LTYPE
 70
     4
  0
LTYPE
  2
CONTINUOUS
 70
     0
  3
Solid line
 72
    65
 73
     0
 40
0.0
  0
LTYPE
  2
DASHED
 70
     0
  3
-- -- -- -- -- -- -- -- -- -- -- -- -- -- --
 72
    65
 73
     2
 40
0.75
 49
0.5
 49
-0.25
  0
LTYPE
  2
DASHDOT
 70
     0
  3
__ . __ . __ . __ . __ . __ . __ . __ . __ . __
 72
    65
 73
     4
 40
125.0
 49
80.0
 49
-20.0
 49
5.0
 49
-20.0
  0
LTYPE
  2
DIVIDE
 70
     0
  3
__ . . __ . . __ . . __ . . __ . . __ . . __
 72
    65
 73
     6
 40
1.25
 49
0.5
 49
-0.25
 49
0.0
 49
-0.25
 49
0.0
 49
-0.25
  0
ENDTAB
  0
TABLE
  2
LAYER
 70
    12
  0
LAYER
  2
0
 70
     0
 62
     3
  6
CONTINUOUS
  0
LAYER
  2
OUTLINE
 70
     0
 62
     3
  6
CONTINUOUS
  0
LAYER
  2
DETAIL
 70
     0
 62
     5
  6
CONTINUOUS
  0
LAYER
  2
BASIS
 70
     0
 62
     6
  6
CONTINUOUS
  0
LAYER
  2
SIZE
 70
     0
 62
    30
  6
CONTINUOUS
  0
LAYER
  2
NOTE
 70
     0
 62
     4
  6
CONTINUOUS
  0
LAYER
  2
ARRANGE
 70
     0
 62
     1
  6
CONTINUOUS
  0
LAYER
  2
FIX
 70
     0
 62
    11
  6
CONTINUOUS
  0
LAYER
  2
SERVICESPACE
 70
     0
 62
     2
  6
CONTINUOUS
  0
LAYER
  2
ETC
 70
     0
 62
    61
  6
CONTINUOUS
  0
LAYER
  2
SYMBOLLINE
 70
     0
 62
     7
  6
CONTINUOUS
  0
LAYER
  2
DEFPOINTS
 70
     0
 62
     7
  6
CONTINUOUS
  0
ENDTAB
  0
TABLE
  2
STYLE
 70
     5
  0
STYLE
  2
STANDARD
 70
     0
 40
0.0
 41
1.0
 50
0.0
 71
     0
 42
0.2
  3
txt
  4

  0
STYLE
  2
STANDARD1
 70
     0
 40
0.0
 41
1.0
 50
0.0
 71
     0
 42
2.8
  3
MONOTXT
  4
BIGFONT
  0
STYLE
  2
STANDARD2
 70
     4
 40
0.0
 41
1.0
 50
0.0
 71
     0
 42
2.8
  3
MONOTXT
  4
BIGFONT
  0
STYLE
  2
STANDARD3
 70
     0
 40
0.0
 41
1.0
 50
0.0
 71
     0
 42
2.8
  3
MONOTXT
  4

  0
STYLE
  2
STANDARD4
 70
     4
 40
0.0
 41
1.0
 50
0.0
 71
     0
 42
2.8
  3
MONOTXT
  4

  0
ENDTAB
  0
TABLE
  2
VIEW
 70
     0
  0
ENDTAB
  0
TABLE
  2
UCS
 70
     0
  0
ENDTAB
  0
TABLE
  2
APPID
 70
     1
  0
APPID
  2
ACAD
 70
     0
  0
ENDTAB
  0
TABLE
  2
DIMSTYLE
 70
     1
  0
DIMSTYLE
  2
STANDARD
 70
     0
  3

  4

  5

  6

  7

 40
1.0
 41
0.18
 42
0.0625
 43
0.38
 44
0.18
 45
0.0
 46
0.0
 47
0.0
 48
0.0
140
0.18
141
0.09
142
0.0
143
25.4
144
1.0
145
0.0
146
1.0
147
0.09
 71
     0
 72
     0
 73
     1
 74
     1
 75
     0
 76
     0
 77
     0
 78
     0
170
     0
171
     2
172
     0
173
     0
174
     0
175
     0
176
     0
177
     0
178
     0
  0
ENDTAB
  0
ENDSEC
  0
SECTION
  2
BLOCKS
  0
BLOCK
  8
0
  2
$MODEL_SPACE
 70
     0
 10
0.0
 20
0.0
 30
0.0
  3
$MODEL_SPACE
  1

  0
ENDBLK
  5
F56
  8
0
  0
BLOCK
 67
     1
  8
0
  2
$PAPER_SPACE
 70
     0
 10
0.0
 20
0.0
 30
0.0
  3
$PAPER_SPACE
  1

  0
ENDBLK
  5
F58
 67
     1
  8
0
  0
BLOCK
  8
SIZE
  2
*D0
 70
     1
 10
0.0
 20
0.0
 30
0.0
  3
*D0
  1

  0
TEXT
  5
705
  8
SIZE
  6
CONTINUOUS
 10
290.810272
 20
1903.080591
 30
0.0
 40
2.8
  1
45
 50
0.000003
 41
0.7
  7
STANDARD1
  0
LINE
  5
706
  8
SIZE
  6
CONTINUOUS
 10
270.270264
 20
2120.864746
 30
0.0
 11
270.270264
 21
1900.080566
 31
0.0
  0
LINE
  5
707
  8
SIZE
  6
CONTINUOUS
 10
315.270264
 20
2168.864746
 30
0.0
 11
315.270264
 21
1900.080566
 31
0.0
  0
LINE
  5
708
  8
SIZE
  6
CONTINUOUS
 10
270.270264
 20
1902.080566
 30
0.0
 11
315.270264
 21
1902.080566
 31
0.0
  0
CIRCLE
  5
709
  8
SIZE
  6
CONTINUOUS
 10
270.270264
 20
1902.080566
 30
0.0
 40
0.5
  0
CIRCLE
  5
70A
  8
SIZE
  6
CONTINUOUS
 10
270.270264
 20
1902.080566
 30
0.0
 40
0.4
  0
CIRCLE
  5
70B
  8
SIZE
  6
CONTINUOUS
 10
270.270264
 20
1902.080566
 30
0.0
 40
0.3
  0
CIRCLE
  5
70C
  8
SIZE
  6
CONTINUOUS
 10
270.270264
 20
1902.080566
 30
0.0
 40
0.2
  0
CIRCLE
  5
70D
  8
SIZE
  6
CONTINUOUS
 10
270.270264
 20
1902.080566
 30
0.0
 40
0.1
  0
CIRCLE
  5
70E
  8
SIZE
  6
CONTINUOUS
 10
315.270264
 20
1902.080566
 30
0.0
 40
0.5
  0
CIRCLE
  5
70F
  8
SIZE
  6
CONTINUOUS
 10
315.270264
 20
1902.080566
 30
0.0
 40
0.4
  0
CIRCLE
  5
710
  8
SIZE
  6
CONTINUOUS
 10
315.270264
 20
1902.080566
 30
0.0
 40
0.3
  0
CIRCLE
  5
711
  8
SIZE
  6
CONTINUOUS
 10
315.270264
 20
1902.080566
 30
0.0
 40
0.2
  0
CIRCLE
  5
712
  8
SIZE
  6
CONTINUOUS
 10
315.270264
 20
1902.080566
 30
0.0
 40
0.1
  0
POINT
  5
713
  8
DEFPOINTS
  6
BYBLOCK
 10
315.270264
 20
2169.864746
 30
0.0
  0
POINT
  5
714
  8
DEFPOINTS
  6
BYBLOCK
 10
270.270264
 20
2121.864746
 30
0.0
  0
POINT
  5
715
  8
DEFPOINTS
  6
BYBLOCK
 10
270.270264
 20
1902.080566
 30
0.0
  0
ENDBLK
  5
716
  8
SIZE
  0
BLOCK
  8
SIZE
  2
*D1
 70
     1
 10
0.0
 20
0.0
 30
0.0
  3
*D1
  1

  0
TEXT
  5
719
  8
SIZE
  6
CONTINUOUS
 10
862.627966
 20
1000.944885
 30
0.0
 40
2.8
  1
2010
 50
90.00000499999999
 41
0.7
  7
STANDARD1
  0
LINE
  5
71A
  8
SIZE
  6
CONTINUOUS
 10
265.270264
 20
2009.864868
 30
0.0
 11
865.627991
 21
2009.864868
 31
0.0
  0
LINE
  5
71B
  8
SIZE
  6
CONTINUOUS
 10
311.270264
 20
-0.135135
 30
0.0
 11
865.627991
 21
-0.135135
 31
0.0
  0
LINE
  5
71C
  8
SIZE
  6
CONTINUOUS
 10
863.627991
 20
2009.864868
 30
0.0
 11
863.627991
 21
-0.135135
 31
0.0
  0
CIRCLE
  5
71D
  8
SIZE
  6
CONTINUOUS
 10
863.627991
 20
2009.864868
 30
0.0
 40
0.5
  0
CIRCLE
  5
71E
  8
SIZE
  6
CONTINUOUS
 10
863.627991
 20
2009.864868
 30
0.0
 40
0.4
  0
CIRCLE
  5
71F
  8
SIZE
  6
CONTINUOUS
 10
863.627991
 20
2009.864868
 30
0.0
 40
0.3
  0
CIRCLE
  5
720
  8
SIZE
  6
CONTINUOUS
 10
863.627991
 20
2009.864868
 30
0.0
 40
0.2
  0
CIRCLE
  5
721
  8
SIZE
  6
CONTINUOUS
 10
863.627991
 20
2009.864868
 30
0.0
 40
0.1
  0
CIRCLE
  5
722
  8
SIZE
  6
CONTINUOUS
 10
863.627991
 20
-0.135135
 30
0.0
 40
0.5
  0
CIRCLE
  5
723
  8
SIZE
  6
CONTINUOUS
 10
863.627991
 20
-0.135135
 30
0.0
 40
0.4
  0
CIRCLE
  5
724
  8
SIZE
  6
CONTINUOUS
 10
863.627991
 20
-0.135135
 30
0.0
 40
0.3
  0
CIRCLE
  5
725
  8
SIZE
  6
CONTINUOUS
 10
863.627991
 20
-0.135135
 30
0.0
 40
0.2
  0
CIRCLE
  5
726
  8
SIZE
  6
CONTINUOUS
 10
863.627991
 20
-0.135135
 30
0.0
 40
0.1
  0
POINT
  5
727
  8
DEFPOINTS
  6
BYBLOCK
 10
310.270264
 20
-0.135135
 30
0.0
  0
POINT
  5
728
  8
DEFPOINTS
  6
BYBLOCK
 10
264.270264
 20
2009.864868
 30
0.0
  0
POINT
  5
729
  8
DEFPOINTS
  6
BYBLOCK
 10
863.627991
 20
2009.864868
 30
0.0
  0
ENDBLK
  5
72A
  8
SIZE
  0
BLOCK
  8
SIZE
  2
*D2
 70
     1
 10
0.0
 20
0.0
 30
0.0
  3
*D2
  1

  0
TEXT
  5
72D
  8
SIZE
  6
CONTINUOUS
 10
-140.169739
 20
-583.195593
 30
0.0
 40
2.8
  1
275
 50
0.000003
 41
0.7
  7
STANDARD1
  0
LINE
  5
72E
  8
SIZE
  6
CONTINUOUS
 10
0.27027
 20
288.864868
 30
0.0
 11
0.27027
 21
-586.195618
 31
0.0
  0
LINE
  5
72F
  8
SIZE
  6
CONTINUOUS
 10
-274.729736
 20
378.864868
 30
0.0
 11
-274.729736
 21
-586.195618
 31
0.0
  0
LINE
  5
730
  8
SIZE
  6
CONTINUOUS
 10
0.27027
 20
-584.195618
 30
0.0
 11
-274.729736
 21
-584.195618
 31
0.0
  0
CIRCLE
  5
731
  8
SIZE
  6
CONTINUOUS
 10
0.27027
 20
-584.195618
 30
0.0
 40
0.5
  0
CIRCLE
  5
732
  8
SIZE
  6
CONTINUOUS
 10
0.27027
 20
-584.195618
 30
0.0
 40
0.4
  0
CIRCLE
  5
733
  8
SIZE
  6
CONTINUOUS
 10
0.27027
 20
-584.195618
 30
0.0
 40
0.3
  0
CIRCLE
  5
734
  8
SIZE
  6
CONTINUOUS
 10
0.27027
 20
-584.195618
 30
0.0
 40
0.2
  0
CIRCLE
  5
735
  8
SIZE
  6
CONTINUOUS
 10
0.27027
 20
-584.195618
 30
0.0
 40
0.1
  0
CIRCLE
  5
736
  8
SIZE
  6
CONTINUOUS
 10
-274.729736
 20
-584.195618
 30
0.0
 40
0.5
  0
CIRCLE
  5
737
  8
SIZE
  6
CONTINUOUS
 10
-274.729736
 20
-584.195618
 30
0.0
 40
0.4
  0
CIRCLE
  5
738
  8
SIZE
  6
CONTINUOUS
 10
-274.729736
 20
-584.195618
 30
0.0
 40
0.3
  0
CIRCLE
  5
739
  8
SIZE
  6
CONTINUOUS
 10
-274.729736
 20
-584.195618
 30
0.0
 40
0.2
  0
CIRCLE
  5
73A
  8
SIZE
  6
CONTINUOUS
 10
-274.729736
 20
-584.195618
 30
0.0
 40
0.1
  0
POINT
  5
73B
  8
DEFPOINTS
  6
BYBLOCK
 10
-274.729736
 20
379.864868
 30
0.0
  0
POINT
  5
73C
  8
DEFPOINTS
  6
BYBLOCK
 10
0.27027
 20
289.864868
 30
0.0
  0
POINT
  5
73D
  8
DEFPOINTS
  6
BYBLOCK
 10
0.27027
 20
-584.195618
 30
0.0
  0
ENDBLK
  5
73E
  8
SIZE
  0
BLOCK
  8
SIZE
  2
*D3
 70
     1
 10
0.0
 20
0.0
 30
0.0
  3
*D3
  1

  0
TEXT
  5
741
  8
SIZE
  6
CONTINUOUS
 10
124.830269
 20
-583.195593
 30
0.0
 40
2.8
  1
255
 50
0.000003
 41
0.7
  7
STANDARD1
  0
LINE
  5
742
  8
SIZE
  6
CONTINUOUS
 10
0.27027
 20
288.864868
 30
0.0
 11
0.27027
 21
-586.195618
 31
0.0
  0
LINE
  5
743
  8
SIZE
  6
CONTINUOUS
 10
255.270264
 20
338.864868
 30
0.0
 11
255.270264
 21
-586.195618
 31
0.0
  0
LINE
  5
744
  8
SIZE
  6
CONTINUOUS
 10
0.27027
 20
-584.195618
 30
0.0
 11
255.270264
 21
-584.195618
 31
0.0
  0
CIRCLE
  5
745
  8
SIZE
  6
CONTINUOUS
 10
0.27027
 20
-584.195618
 30
0.0
 40
0.5
  0
CIRCLE
  5
746
  8
SIZE
  6
CONTINUOUS
 10
0.27027
 20
-584.195618
 30
0.0
 40
0.4
  0
CIRCLE
  5
747
  8
SIZE
  6
CONTINUOUS
 10
0.27027
 20
-584.195618
 30
0.0
 40
0.3
  0
CIRCLE
  5
748
  8
SIZE
  6
CONTINUOUS
 10
0.27027
 20
-584.195618
 30
0.0
 40
0.2
  0
CIRCLE
  5
749
  8
SIZE
  6
CONTINUOUS
 10
0.27027
 20
-584.195618
 30
0.0
 40
0.1
  0
CIRCLE
  5
74A
  8
SIZE
  6
CONTINUOUS
 10
255.270264
 20
-584.195618
 30
0.0
 40
0.5
  0
CIRCLE
  5
74B
  8
SIZE
  6
CONTINUOUS
 10
255.270264
 20
-584.195618
 30
0.0
 40
0.4
  0
CIRCLE
  5
74C
  8
SIZE
  6
CONTINUOUS
 10
255.270264
 20
-584.195618
 30
0.0
 40
0.3
  0
CIRCLE
  5
74D
  8
SIZE
  6
CONTINUOUS
 10
255.270264
 20
-584.195618
 30
0.0
 40
0.2
  0
CIRCLE
  5
74E
  8
SIZE
  6
CONTINUOUS
 10
255.270264
 20
-584.195618
 30
0.0
 40
0.1
  0
POINT
  5
74F
  8
DEFPOINTS
  6
BYBLOCK
 10
255.270264
 20
339.864868
 30
0.0
  0
POINT
  5
750
  8
DEFPOINTS
  6
BYBLOCK
 10
0.27027
 20
289.864868
 30
0.0
  0
POINT
  5
751
  8
DEFPOINTS
  6
BYBLOCK
 10
0.27027
 20
-584.195618
 30
0.0
  0
ENDBLK
  5
752
  8
SIZE
  0
BLOCK
  8
SIZE
  2
*D4
 70
     1
 10
0.0
 20
0.0
 30
0.0
  3
*D4
  1

  0
TEXT
  5
755
  8
SIZE
  6
CONTINUOUS
 10
77.330269
 20
-483.195563
 30
0.0
 40
2.8
  1
160
 50
0.000003
 41
0.7
  7
STANDARD1
  0
LINE
  5
756
  8
SIZE
  6
CONTINUOUS
 10
0.27027
 20
288.864868
 30
0.0
 11
0.27027
 21
-486.195557
 31
0.0
  0
LINE
  5
757
  8
SIZE
  6
CONTINUOUS
 10
160.270264
 20
338.864868
 30
0.0
 11
160.270264
 21
-486.195557
 31
0.0
  0
LINE
  5
758
  8
SIZE
  6
CONTINUOUS
 10
0.27027
 20
-484.195557
 30
0.0
 11
160.270264
 21
-484.195557
 31
0.0
  0
CIRCLE
  5
759
  8
SIZE
  6
CONTINUOUS
 10
0.27027
 20
-484.195557
 30
0.0
 40
0.5
  0
CIRCLE
  5
75A
  8
SIZE
  6
CONTINUOUS
 10
0.27027
 20
-484.195557
 30
0.0
 40
0.4
  0
CIRCLE
  5
75B
  8
SIZE
  6
CONTINUOUS
 10
0.27027
 20
-484.195557
 30
0.0
 40
0.3
  0
CIRCLE
  5
75C
  8
SIZE
  6
CONTINUOUS
 10
0.27027
 20
-484.195557
 30
0.0
 40
0.2
  0
CIRCLE
  5
75D
  8
SIZE
  6
CONTINUOUS
 10
0.27027
 20
-484.195557
 30
0.0
 40
0.1
  0
CIRCLE
  5
75E
  8
SIZE
  6
CONTINUOUS
 10
160.270264
 20
-484.195557
 30
0.0
 40
0.5
  0
CIRCLE
  5
75F
  8
SIZE
  6
CONTINUOUS
 10
160.270264
 20
-484.195557
 30
0.0
 40
0.4
  0
CIRCLE
  5
760
  8
SIZE
  6
CONTINUOUS
 10
160.270264
 20
-484.195557
 30
0.0
 40
0.3
  0
CIRCLE
  5
761
  8
SIZE
  6
CONTINUOUS
 10
160.270264
 20
-484.195557
 30
0.0
 40
0.2
  0
CIRCLE
  5
762
  8
SIZE
  6
CONTINUOUS
 10
160.270264
 20
-484.195557
 30
0.0
 40
0.1
  0
POINT
  5
763
  8
DEFPOINTS
  6
BYBLOCK
 10
160.270264
 20
339.864868
 30
0.0
  0
POINT
  5
764
  8
DEFPOINTS
  6
BYBLOCK
 10
0.27027
 20
289.864868
 30
0.0
  0
POINT
  5
765
  8
DEFPOINTS
  6
BYBLOCK
 10
0.27027
 20
-484.195557
 30
0.0
  0
ENDBLK
  5
766
  8
SIZE
  0
BLOCK
  8
SIZE
  2
*D5
 70
     1
 10
0.0
 20
0.0
 30
0.0
  3
*D5
  1

  0
TEXT
  5
769
  8
SIZE
  6
CONTINUOUS
 10
-117.669731
 20
-483.195563
 30
0.0
 40
2.8
  1
230
 50
0.000003
 41
0.7
  7
STANDARD1
  0
LINE
  5
76A
  8
SIZE
  6
CONTINUOUS
 10
0.27027
 20
288.864868
 30
0.0
 11
0.27027
 21
-486.195557
 31
0.0
  0
LINE
  5
76B
  8
SIZE
  6
CONTINUOUS
 10
-229.729736
 20
298.864868
 30
0.0
 11
-229.729736
 21
-486.195557
 31
0.0
  0
LINE
  5
76C
  8
SIZE
  6
CONTINUOUS
 10
0.27027
 20
-484.195557
 30
0.0
 11
-229.729736
 21
-484.195557
 31
0.0
  0
CIRCLE
  5
76D
  8
SIZE
  6
CONTINUOUS
 10
0.27027
 20
-484.195557
 30
0.0
 40
0.5
  0
CIRCLE
  5
76E
  8
SIZE
  6
CONTINUOUS
 10
0.27027
 20
-484.195557
 30
0.0
 40
0.4
  0
CIRCLE
  5
76F
  8
SIZE
  6
CONTINUOUS
 10
0.27027
 20
-484.195557
 30
0.0
 40
0.3
  0
CIRCLE
  5
770
  8
SIZE
  6
CONTINUOUS
 10
0.27027
 20
-484.195557
 30
0.0
 40
0.2
  0
CIRCLE
  5
771
  8
SIZE
  6
CONTINUOUS
 10
0.27027
 20
-484.195557
 30
0.0
 40
0.1
  0
CIRCLE
  5
772
  8
SIZE
  6
CONTINUOUS
 10
-229.729736
 20
-484.195557
 30
0.0
 40
0.5
  0
CIRCLE
  5
773
  8
SIZE
  6
CONTINUOUS
 10
-229.729736
 20
-484.195557
 30
0.0
 40
0.4
  0
CIRCLE
  5
774
  8
SIZE
  6
CONTINUOUS
 10
-229.729736
 20
-484.195557
 30
0.0
 40
0.3
  0
CIRCLE
  5
775
  8
SIZE
  6
CONTINUOUS
 10
-229.729736
 20
-484.195557
 30
0.0
 40
0.2
  0
CIRCLE
  5
776
  8
SIZE
  6
CONTINUOUS
 10
-229.729736
 20
-484.195557
 30
0.0
 40
0.1
  0
POINT
  5
777
  8
DEFPOINTS
  6
BYBLOCK
 10
-229.729736
 20
299.864868
 30
0.0
  0
POINT
  5
778
  8
DEFPOINTS
  6
BYBLOCK
 10
0.27027
 20
289.864868
 30
0.0
  0
POINT
  5
779
  8
DEFPOINTS
  6
BYBLOCK
 10
0.27027
 20
-484.195557
 30
0.0
  0
ENDBLK
  5
77A
  8
SIZE
  0
BLOCK
  8
SIZE
  2
*D6
 70
     1
 10
0.0
 20
0.0
 30
0.0
  3
*D6
  1

  0
TEXT
  5
77D
  8
SIZE
  6
CONTINUOUS
 10
51.341812
 20
-383.195563
 30
0.0
 40
2.8
  1
108
 50
0.000003
 41
0.7
  7
STANDARD1
  0
LINE
  5
77E
  8
SIZE
  6
CONTINUOUS
 10
0.27027
 20
288.864868
 30
0.0
 11
0.27027
 21
-386.195557
 31
0.0
  0
LINE
  5
77F
  8
SIZE
  6
CONTINUOUS
 10
108.293358
 20
151.364868
 30
0.0
 11
108.293358
 21
-386.195557
 31
0.0
  0
LINE
  5
780
  8
SIZE
  6
CONTINUOUS
 10
0.27027
 20
-384.195557
 30
0.0
 11
108.293358
 21
-384.195557
 31
0.0
  0
CIRCLE
  5
781
  8
SIZE
  6
CONTINUOUS
 10
0.27027
 20
-384.195557
 30
0.0
 40
0.5
  0
CIRCLE
  5
782
  8
SIZE
  6
CONTINUOUS
 10
0.27027
 20
-384.195557
 30
0.0
 40
0.4
  0
CIRCLE
  5
783
  8
SIZE
  6
CONTINUOUS
 10
0.27027
 20
-384.195557
 30
0.0
 40
0.3
  0
CIRCLE
  5
784
  8
SIZE
  6
CONTINUOUS
 10
0.27027
 20
-384.195557
 30
0.0
 40
0.2
  0
CIRCLE
  5
785
  8
SIZE
  6
CONTINUOUS
 10
0.27027
 20
-384.195557
 30
0.0
 40
0.1
  0
CIRCLE
  5
786
  8
SIZE
  6
CONTINUOUS
 10
108.293358
 20
-384.195557
 30
0.0
 40
0.5
  0
CIRCLE
  5
787
  8
SIZE
  6
CONTINUOUS
 10
108.293358
 20
-384.195557
 30
0.0
 40
0.4
  0
CIRCLE
  5
788
  8
SIZE
  6
CONTINUOUS
 10
108.293358
 20
-384.195557
 30
0.0
 40
0.3
  0
CIRCLE
  5
789
  8
SIZE
  6
CONTINUOUS
 10
108.293358
 20
-384.195557
 30
0.0
 40
0.2
  0
CIRCLE
  5
78A
  8
SIZE
  6
CONTINUOUS
 10
108.293358
 20
-384.195557
 30
0.0
 40
0.1
  0
POINT
  5
78B
  8
DEFPOINTS
  6
BYBLOCK
 10
108.293358
 20
152.364868
 30
0.0
  0
POINT
  5
78C
  8
DEFPOINTS
  6
BYBLOCK
 10
0.27027
 20
289.864868
 30
0.0
  0
POINT
  5
78D
  8
DEFPOINTS
  6
BYBLOCK
 10
0.27027
 20
-384.195557
 30
0.0
  0
ENDBLK
  5
78E
  8
SIZE
  0
BLOCK
  8
SIZE
  2
*D7
 70
     1
 10
0.0
 20
0.0
 30
0.0
  3
*D7
  1

  0
TEXT
  5
791
  8
SIZE
  6
CONTINUOUS
 10
-96.669731
 20
-383.195563
 30
0.0
 40
2.8
  1
188
 50
0.000003
 41
0.7
  7
STANDARD1
  0
LINE
  5
792
  8
SIZE
  6
CONTINUOUS
 10
0.27027
 20
288.864868
 30
0.0
 11
0.27027
 21
-386.195557
 31
0.0
  0
LINE
  5
793
  8
SIZE
  6
CONTINUOUS
 10
-187.729736
 20
133.864868
 30
0.0
 11
-187.729736
 21
-386.195557
 31
0.0
  0
LINE
  5
794
  8
SIZE
  6
CONTINUOUS
 10
0.27027
 20
-384.195557
 30
0.0
 11
-187.729736
 21
-384.195557
 31
0.0
  0
CIRCLE
  5
795
  8
SIZE
  6
CONTINUOUS
 10
0.27027
 20
-384.195557
 30
0.0
 40
0.5
  0
CIRCLE
  5
796
  8
SIZE
  6
CONTINUOUS
 10
0.27027
 20
-384.195557
 30
0.0
 40
0.4
  0
CIRCLE
  5
797
  8
SIZE
  6
CONTINUOUS
 10
0.27027
 20
-384.195557
 30
0.0
 40
0.3
  0
CIRCLE
  5
798
  8
SIZE
  6
CONTINUOUS
 10
0.27027
 20
-384.195557
 30
0.0
 40
0.2
  0
CIRCLE
  5
799
  8
SIZE
  6
CONTINUOUS
 10
0.27027
 20
-384.195557
 30
0.0
 40
0.1
  0
CIRCLE
  5
79A
  8
SIZE
  6
CONTINUOUS
 10
-187.729736
 20
-384.195557
 30
0.0
 40
0.5
  0
CIRCLE
  5
79B
  8
SIZE
  6
CONTINUOUS
 10
-187.729736
 20
-384.195557
 30
0.0
 40
0.4
  0
CIRCLE
  5
79C
  8
SIZE
  6
CONTINUOUS
 10
-187.729736
 20
-384.195557
 30
0.0
 40
0.3
  0
CIRCLE
  5
79D
  8
SIZE
  6
CONTINUOUS
 10
-187.729736
 20
-384.195557
 30
0.0
 40
0.2
  0
CIRCLE
  5
79E
  8
SIZE
  6
CONTINUOUS
 10
-187.729736
 20
-384.195557
 30
0.0
 40
0.1
  0
POINT
  5
79F
  8
DEFPOINTS
  6
BYBLOCK
 10
-187.729736
 20
134.864868
 30
0.0
  0
POINT
  5
7A0
  8
DEFPOINTS
  6
BYBLOCK
 10
0.27027
 20
289.864868
 30
0.0
  0
POINT
  5
7A1
  8
DEFPOINTS
  6
BYBLOCK
 10
0.27027
 20
-384.195557
 30
0.0
  0
ENDBLK
  5
7A2
  8
SIZE
  0
BLOCK
  8
SIZE
  2
*D8
 70
     1
 10
0.0
 20
0.0
 30
0.0
  3
*D8
  1

  0
TEXT
  5
7A5
  8
SIZE
  6
CONTINUOUS
 10
33.310272
 20
-283.195563
 30
0.0
 40
2.8
  1
70
 50
0.000003
 41
0.7
  7
STANDARD1
  0
LINE
  5
7A6
  8
SIZE
  6
CONTINUOUS
 10
0.27027
 20
288.864868
 30
0.0
 11
0.27027
 21
-286.195557
 31
0.0
  0
LINE
  5
7A7
  8
SIZE
  6
CONTINUOUS
 10
70.270271
 20
298.864868
 30
0.0
 11
70.270271
 21
-286.195557
 31
0.0
  0
LINE
  5
7A8
  8
SIZE
  6
CONTINUOUS
 10
0.27027
 20
-284.195557
 30
0.0
 11
70.270271
 21
-284.195557
 31
0.0
  0
CIRCLE
  5
7A9
  8
SIZE
  6
CONTINUOUS
 10
0.27027
 20
-284.195557
 30
0.0
 40
0.5
  0
CIRCLE
  5
7AA
  8
SIZE
  6
CONTINUOUS
 10
0.27027
 20
-284.195557
 30
0.0
 40
0.4
  0
CIRCLE
  5
7AB
  8
SIZE
  6
CONTINUOUS
 10
0.27027
 20
-284.195557
 30
0.0
 40
0.3
  0
CIRCLE
  5
7AC
  8
SIZE
  6
CONTINUOUS
 10
0.27027
 20
-284.195557
 30
0.0
 40
0.2
  0
CIRCLE
  5
7AD
  8
SIZE
  6
CONTINUOUS
 10
0.27027
 20
-284.195557
 30
0.0
 40
0.1
  0
CIRCLE
  5
7AE
  8
SIZE
  6
CONTINUOUS
 10
70.270271
 20
-284.195557
 30
0.0
 40
0.5
  0
CIRCLE
  5
7AF
  8
SIZE
  6
CONTINUOUS
 10
70.270271
 20
-284.195557
 30
0.0
 40
0.4
  0
CIRCLE
  5
7B0
  8
SIZE
  6
CONTINUOUS
 10
70.270271
 20
-284.195557
 30
0.0
 40
0.3
  0
CIRCLE
  5
7B1
  8
SIZE
  6
CONTINUOUS
 10
70.270271
 20
-284.195557
 30
0.0
 40
0.2
  0
CIRCLE
  5
7B2
  8
SIZE
  6
CONTINUOUS
 10
70.270271
 20
-284.195557
 30
0.0
 40
0.1
  0
POINT
  5
7B3
  8
DEFPOINTS
  6
BYBLOCK
 10
70.270271
 20
299.864868
 30
0.0
  0
POINT
  5
7B4
  8
DEFPOINTS
  6
BYBLOCK
 10
0.27027
 20
289.864868
 30
0.0
  0
POINT
  5
7B5
  8
DEFPOINTS
  6
BYBLOCK
 10
0.27027
 20
-284.195557
 30
0.0
  0
ENDBLK
  5
7B6
  8
SIZE
  0
BLOCK
  8
SIZE
  2
*D9
 70
     1
 10
0.0
 20
0.0
 30
0.0
  3
*D9
  1

  0
TEXT
  5
7B9
  8
SIZE
  6
CONTINUOUS
 10
-92.669731
 20
-283.195563
 30
0.0
 40
2.8
  1
180
 50
0.000003
 41
0.7
  7
STANDARD1
  0
LINE
  5
7BA
  8
SIZE
  6
CONTINUOUS
 10
0.27027
 20
288.864868
 30
0.0
 11
0.27027
 21
-286.195557
 31
0.0
  0
LINE
  5
7BB
  8
SIZE
  6
CONTINUOUS
 10
-179.729736
 20
378.864868
 30
0.0
 11
-179.729736
 21
-286.195557
 31
0.0
  0
LINE
  5
7BC
  8
SIZE
  6
CONTINUOUS
 10
0.27027
 20
-284.195557
 30
0.0
 11
-179.729736
 21
-284.195557
 31
0.0
  0
CIRCLE
  5
7BD
  8
SIZE
  6
CONTINUOUS
 10
0.27027
 20
-284.195557
 30
0.0
 40
0.5
  0
CIRCLE
  5
7BE
  8
SIZE
  6
CONTINUOUS
 10
0.27027
 20
-284.195557
 30
0.0
 40
0.4
  0
CIRCLE
  5
7BF
  8
SIZE
  6
CONTINUOUS
 10
0.27027
 20
-284.195557
 30
0.0
 40
0.3
  0
CIRCLE
  5
7C0
  8
SIZE
  6
CONTINUOUS
 10
0.27027
 20
-284.195557
 30
0.0
 40
0.2
  0
CIRCLE
  5
7C1
  8
SIZE
  6
CONTINUOUS
 10
0.27027
 20
-284.195557
 30
0.0
 40
0.1
  0
CIRCLE
  5
7C2
  8
SIZE
  6
CONTINUOUS
 10
-179.729736
 20
-284.195557
 30
0.0
 40
0.5
  0
CIRCLE
  5
7C3
  8
SIZE
  6
CONTINUOUS
 10
-179.729736
 20
-284.195557
 30
0.0
 40
0.4
  0
CIRCLE
  5
7C4
  8
SIZE
  6
CONTINUOUS
 10
-179.729736
 20
-284.195557
 30
0.0
 40
0.3
  0
CIRCLE
  5
7C5
  8
SIZE
  6
CONTINUOUS
 10
-179.729736
 20
-284.195557
 30
0.0
 40
0.2
  0
CIRCLE
  5
7C6
  8
SIZE
  6
CONTINUOUS
 10
-179.729736
 20
-284.195557
 30
0.0
 40
0.1
  0
POINT
  5
7C7
  8
DEFPOINTS
  6
BYBLOCK
 10
-179.729736
 20
379.864868
 30
0.0
  0
POINT
  5
7C8
  8
DEFPOINTS
  6
BYBLOCK
 10
0.27027
 20
289.864868
 30
0.0
  0
POINT
  5
7C9
  8
DEFPOINTS
  6
BYBLOCK
 10
0.27027
 20
-284.195557
 30
0.0
  0
ENDBLK
  5
7CA
  8
SIZE
  0
BLOCK
  8
SIZE
  2
*D10
 70
     1
 10
0.0
 20
0.0
 30
0.0
  3
*D10
  1

  0
TEXT
  5
7CD
  8
SIZE
  6
CONTINUOUS
 10
-368.631714
 20
541.60293
 30
0.0
 40
2.8
  1
30
 50
0.000003
 41
0.7
  7
STANDARD1
  0
LINE
  5
7CE
  8
SIZE
  6
CONTINUOUS
 10
-314.729736
 20
200.864868
 30
0.0
 11
-314.729736
 21
542.602905
 31
0.0
  0
LINE
  5
7CF
  8
SIZE
  6
CONTINUOUS
 10
-284.729736
 20
642.864868
 30
0.0
 11
-284.729736
 21
538.602905
 31
0.0
  0
LINE
  5
7D0
  8
SIZE
  6
CONTINUOUS
 10
-370.031708
 20
540.602905
 30
0.0
 11
-279.729736
 21
540.602905
 31
0.0
  0
CIRCLE
  5
7D1
  8
SIZE
  6
CONTINUOUS
 10
-314.729736
 20
540.602905
 30
0.0
 40
0.5
  0
CIRCLE
  5
7D2
  8
SIZE
  6
CONTINUOUS
 10
-314.729736
 20
540.602905
 30
0.0
 40
0.4
  0
CIRCLE
  5
7D3
  8
SIZE
  6
CONTINUOUS
 10
-314.729736
 20
540.602905
 30
0.0
 40
0.3
  0
CIRCLE
  5
7D4
  8
SIZE
  6
CONTINUOUS
 10
-314.729736
 20
540.602905
 30
0.0
 40
0.2
  0
CIRCLE
  5
7D5
  8
SIZE
  6
CONTINUOUS
 10
-314.729736
 20
540.602905
 30
0.0
 40
0.1
  0
CIRCLE
  5
7D6
  8
SIZE
  6
CONTINUOUS
 10
-284.729736
 20
540.602905
 30
0.0
 40
0.5
  0
CIRCLE
  5
7D7
  8
SIZE
  6
CONTINUOUS
 10
-284.729736
 20
540.602905
 30
0.0
 40
0.4
  0
CIRCLE
  5
7D8
  8
SIZE
  6
CONTINUOUS
 10
-284.729736
 20
540.602905
 30
0.0
 40
0.3
  0
CIRCLE
  5
7D9
  8
SIZE
  6
CONTINUOUS
 10
-284.729736
 20
540.602905
 30
0.0
 40
0.2
  0
CIRCLE
  5
7DA
  8
SIZE
  6
CONTINUOUS
 10
-284.729736
 20
540.602905
 30
0.0
 40
0.1
  0
POINT
  5
7DB
  8
DEFPOINTS
  6
BYBLOCK
 10
-284.729736
 20
643.864868
 30
0.0
  0
POINT
  5
7DC
  8
DEFPOINTS
  6
BYBLOCK
 10
-314.729736
 20
199.864868
 30
0.0
  0
POINT
  5
7DD
  8
DEFPOINTS
  6
BYBLOCK
 10
-314.729736
 20
540.602905
 30
0.0
  0
ENDBLK
  5
7DE
  8
SIZE
  0
BLOCK
  8
SIZE
  2
*D11
 70
     1
 10
0.0
 20
0.0
 30
0.0
  3
*D11
  1

  0
TEXT
  5
7E1
  8
SIZE
  6
CONTINUOUS
 10
-374.554718
 20
877.218713
 30
0.0
 40
2.8
  1
34
 50
0.000003
 41
0.7
  7
STANDARD1
  0
LINE
  5
7E2
  8
SIZE
  6
CONTINUOUS
 10
-280.729736
 20
665.864868
 30
0.0
 11
-280.729736
 21
878.218689
 31
0.0
  0
LINE
  5
7E3
  8
SIZE
  6
CONTINUOUS
 10
-314.729736
 20
200.864868
 30
0.0
 11
-314.729736
 21
878.218689
 31
0.0
  0
LINE
  5
7E4
  8
SIZE
  6
CONTINUOUS
 10
-275.729736
 20
876.218689
 30
0.0
 11
-375.954712
 21
876.218689
 31
0.0
  0
CIRCLE
  5
7E5
  8
SIZE
  6
CONTINUOUS
 10
-280.729736
 20
876.218689
 30
0.0
 40
0.5
  0
CIRCLE
  5
7E6
  8
SIZE
  6
CONTINUOUS
 10
-280.729736
 20
876.218689
 30
0.0
 40
0.4
  0
CIRCLE
  5
7E7
  8
SIZE
  6
CONTINUOUS
 10
-280.729736
 20
876.218689
 30
0.0
 40
0.3
  0
CIRCLE
  5
7E8
  8
SIZE
  6
CONTINUOUS
 10
-280.729736
 20
876.218689
 30
0.0
 40
0.2
  0
CIRCLE
  5
7E9
  8
SIZE
  6
CONTINUOUS
 10
-280.729736
 20
876.218689
 30
0.0
 40
0.1
  0
CIRCLE
  5
7EA
  8
SIZE
  6
CONTINUOUS
 10
-314.729736
 20
876.218689
 30
0.0
 40
0.5
  0
CIRCLE
  5
7EB
  8
SIZE
  6
CONTINUOUS
 10
-314.729736
 20
876.218689
 30
0.0
 40
0.4
  0
CIRCLE
  5
7EC
  8
SIZE
  6
CONTINUOUS
 10
-314.729736
 20
876.218689
 30
0.0
 40
0.3
  0
CIRCLE
  5
7ED
  8
SIZE
  6
CONTINUOUS
 10
-314.729736
 20
876.218689
 30
0.0
 40
0.2
  0
CIRCLE
  5
7EE
  8
SIZE
  6
CONTINUOUS
 10
-314.729736
 20
876.218689
 30
0.0
 40
0.1
  0
POINT
  5
7EF
  8
DEFPOINTS
  6
BYBLOCK
 10
-314.729736
 20
199.864868
 30
0.0
  0
POINT
  5
7F0
  8
DEFPOINTS
  6
BYBLOCK
 10
-280.729736
 20
664.864868
 30
0.0
  0
POINT
  5
7F1
  8
DEFPOINTS
  6
BYBLOCK
 10
-280.729736
 20
876.218689
 30
0.0
  0
ENDBLK
  5
7F2
  8
SIZE
  0
BLOCK
  8
SIZE
  2
*D12
 70
     1
 10
0.0
 20
0.0
 30
0.0
  3
*D12
  1

  0
TEXT
  5
7F5
  8
SIZE
  6
CONTINUOUS
 10
-970.040918
 20
1103.444824
 30
0.0
 40
2.8
  1
2215
 50
90.00000499999999
 41
0.7
  7
STANDARD1
  0
LINE
  5
7F6
  8
SIZE
  6
CONTINUOUS
 10
-40.729729
 20
2214.864746
 30
0.0
 11
-971.040894
 21
2214.864746
 31
0.0
  0
LINE
  5
7F7
  8
SIZE
  6
CONTINUOUS
 10
-315.729736
 20
-0.135135
 30
0.0
 11
-971.040894
 21
-0.135135
 31
0.0
  0
LINE
  5
7F8
  8
SIZE
  6
CONTINUOUS
 10
-969.040894
 20
2214.864746
 30
0.0
 11
-969.040894
 21
-0.135135
 31
0.0
  0
CIRCLE
  5
7F9
  8
SIZE
  6
CONTINUOUS
 10
-969.040894
 20
2214.864746
 30
0.0
 40
0.5
  0
CIRCLE
  5
7FA
  8
SIZE
  6
CONTINUOUS
 10
-969.040894
 20
2214.864746
 30
0.0
 40
0.4
  0
CIRCLE
  5
7FB
  8
SIZE
  6
CONTINUOUS
 10
-969.040894
 20
2214.864746
 30
0.0
 40
0.3
  0
CIRCLE
  5
7FC
  8
SIZE
  6
CONTINUOUS
 10
-969.040894
 20
2214.864746
 30
0.0
 40
0.2
  0
CIRCLE
  5
7FD
  8
SIZE
  6
CONTINUOUS
 10
-969.040894
 20
2214.864746
 30
0.0
 40
0.1
  0
CIRCLE
  5
7FE
  8
SIZE
  6
CONTINUOUS
 10
-969.040894
 20
-0.135135
 30
0.0
 40
0.5
  0
CIRCLE
  5
7FF
  8
SIZE
  6
CONTINUOUS
 10
-969.040894
 20
-0.135135
 30
0.0
 40
0.4
  0
CIRCLE
  5
800
  8
SIZE
  6
CONTINUOUS
 10
-969.040894
 20
-0.135135
 30
0.0
 40
0.3
  0
CIRCLE
  5
801
  8
SIZE
  6
CONTINUOUS
 10
-969.040894
 20
-0.135135
 30
0.0
 40
0.2
  0
CIRCLE
  5
802
  8
SIZE
  6
CONTINUOUS
 10
-969.040894
 20
-0.135135
 30
0.0
 40
0.1
  0
POINT
  5
803
  8
DEFPOINTS
  6
BYBLOCK
 10
-314.729736
 20
-0.135135
 30
0.0
  0
POINT
  5
804
  8
DEFPOINTS
  6
BYBLOCK
 10
-39.729729
 20
2214.864746
 30
0.0
  0
POINT
  5
805
  8
DEFPOINTS
  6
BYBLOCK
 10
-969.040894
 20
2214.864746
 30
0.0
  0
ENDBLK
  5
806
  8
SIZE
  0
BLOCK
  8
SIZE
  2
*D13
 70
     1
 10
0.0
 20
0.0
 30
0.0
  3
*D13
  1

  0
TEXT
  5
809
  8
SIZE
  6
CONTINUOUS
 10
-870.040918
 20
1092.444824
 30
0.0
 40
2.8
  1
2193
 50
90.00000499999999
 41
0.7
  7
STANDARD1
  0
LINE
  5
80A
  8
SIZE
  6
CONTINUOUS
 10
-315.729736
 20
-0.135135
 30
0.0
 11
-871.040894
 21
-0.135135
 31
0.0
  0
LINE
  5
80B
  8
SIZE
  6
CONTINUOUS
 10
-50.729729
 20
2192.864746
 30
0.0
 11
-871.040894
 21
2192.864746
 31
0.0
  0
LINE
  5
80C
  8
SIZE
  6
CONTINUOUS
 10
-869.040894
 20
-0.135135
 30
0.0
 11
-869.040894
 21
2192.864746
 31
0.0
  0
CIRCLE
  5
80D
  8
SIZE
  6
CONTINUOUS
 10
-869.040894
 20
-0.135135
 30
0.0
 40
0.5
  0
CIRCLE
  5
80E
  8
SIZE
  6
CONTINUOUS
 10
-869.040894
 20
-0.135135
 30
0.0
 40
0.4
  0
CIRCLE
  5
80F
  8
SIZE
  6
CONTINUOUS
 10
-869.040894
 20
-0.135135
 30
0.0
 40
0.3
  0
CIRCLE
  5
810
  8
SIZE
  6
CONTINUOUS
 10
-869.040894
 20
-0.135135
 30
0.0
 40
0.2
  0
CIRCLE
  5
811
  8
SIZE
  6
CONTINUOUS
 10
-869.040894
 20
-0.135135
 30
0.0
 40
0.1
  0
CIRCLE
  5
812
  8
SIZE
  6
CONTINUOUS
 10
-869.040894
 20
2192.864746
 30
0.0
 40
0.5
  0
CIRCLE
  5
813
  8
SIZE
  6
CONTINUOUS
 10
-869.040894
 20
2192.864746
 30
0.0
 40
0.4
  0
CIRCLE
  5
814
  8
SIZE
  6
CONTINUOUS
 10
-869.040894
 20
2192.864746
 30
0.0
 40
0.3
  0
CIRCLE
  5
815
  8
SIZE
  6
CONTINUOUS
 10
-869.040894
 20
2192.864746
 30
0.0
 40
0.2
  0
CIRCLE
  5
816
  8
SIZE
  6
CONTINUOUS
 10
-869.040894
 20
2192.864746
 30
0.0
 40
0.1
  0
POINT
  5
817
  8
DEFPOINTS
  6
BYBLOCK
 10
-49.729729
 20
2192.864746
 30
0.0
  0
POINT
  5
818
  8
DEFPOINTS
  6
BYBLOCK
 10
-314.729736
 20
-0.135135
 30
0.0
  0
POINT
  5
819
  8
DEFPOINTS
  6
BYBLOCK
 10
-869.040894
 20
-0.135135
 30
0.0
  0
ENDBLK
  5
81A
  8
SIZE
  0
BLOCK
  8
SIZE
  2
*D14
 70
     1
 10
0.0
 20
0.0
 30
0.0
  3
*D14
  1

  0
TEXT
  5
81D
  8
SIZE
  6
CONTINUOUS
 10
1062.627783
 20
1080.944824
 30
0.0
 40
2.8
  1
2170
 50
90.00000499999999
 41
0.7
  7
STANDARD1
  0
LINE
  5
81E
  8
SIZE
  6
CONTINUOUS
 10
316.270264
 20
2169.864746
 30
0.0
 11
1065.627808
 21
2169.864746
 31
0.0
  0
LINE
  5
81F
  8
SIZE
  6
CONTINUOUS
 10
316.270264
 20
-0.135135
 30
0.0
 11
1065.627808
 21
-0.135135
 31
0.0
  0
LINE
  5
820
  8
SIZE
  6
CONTINUOUS
 10
1063.627808
 20
2169.864746
 30
0.0
 11
1063.627808
 21
-0.135135
 31
0.0
  0
CIRCLE
  5
821
  8
SIZE
  6
CONTINUOUS
 10
1063.627808
 20
2169.864746
 30
0.0
 40
0.5
  0
CIRCLE
  5
822
  8
SIZE
  6
CONTINUOUS
 10
1063.627808
 20
2169.864746
 30
0.0
 40
0.4
  0
CIRCLE
  5
823
  8
SIZE
  6
CONTINUOUS
 10
1063.627808
 20
2169.864746
 30
0.0
 40
0.3
  0
CIRCLE
  5
824
  8
SIZE
  6
CONTINUOUS
 10
1063.627808
 20
2169.864746
 30
0.0
 40
0.2
  0
CIRCLE
  5
825
  8
SIZE
  6
CONTINUOUS
 10
1063.627808
 20
2169.864746
 30
0.0
 40
0.1
  0
CIRCLE
  5
826
  8
SIZE
  6
CONTINUOUS
 10
1063.627808
 20
-0.135135
 30
0.0
 40
0.5
  0
CIRCLE
  5
827
  8
SIZE
  6
CONTINUOUS
 10
1063.627808
 20
-0.135135
 30
0.0
 40
0.4
  0
CIRCLE
  5
828
  8
SIZE
  6
CONTINUOUS
 10
1063.627808
 20
-0.135135
 30
0.0
 40
0.3
  0
CIRCLE
  5
829
  8
SIZE
  6
CONTINUOUS
 10
1063.627808
 20
-0.135135
 30
0.0
 40
0.2
  0
CIRCLE
  5
82A
  8
SIZE
  6
CONTINUOUS
 10
1063.627808
 20
-0.135135
 30
0.0
 40
0.1
  0
POINT
  5
82B
  8
DEFPOINTS
  6
BYBLOCK
 10
315.270264
 20
-0.135135
 30
0.0
  0
POINT
  5
82C
  8
DEFPOINTS
  6
BYBLOCK
 10
315.270264
 20
2169.864746
 30
0.0
  0
POINT
  5
82D
  8
DEFPOINTS
  6
BYBLOCK
 10
1063.627808
 20
2169.864746
 30
0.0
  0
ENDBLK
  5
82E
  8
SIZE
  0
BLOCK
  8
SIZE
  2
*D15
 70
     1
 10
0.0
 20
0.0
 30
0.0
  3
*D15
  1

  0
TEXT
  5
831
  8
SIZE
  6
CONTINUOUS
 10
962.627966
 20
1180.944824
 30
0.0
 40
2.8
  1
1970
 50
90.00000499999999
 41
0.7
  7
STANDARD1
  0
LINE
  5
832
  8
SIZE
  6
CONTINUOUS
 10
316.270264
 20
2169.864746
 30
0.0
 11
965.627991
 21
2169.864746
 31
0.0
  0
LINE
  5
833
  8
SIZE
  6
CONTINUOUS
 10
316.270264
 20
199.864868
 30
0.0
 11
965.627991
 21
199.864868
 31
0.0
  0
LINE
  5
834
  8
SIZE
  6
CONTINUOUS
 10
963.627991
 20
2169.864746
 30
0.0
 11
963.627991
 21
199.864868
 31
0.0
  0
CIRCLE
  5
835
  8
SIZE
  6
CONTINUOUS
 10
963.627991
 20
2169.864746
 30
0.0
 40
0.5
  0
CIRCLE
  5
836
  8
SIZE
  6
CONTINUOUS
 10
963.627991
 20
2169.864746
 30
0.0
 40
0.4
  0
CIRCLE
  5
837
  8
SIZE
  6
CONTINUOUS
 10
963.627991
 20
2169.864746
 30
0.0
 40
0.3
  0
CIRCLE
  5
838
  8
SIZE
  6
CONTINUOUS
 10
963.627991
 20
2169.864746
 30
0.0
 40
0.2
  0
CIRCLE
  5
839
  8
SIZE
  6
CONTINUOUS
 10
963.627991
 20
2169.864746
 30
0.0
 40
0.1
  0
CIRCLE
  5
83A
  8
SIZE
  6
CONTINUOUS
 10
963.627991
 20
199.864868
 30
0.0
 40
0.5
  0
CIRCLE
  5
83B
  8
SIZE
  6
CONTINUOUS
 10
963.627991
 20
199.864868
 30
0.0
 40
0.4
  0
CIRCLE
  5
83C
  8
SIZE
  6
CONTINUOUS
 10
963.627991
 20
199.864868
 30
0.0
 40
0.3
  0
CIRCLE
  5
83D
  8
SIZE
  6
CONTINUOUS
 10
963.627991
 20
199.864868
 30
0.0
 40
0.2
  0
CIRCLE
  5
83E
  8
SIZE
  6
CONTINUOUS
 10
963.627991
 20
199.864868
 30
0.0
 40
0.1
  0
POINT
  5
83F
  8
DEFPOINTS
  6
BYBLOCK
 10
315.270264
 20
199.864868
 30
0.0
  0
POINT
  5
840
  8
DEFPOINTS
  6
BYBLOCK
 10
315.270264
 20
2169.864746
 30
0.0
  0
POINT
  5
841
  8
DEFPOINTS
  6
BYBLOCK
 10
963.627991
 20
2169.864746
 30
0.0
  0
ENDBLK
  5
842
  8
SIZE
  0
BLOCK
  8
SIZE
  2
*D16
 70
     1
 10
0.0
 20
0.0
 30
0.0
  3
*D16
  1

  0
TEXT
  5
845
  8
SIZE
  6
CONTINUOUS
 10
1062.627783
 20
2266.924805
 30
0.0
 40
2.8
  1
200
 50
90.00000499999999
 41
0.7
  7
STANDARD1
  0
LINE
  5
846
  8
SIZE
  6
CONTINUOUS
 10
316.270264
 20
2369.864746
 30
0.0
 11
1065.627808
 21
2369.864746
 31
0.0
  0
LINE
  5
847
  8
SIZE
  6
CONTINUOUS
 10
316.270264
 20
2169.864746
 30
0.0
 11
1065.627808
 21
2169.864746
 31
0.0
  0
LINE
  5
848
  8
SIZE
  6
CONTINUOUS
 10
1063.627808
 20
2369.864746
 30
0.0
 11
1063.627808
 21
2169.864746
 31
0.0
  0
CIRCLE
  5
849
  8
SIZE
  6
CONTINUOUS
 10
1063.627808
 20
2369.864746
 30
0.0
 40
0.5
  0
CIRCLE
  5
84A
  8
SIZE
  6
CONTINUOUS
 10
1063.627808
 20
2369.864746
 30
0.0
 40
0.4
  0
CIRCLE
  5
84B
  8
SIZE
  6
CONTINUOUS
 10
1063.627808
 20
2369.864746
 30
0.0
 40
0.3
  0
CIRCLE
  5
84C
  8
SIZE
  6
CONTINUOUS
 10
1063.627808
 20
2369.864746
 30
0.0
 40
0.2
  0
CIRCLE
  5
84D
  8
SIZE
  6
CONTINUOUS
 10
1063.627808
 20
2369.864746
 30
0.0
 40
0.1
  0
CIRCLE
  5
84E
  8
SIZE
  6
CONTINUOUS
 10
1063.627808
 20
2169.864746
 30
0.0
 40
0.5
  0
CIRCLE
  5
84F
  8
SIZE
  6
CONTINUOUS
 10
1063.627808
 20
2169.864746
 30
0.0
 40
0.4
  0
CIRCLE
  5
850
  8
SIZE
  6
CONTINUOUS
 10
1063.627808
 20
2169.864746
 30
0.0
 40
0.3
  0
CIRCLE
  5
851
  8
SIZE
  6
CONTINUOUS
 10
1063.627808
 20
2169.864746
 30
0.0
 40
0.2
  0
CIRCLE
  5
852
  8
SIZE
  6
CONTINUOUS
 10
1063.627808
 20
2169.864746
 30
0.0
 40
0.1
  0
POINT
  5
853
  8
DEFPOINTS
  6
BYBLOCK
 10
315.270264
 20
2169.864746
 30
0.0
  0
POINT
  5
854
  8
DEFPOINTS
  6
BYBLOCK
 10
315.270264
 20
2369.864746
 30
0.0
  0
POINT
  5
855
  8
DEFPOINTS
  6
BYBLOCK
 10
1063.627808
 20
2369.864746
 30
0.0
  0
ENDBLK
  5
856
  8
SIZE
  0
BLOCK
  8
SIZE
  2
*D17
 70
     1
 10
0.0
 20
0.0
 30
0.0
  3
*D17
  1

  0
TEXT
  5
859
  8
SIZE
  6
CONTINUOUS
 10
-1.68973
 20
2470.864648
 30
0.0
 40
2.8
  1
60
 50
0.000003
 41
0.7
  7
STANDARD1
  0
LINE
  5
85A
  8
SIZE
  6
CONTINUOUS
 10
-29.729731
 20
2213.864746
 30
0.0
 11
-29.729731
 21
2471.864746
 31
0.0
  0
LINE
  5
85B
  8
SIZE
  6
CONTINUOUS
 10
30.270269
 20
2213.864746
 30
0.0
 11
30.270269
 21
2471.864746
 31
0.0
  0
LINE
  5
85C
  8
SIZE
  6
CONTINUOUS
 10
-29.729731
 20
2469.864746
 30
0.0
 11
30.270269
 21
2469.864746
 31
0.0
  0
CIRCLE
  5
85D
  8
SIZE
  6
CONTINUOUS
 10
-29.729731
 20
2469.864746
 30
0.0
 40
0.5
  0
CIRCLE
  5
85E
  8
SIZE
  6
CONTINUOUS
 10
-29.729731
 20
2469.864746
 30
0.0
 40
0.4
  0
CIRCLE
  5
85F
  8
SIZE
  6
CONTINUOUS
 10
-29.729731
 20
2469.864746
 30
0.0
 40
0.3
  0
CIRCLE
  5
860
  8
SIZE
  6
CONTINUOUS
 10
-29.729731
 20
2469.864746
 30
0.0
 40
0.2
  0
CIRCLE
  5
861
  8
SIZE
  6
CONTINUOUS
 10
-29.729731
 20
2469.864746
 30
0.0
 40
0.1
  0
CIRCLE
  5
862
  8
SIZE
  6
CONTINUOUS
 10
30.270269
 20
2469.864746
 30
0.0
 40
0.5
  0
CIRCLE
  5
863
  8
SIZE
  6
CONTINUOUS
 10
30.270269
 20
2469.864746
 30
0.0
 40
0.4
  0
CIRCLE
  5
864
  8
SIZE
  6
CONTINUOUS
 10
30.270269
 20
2469.864746
 30
0.0
 40
0.3
  0
CIRCLE
  5
865
  8
SIZE
  6
CONTINUOUS
 10
30.270269
 20
2469.864746
 30
0.0
 40
0.2
  0
CIRCLE
  5
866
  8
SIZE
  6
CONTINUOUS
 10
30.270269
 20
2469.864746
 30
0.0
 40
0.1
  0
POINT
  5
867
  8
DEFPOINTS
  6
BYBLOCK
 10
30.270269
 20
2212.864746
 30
0.0
  0
POINT
  5
868
  8
DEFPOINTS
  6
BYBLOCK
 10
-29.729731
 20
2212.864746
 30
0.0
  0
POINT
  5
869
  8
DEFPOINTS
  6
BYBLOCK
 10
-29.729731
 20
2469.864746
 30
0.0
  0
ENDBLK
  5
86A
  8
SIZE
  0
BLOCK
  8
SIZE
  2
*D18
 70
     1
 10
0.0
 20
0.0
 30
0.0
  3
*D18
  1

  0
TEXT
  5
86D
  8
SIZE
  6
CONTINUOUS
 10
-1.68973
 20
2570.864648
 30
0.0
 40
2.8
  1
90
 50
0.000003
 41
0.7
  7
STANDARD1
  0
LINE
  5
86E
  8
SIZE
  6
CONTINUOUS
 10
-44.729729
 20
2210.864746
 30
0.0
 11
-44.729729
 21
2571.864746
 31
0.0
  0
LINE
  5
86F
  8
SIZE
  6
CONTINUOUS
 10
45.270271
 20
2210.864746
 30
0.0
 11
45.270271
 21
2571.864746
 31
0.0
  0
LINE
  5
870
  8
SIZE
  6
CONTINUOUS
 10
-44.729729
 20
2569.864746
 30
0.0
 11
45.270271
 21
2569.864746
 31
0.0
  0
CIRCLE
  5
871
  8
SIZE
  6
CONTINUOUS
 10
-44.729729
 20
2569.864746
 30
0.0
 40
0.5
  0
CIRCLE
  5
872
  8
SIZE
  6
CONTINUOUS
 10
-44.729729
 20
2569.864746
 30
0.0
 40
0.4
  0
CIRCLE
  5
873
  8
SIZE
  6
CONTINUOUS
 10
-44.729729
 20
2569.864746
 30
0.0
 40
0.3
  0
CIRCLE
  5
874
  8
SIZE
  6
CONTINUOUS
 10
-44.729729
 20
2569.864746
 30
0.0
 40
0.2
  0
CIRCLE
  5
875
  8
SIZE
  6
CONTINUOUS
 10
-44.729729
 20
2569.864746
 30
0.0
 40
0.1
  0
CIRCLE
  5
876
  8
SIZE
  6
CONTINUOUS
 10
45.270271
 20
2569.864746
 30
0.0
 40
0.5
  0
CIRCLE
  5
877
  8
SIZE
  6
CONTINUOUS
 10
45.270271
 20
2569.864746
 30
0.0
 40
0.4
  0
CIRCLE
  5
878
  8
SIZE
  6
CONTINUOUS
 10
45.270271
 20
2569.864746
 30
0.0
 40
0.3
  0
CIRCLE
  5
879
  8
SIZE
  6
CONTINUOUS
 10
45.270271
 20
2569.864746
 30
0.0
 40
0.2
  0
CIRCLE
  5
87A
  8
SIZE
  6
CONTINUOUS
 10
45.270271
 20
2569.864746
 30
0.0
 40
0.1
  0
POINT
  5
87B
  8
DEFPOINTS
  6
BYBLOCK
 10
45.270271
 20
2209.864746
 30
0.0
  0
POINT
  5
87C
  8
DEFPOINTS
  6
BYBLOCK
 10
-44.729729
 20
2209.864746
 30
0.0
  0
POINT
  5
87D
  8
DEFPOINTS
  6
BYBLOCK
 10
-44.729729
 20
2569.864746
 30
0.0
  0
ENDBLK
  5
87E
  8
SIZE
  0
BLOCK
  8
SIZE
  2
*D19
 70
     1
 10
0.0
 20
0.0
 30
0.0
  3
*D19
  1

  0
TEXT
  5
881
  8
SIZE
  6
CONTINUOUS
 10
-2.66973
 20
2720.864648
 30
0.0
 40
2.8
  1
630
 50
0.000003
 41
0.7
  7
STANDARD1
  0
LINE
  5
882
  8
SIZE
  6
CONTINUOUS
 10
-314.729736
 20
2370.864746
 30
0.0
 11
-314.729736
 21
2721.864746
 31
0.0
  0
LINE
  5
883
  8
SIZE
  6
CONTINUOUS
 10
315.270264
 20
2370.864746
 30
0.0
 11
315.270264
 21
2721.864746
 31
0.0
  0
LINE
  5
884
  8
SIZE
  6
CONTINUOUS
 10
-314.729736
 20
2719.864746
 30
0.0
 11
315.270264
 21
2719.864746
 31
0.0
  0
CIRCLE
  5
885
  8
SIZE
  6
CONTINUOUS
 10
-314.729736
 20
2719.864746
 30
0.0
 40
0.5
  0
CIRCLE
  5
886
  8
SIZE
  6
CONTINUOUS
 10
-314.729736
 20
2719.864746
 30
0.0
 40
0.4
  0
CIRCLE
  5
887
  8
SIZE
  6
CONTINUOUS
 10
-314.729736
 20
2719.864746
 30
0.0
 40
0.3
  0
CIRCLE
  5
888
  8
SIZE
  6
CONTINUOUS
 10
-314.729736
 20
2719.864746
 30
0.0
 40
0.2
  0
CIRCLE
  5
889
  8
SIZE
  6
CONTINUOUS
 10
-314.729736
 20
2719.864746
 30
0.0
 40
0.1
  0
CIRCLE
  5
88A
  8
SIZE
  6
CONTINUOUS
 10
315.270264
 20
2719.864746
 30
0.0
 40
0.5
  0
CIRCLE
  5
88B
  8
SIZE
  6
CONTINUOUS
 10
315.270264
 20
2719.864746
 30
0.0
 40
0.4
  0
CIRCLE
  5
88C
  8
SIZE
  6
CONTINUOUS
 10
315.270264
 20
2719.864746
 30
0.0
 40
0.3
  0
CIRCLE
  5
88D
  8
SIZE
  6
CONTINUOUS
 10
315.270264
 20
2719.864746
 30
0.0
 40
0.2
  0
CIRCLE
  5
88E
  8
SIZE
  6
CONTINUOUS
 10
315.270264
 20
2719.864746
 30
0.0
 40
0.1
  0
POINT
  5
88F
  8
DEFPOINTS
  6
BYBLOCK
 10
315.270264
 20
2369.864746
 30
0.0
  0
POINT
  5
890
  8
DEFPOINTS
  6
BYBLOCK
 10
-314.729736
 20
2369.864746
 30
0.0
  0
POINT
  5
891
  8
DEFPOINTS
  6
BYBLOCK
 10
-314.729736
 20
2719.864746
 30
0.0
  0
ENDBLK
  5
892
  8
SIZE
  0
BLOCK
  8
SIZE
  2
*D20
 70
     1
 10
0.0
 20
0.0
 30
0.0
  3
*D20
  1

  0
TEXT
  5
895
  8
SIZE
  6
CONTINUOUS
 10
860.627966
 20
2065.924805
 30
0.0
 40
2.8
  1
118
 50
90.00000499999999
 41
0.7
  7
STANDARD1
  0
LINE
  5
896
  8
SIZE
  6
CONTINUOUS
 10
265.270264
 20
2127.864746
 30
0.0
 11
863.627991
 21
2127.864746
 31
0.0
  0
LINE
  5
897
  8
SIZE
  6
CONTINUOUS
 10
265.270264
 20
2009.864868
 30
0.0
 11
863.627991
 21
2009.864868
 31
0.0
  0
LINE
  5
898
  8
SIZE
  6
CONTINUOUS
 10
861.627991
 20
2127.864746
 30
0.0
 11
861.627991
 21
2009.864868
 31
0.0
  0
CIRCLE
  5
899
  8
SIZE
  6
CONTINUOUS
 10
861.627991
 20
2127.864746
 30
0.0
 40
0.5
  0
CIRCLE
  5
89A
  8
SIZE
  6
CONTINUOUS
 10
861.627991
 20
2127.864746
 30
0.0
 40
0.4
  0
CIRCLE
  5
89B
  8
SIZE
  6
CONTINUOUS
 10
861.627991
 20
2127.864746
 30
0.0
 40
0.3
  0
CIRCLE
  5
89C
  8
SIZE
  6
CONTINUOUS
 10
861.627991
 20
2127.864746
 30
0.0
 40
0.2
  0
CIRCLE
  5
89D
  8
SIZE
  6
CONTINUOUS
 10
861.627991
 20
2127.864746
 30
0.0
 40
0.1
  0
CIRCLE
  5
89E
  8
SIZE
  6
CONTINUOUS
 10
861.627991
 20
2009.864868
 30
0.0
 40
0.5
  0
CIRCLE
  5
89F
  8
SIZE
  6
CONTINUOUS
 10
861.627991
 20
2009.864868
 30
0.0
 40
0.4
  0
CIRCLE
  5
8A0
  8
SIZE
  6
CONTINUOUS
 10
861.627991
 20
2009.864868
 30
0.0
 40
0.3
  0
CIRCLE
  5
8A1
  8
SIZE
  6
CONTINUOUS
 10
861.627991
 20
2009.864868
 30
0.0
 40
0.2
  0
CIRCLE
  5
8A2
  8
SIZE
  6
CONTINUOUS
 10
861.627991
 20
2009.864868
 30
0.0
 40
0.1
  0
POINT
  5
8A3
  8
DEFPOINTS
  6
BYBLOCK
 10
264.270264
 20
2009.864868
 30
0.0
  0
POINT
  5
8A4
  8
DEFPOINTS
  6
BYBLOCK
 10
264.270264
 20
2127.864746
 30
0.0
  0
POINT
  5
8A5
  8
DEFPOINTS
  6
BYBLOCK
 10
861.627991
 20
2127.864746
 30
0.0
  0
ENDBLK
  5
8A6
  8
SIZE
  0
BLOCK
  8
SIZE
  2
*D21
 70
     1
 10
0.0
 20
0.0
 30
0.0
  3
*D21
  1

  0
TEXT
  5
8A9
  8
SIZE
  6
CONTINUOUS
 10
202.330261
 20
1903.080591
 30
0.0
 40
2.8
  1
130
 50
0.000003
 41
0.7
  7
STANDARD1
  0
LINE
  5
8AA
  8
SIZE
  6
CONTINUOUS
 10
270.270264
 20
2014.864868
 30
0.0
 11
270.270264
 21
1900.080566
 31
0.0
  0
LINE
  5
8AB
  8
SIZE
  6
CONTINUOUS
 10
140.270264
 20
2014.864868
 30
0.0
 11
140.270264
 21
1900.080566
 31
0.0
  0
LINE
  5
8AC
  8
SIZE
  6
CONTINUOUS
 10
270.270264
 20
1902.080566
 30
0.0
 11
140.270264
 21
1902.080566
 31
0.0
  0
CIRCLE
  5
8AD
  8
SIZE
  6
CONTINUOUS
 10
270.270264
 20
1902.080566
 30
0.0
 40
0.5
  0
CIRCLE
  5
8AE
  8
SIZE
  6
CONTINUOUS
 10
270.270264
 20
1902.080566
 30
0.0
 40
0.4
  0
CIRCLE
  5
8AF
  8
SIZE
  6
CONTINUOUS
 10
270.270264
 20
1902.080566
 30
0.0
 40
0.3
  0
CIRCLE
  5
8B0
  8
SIZE
  6
CONTINUOUS
 10
270.270264
 20
1902.080566
 30
0.0
 40
0.2
  0
CIRCLE
  5
8B1
  8
SIZE
  6
CONTINUOUS
 10
270.270264
 20
1902.080566
 30
0.0
 40
0.1
  0
CIRCLE
  5
8B2
  8
SIZE
  6
CONTINUOUS
 10
140.270264
 20
1902.080566
 30
0.0
 40
0.5
  0
CIRCLE
  5
8B3
  8
SIZE
  6
CONTINUOUS
 10
140.270264
 20
1902.080566
 30
0.0
 40
0.4
  0
CIRCLE
  5
8B4
  8
SIZE
  6
CONTINUOUS
 10
140.270264
 20
1902.080566
 30
0.0
 40
0.3
  0
CIRCLE
  5
8B5
  8
SIZE
  6
CONTINUOUS
 10
140.270264
 20
1902.080566
 30
0.0
 40
0.2
  0
CIRCLE
  5
8B6
  8
SIZE
  6
CONTINUOUS
 10
140.270264
 20
1902.080566
 30
0.0
 40
0.1
  0
POINT
  5
8B7
  8
DEFPOINTS
  6
BYBLOCK
 10
140.270264
 20
2015.864868
 30
0.0
  0
POINT
  5
8B8
  8
DEFPOINTS
  6
BYBLOCK
 10
270.270264
 20
2015.864868
 30
0.0
  0
POINT
  5
8B9
  8
DEFPOINTS
  6
BYBLOCK
 10
270.270264
 20
1902.080566
 30
0.0
  0
ENDBLK
  5
8BA
  8
SIZE
  0
BLOCK
  8
SIZE
  2
*D22
 70
     1
 10
0.0
 20
0.0
 30
0.0
  3
*D22
  1

  0
TEXT
  5
8BD
  8
SIZE
  6
CONTINUOUS
 10
-205.169739
 20
877.218713
 30
0.0
 40
2.8
  1
157
 50
0.000003
 41
0.7
  7
STANDARD1
  0
LINE
  5
8BE
  8
SIZE
  6
CONTINUOUS
 10
-280.729736
 20
779.864868
 30
0.0
 11
-280.729736
 21
878.218689
 31
0.0
  0
LINE
  5
8BF
  8
SIZE
  6
CONTINUOUS
 10
-123.729729
 20
779.864868
 30
0.0
 11
-123.729729
 21
878.218689
 31
0.0
  0
LINE
  5
8C0
  8
SIZE
  6
CONTINUOUS
 10
-280.729736
 20
876.218689
 30
0.0
 11
-123.729729
 21
876.218689
 31
0.0
  0
CIRCLE
  5
8C1
  8
SIZE
  6
CONTINUOUS
 10
-280.729736
 20
876.218689
 30
0.0
 40
0.5
  0
CIRCLE
  5
8C2
  8
SIZE
  6
CONTINUOUS
 10
-280.729736
 20
876.218689
 30
0.0
 40
0.4
  0
CIRCLE
  5
8C3
  8
SIZE
  6
CONTINUOUS
 10
-280.729736
 20
876.218689
 30
0.0
 40
0.3
  0
CIRCLE
  5
8C4
  8
SIZE
  6
CONTINUOUS
 10
-280.729736
 20
876.218689
 30
0.0
 40
0.2
  0
CIRCLE
  5
8C5
  8
SIZE
  6
CONTINUOUS
 10
-280.729736
 20
876.218689
 30
0.0
 40
0.1
  0
CIRCLE
  5
8C6
  8
SIZE
  6
CONTINUOUS
 10
-123.729729
 20
876.218689
 30
0.0
 40
0.5
  0
CIRCLE
  5
8C7
  8
SIZE
  6
CONTINUOUS
 10
-123.729729
 20
876.218689
 30
0.0
 40
0.4
  0
CIRCLE
  5
8C8
  8
SIZE
  6
CONTINUOUS
 10
-123.729729
 20
876.218689
 30
0.0
 40
0.3
  0
CIRCLE
  5
8C9
  8
SIZE
  6
CONTINUOUS
 10
-123.729729
 20
876.218689
 30
0.0
 40
0.2
  0
CIRCLE
  5
8CA
  8
SIZE
  6
CONTINUOUS
 10
-123.729729
 20
876.218689
 30
0.0
 40
0.1
  0
POINT
  5
8CB
  8
DEFPOINTS
  6
BYBLOCK
 10
-123.729729
 20
778.864868
 30
0.0
  0
POINT
  5
8CC
  8
DEFPOINTS
  6
BYBLOCK
 10
-280.729736
 20
778.864868
 30
0.0
  0
POINT
  5
8CD
  8
DEFPOINTS
  6
BYBLOCK
 10
-280.729736
 20
876.218689
 30
0.0
  0
ENDBLK
  5
8CE
  8
SIZE
  0
BLOCK
  8
SIZE
  2
*D23
 70
     1
 10
0.0
 20
0.0
 30
0.0
  3
*D23
  1

  0
TEXT
  5
8D1
  8
SIZE
  6
CONTINUOUS
 10
-770.040918
 20
718.924866
 30
0.0
 40
2.8
  1
130
 50
90.00000499999999
 41
0.7
  7
STANDARD1
  0
LINE
  5
8D2
  8
SIZE
  6
CONTINUOUS
 10
-273.729736
 20
656.864868
 30
0.0
 11
-771.040894
 21
656.864868
 31
0.0
  0
LINE
  5
8D3
  8
SIZE
  6
CONTINUOUS
 10
-273.729736
 20
786.864868
 30
0.0
 11
-771.040894
 21
786.864868
 31
0.0
  0
LINE
  5
8D4
  8
SIZE
  6
CONTINUOUS
 10
-769.040894
 20
656.864868
 30
0.0
 11
-769.040894
 21
786.864868
 31
0.0
  0
CIRCLE
  5
8D5
  8
SIZE
  6
CONTINUOUS
 10
-769.040894
 20
656.864868
 30
0.0
 40
0.5
  0
CIRCLE
  5
8D6
  8
SIZE
  6
CONTINUOUS
 10
-769.040894
 20
656.864868
 30
0.0
 40
0.4
  0
CIRCLE
  5
8D7
  8
SIZE
  6
CONTINUOUS
 10
-769.040894
 20
656.864868
 30
0.0
 40
0.3
  0
CIRCLE
  5
8D8
  8
SIZE
  6
CONTINUOUS
 10
-769.040894
 20
656.864868
 30
0.0
 40
0.2
  0
CIRCLE
  5
8D9
  8
SIZE
  6
CONTINUOUS
 10
-769.040894
 20
656.864868
 30
0.0
 40
0.1
  0
CIRCLE
  5
8DA
  8
SIZE
  6
CONTINUOUS
 10
-769.040894
 20
786.864868
 30
0.0
 40
0.5
  0
CIRCLE
  5
8DB
  8
SIZE
  6
CONTINUOUS
 10
-769.040894
 20
786.864868
 30
0.0
 40
0.4
  0
CIRCLE
  5
8DC
  8
SIZE
  6
CONTINUOUS
 10
-769.040894
 20
786.864868
 30
0.0
 40
0.3
  0
CIRCLE
  5
8DD
  8
SIZE
  6
CONTINUOUS
 10
-769.040894
 20
786.864868
 30
0.0
 40
0.2
  0
CIRCLE
  5
8DE
  8
SIZE
  6
CONTINUOUS
 10
-769.040894
 20
786.864868
 30
0.0
 40
0.1
  0
POINT
  5
8DF
  8
DEFPOINTS
  6
BYBLOCK
 10
-272.729736
 20
786.864868
 30
0.0
  0
POINT
  5
8E0
  8
DEFPOINTS
  6
BYBLOCK
 10
-272.729736
 20
656.864868
 30
0.0
  0
POINT
  5
8E1
  8
DEFPOINTS
  6
BYBLOCK
 10
-769.040894
 20
656.864868
 30
0.0
  0
ENDBLK
  5
8E2
  8
SIZE
  0
BLOCK
  8
SIZE
  2
*D24
 70
     1
 10
0.0
 20
0.0
 30
0.0
  3
*D24
  1

  0
TEXT
  5
8E5
  8
SIZE
  6
CONTINUOUS
 10
-670.040918
 20
196.924866
 30
0.0
 40
2.8
  1
400
 50
90.00000499999999
 41
0.7
  7
STANDARD1
  0
LINE
  5
8E6
  8
SIZE
  6
CONTINUOUS
 10
-315.729736
 20
399.864868
 30
0.0
 11
-671.040894
 21
399.864868
 31
0.0
  0
LINE
  5
8E7
  8
SIZE
  6
CONTINUOUS
 10
-310.729736
 20
-0.135135
 30
0.0
 11
-671.040894
 21
-0.135135
 31
0.0
  0
LINE
  5
8E8
  8
SIZE
  6
CONTINUOUS
 10
-669.040894
 20
399.864868
 30
0.0
 11
-669.040894
 21
-0.135135
 31
0.0
  0
CIRCLE
  5
8E9
  8
SIZE
  6
CONTINUOUS
 10
-669.040894
 20
399.864868
 30
0.0
 40
0.5
  0
CIRCLE
  5
8EA
  8
SIZE
  6
CONTINUOUS
 10
-669.040894
 20
399.864868
 30
0.0
 40
0.4
  0
CIRCLE
  5
8EB
  8
SIZE
  6
CONTINUOUS
 10
-669.040894
 20
399.864868
 30
0.0
 40
0.3
  0
CIRCLE
  5
8EC
  8
SIZE
  6
CONTINUOUS
 10
-669.040894
 20
399.864868
 30
0.0
 40
0.2
  0
CIRCLE
  5
8ED
  8
SIZE
  6
CONTINUOUS
 10
-669.040894
 20
399.864868
 30
0.0
 40
0.1
  0
CIRCLE
  5
8EE
  8
SIZE
  6
CONTINUOUS
 10
-669.040894
 20
-0.135135
 30
0.0
 40
0.5
  0
CIRCLE
  5
8EF
  8
SIZE
  6
CONTINUOUS
 10
-669.040894
 20
-0.135135
 30
0.0
 40
0.4
  0
CIRCLE
  5
8F0
  8
SIZE
  6
CONTINUOUS
 10
-669.040894
 20
-0.135135
 30
0.0
 40
0.3
  0
CIRCLE
  5
8F1
  8
SIZE
  6
CONTINUOUS
 10
-669.040894
 20
-0.135135
 30
0.0
 40
0.2
  0
CIRCLE
  5
8F2
  8
SIZE
  6
CONTINUOUS
 10
-669.040894
 20
-0.135135
 30
0.0
 40
0.1
  0
POINT
  5
8F3
  8
DEFPOINTS
  6
BYBLOCK
 10
-309.729736
 20
-0.135135
 30
0.0
  0
POINT
  5
8F4
  8
DEFPOINTS
  6
BYBLOCK
 10
-314.729736
 20
399.864868
 30
0.0
  0
POINT
  5
8F5
  8
DEFPOINTS
  6
BYBLOCK
 10
-669.040894
 20
399.864868
 30
0.0
  0
ENDBLK
  5
8F6
  8
SIZE
  0
BLOCK
  8
SIZE
  2
*D25
 70
     1
 10
0.0
 20
0.0
 30
0.0
  3
*D25
  1

  0
TEXT
  5
8F9
  8
SIZE
  6
CONTINUOUS
 10
-570.040918
 20
156.924866
 30
0.0
 40
2.8
  1
320
 50
90.00000499999999
 41
0.7
  7
STANDARD1
  0
LINE
  5
8FA
  8
SIZE
  6
CONTINUOUS
 10
-250.729736
 20
319.864868
 30
0.0
 11
-571.040894
 21
319.864868
 31
0.0
  0
LINE
  5
8FB
  8
SIZE
  6
CONTINUOUS
 10
-310.729736
 20
-0.135135
 30
0.0
 11
-571.040894
 21
-0.135135
 31
0.0
  0
LINE
  5
8FC
  8
SIZE
  6
CONTINUOUS
 10
-569.040894
 20
319.864868
 30
0.0
 11
-569.040894
 21
-0.135135
 31
0.0
  0
CIRCLE
  5
8FD
  8
SIZE
  6
CONTINUOUS
 10
-569.040894
 20
319.864868
 30
0.0
 40
0.5
  0
CIRCLE
  5
8FE
  8
SIZE
  6
CONTINUOUS
 10
-569.040894
 20
319.864868
 30
0.0
 40
0.4
  0
CIRCLE
  5
8FF
  8
SIZE
  6
CONTINUOUS
 10
-569.040894
 20
319.864868
 30
0.0
 40
0.3
  0
CIRCLE
  5
900
  8
SIZE
  6
CONTINUOUS
 10
-569.040894
 20
319.864868
 30
0.0
 40
0.2
  0
CIRCLE
  5
901
  8
SIZE
  6
CONTINUOUS
 10
-569.040894
 20
319.864868
 30
0.0
 40
0.1
  0
CIRCLE
  5
902
  8
SIZE
  6
CONTINUOUS
 10
-569.040894
 20
-0.135135
 30
0.0
 40
0.5
  0
CIRCLE
  5
903
  8
SIZE
  6
CONTINUOUS
 10
-569.040894
 20
-0.135135
 30
0.0
 40
0.4
  0
CIRCLE
  5
904
  8
SIZE
  6
CONTINUOUS
 10
-569.040894
 20
-0.135135
 30
0.0
 40
0.3
  0
CIRCLE
  5
905
  8
SIZE
  6
CONTINUOUS
 10
-569.040894
 20
-0.135135
 30
0.0
 40
0.2
  0
CIRCLE
  5
906
  8
SIZE
  6
CONTINUOUS
 10
-569.040894
 20
-0.135135
 30
0.0
 40
0.1
  0
POINT
  5
907
  8
DEFPOINTS
  6
BYBLOCK
 10
-309.729736
 20
-0.135135
 30
0.0
  0
POINT
  5
908
  8
DEFPOINTS
  6
BYBLOCK
 10
-249.729736
 20
319.864868
 30
0.0
  0
POINT
  5
909
  8
DEFPOINTS
  6
BYBLOCK
 10
-569.040894
 20
319.864868
 30
0.0
  0
ENDBLK
  5
90A
  8
SIZE
  0
BLOCK
  8
SIZE
  2
*D26
 70
     1
 10
0.0
 20
0.0
 30
0.0
  3
*D26
  1

  0
TEXT
  5
90D
  8
SIZE
  6
CONTINUOUS
 10
-470.040949
 20
74.424866
 30
0.0
 40
2.8
  1
155
 50
90.00000499999999
 41
0.7
  7
STANDARD1
  0
LINE
  5
90E
  8
SIZE
  6
CONTINUOUS
 10
-208.729736
 20
154.864868
 30
0.0
 11
-471.040955
 21
154.864868
 31
0.0
  0
LINE
  5
90F
  8
SIZE
  6
CONTINUOUS
 10
-310.729736
 20
-0.135135
 30
0.0
 11
-471.040955
 21
-0.135135
 31
0.0
  0
LINE
  5
910
  8
SIZE
  6
CONTINUOUS
 10
-469.040955
 20
154.864868
 30
0.0
 11
-469.040955
 21
-0.135135
 31
0.0
  0
CIRCLE
  5
911
  8
SIZE
  6
CONTINUOUS
 10
-469.040955
 20
154.864868
 30
0.0
 40
0.5
  0
CIRCLE
  5
912
  8
SIZE
  6
CONTINUOUS
 10
-469.040955
 20
154.864868
 30
0.0
 40
0.4
  0
CIRCLE
  5
913
  8
SIZE
  6
CONTINUOUS
 10
-469.040955
 20
154.864868
 30
0.0
 40
0.3
  0
CIRCLE
  5
914
  8
SIZE
  6
CONTINUOUS
 10
-469.040955
 20
154.864868
 30
0.0
 40
0.2
  0
CIRCLE
  5
915
  8
SIZE
  6
CONTINUOUS
 10
-469.040955
 20
154.864868
 30
0.0
 40
0.1
  0
CIRCLE
  5
916
  8
SIZE
  6
CONTINUOUS
 10
-469.040955
 20
-0.135135
 30
0.0
 40
0.5
  0
CIRCLE
  5
917
  8
SIZE
  6
CONTINUOUS
 10
-469.040955
 20
-0.135135
 30
0.0
 40
0.4
  0
CIRCLE
  5
918
  8
SIZE
  6
CONTINUOUS
 10
-469.040955
 20
-0.135135
 30
0.0
 40
0.3
  0
CIRCLE
  5
919
  8
SIZE
  6
CONTINUOUS
 10
-469.040955
 20
-0.135135
 30
0.0
 40
0.2
  0
CIRCLE
  5
91A
  8
SIZE
  6
CONTINUOUS
 10
-469.040955
 20
-0.135135
 30
0.0
 40
0.1
  0
POINT
  5
91B
  8
DEFPOINTS
  6
BYBLOCK
 10
-309.729736
 20
-0.135135
 30
0.0
  0
POINT
  5
91C
  8
DEFPOINTS
  6
BYBLOCK
 10
-207.729736
 20
154.864868
 30
0.0
  0
POINT
  5
91D
  8
DEFPOINTS
  6
BYBLOCK
 10
-469.040955
 20
154.864868
 30
0.0
  0
ENDBLK
  5
91E
  8
SIZE
  0
BLOCK
  8
SIZE
  2
*D27
 70
     1
 10
0.0
 20
0.0
 30
0.0
  3
*D27
  1

  0
TEXT
  5
921
  8
SIZE
  6
CONTINUOUS
 10
462.627966
 20
83.174866
 30
0.0
 40
2.8
  1
173
 50
90.00000499999999
 41
0.7
  7
STANDARD1
  0
LINE
  5
922
  8
SIZE
  6
CONTINUOUS
 10
129.29335
 20
172.364868
 30
0.0
 11
465.62796
 21
172.364868
 31
0.0
  0
LINE
  5
923
  8
SIZE
  6
CONTINUOUS
 10
269.270264
 20
-0.135135
 30
0.0
 11
465.62796
 21
-0.135135
 31
0.0
  0
LINE
  5
924
  8
SIZE
  6
CONTINUOUS
 10
463.62796
 20
172.364868
 30
0.0
 11
463.62796
 21
-0.135135
 31
0.0
  0
CIRCLE
  5
925
  8
SIZE
  6
CONTINUOUS
 10
463.62796
 20
172.364868
 30
0.0
 40
0.5
  0
CIRCLE
  5
926
  8
SIZE
  6
CONTINUOUS
 10
463.62796
 20
172.364868
 30
0.0
 40
0.4
  0
CIRCLE
  5
927
  8
SIZE
  6
CONTINUOUS
 10
463.62796
 20
172.364868
 30
0.0
 40
0.3
  0
CIRCLE
  5
928
  8
SIZE
  6
CONTINUOUS
 10
463.62796
 20
172.364868
 30
0.0
 40
0.2
  0
CIRCLE
  5
929
  8
SIZE
  6
CONTINUOUS
 10
463.62796
 20
172.364868
 30
0.0
 40
0.1
  0
CIRCLE
  5
92A
  8
SIZE
  6
CONTINUOUS
 10
463.62796
 20
-0.135135
 30
0.0
 40
0.5
  0
CIRCLE
  5
92B
  8
SIZE
  6
CONTINUOUS
 10
463.62796
 20
-0.135135
 30
0.0
 40
0.4
  0
CIRCLE
  5
92C
  8
SIZE
  6
CONTINUOUS
 10
463.62796
 20
-0.135135
 30
0.0
 40
0.3
  0
CIRCLE
  5
92D
  8
SIZE
  6
CONTINUOUS
 10
463.62796
 20
-0.135135
 30
0.0
 40
0.2
  0
CIRCLE
  5
92E
  8
SIZE
  6
CONTINUOUS
 10
463.62796
 20
-0.135135
 30
0.0
 40
0.1
  0
POINT
  5
92F
  8
DEFPOINTS
  6
BYBLOCK
 10
268.270264
 20
-0.135135
 30
0.0
  0
POINT
  5
930
  8
DEFPOINTS
  6
BYBLOCK
 10
128.29335
 20
172.364868
 30
0.0
  0
POINT
  5
931
  8
DEFPOINTS
  6
BYBLOCK
 10
463.62796
 20
172.364868
 30
0.0
  0
ENDBLK
  5
932
  8
SIZE
  0
BLOCK
  8
SIZE
  2
*D28
 70
     1
 10
0.0
 20
0.0
 30
0.0
  3
*D28
  1

  0
TEXT
  5
935
  8
SIZE
  6
CONTINUOUS
 10
562.627966
 20
156.924866
 30
0.0
 40
2.8
  1
320
 50
90.00000499999999
 41
0.7
  7
STANDARD1
  0
LINE
  5
936
  8
SIZE
  6
CONTINUOUS
 10
91.270271
 20
319.864868
 30
0.0
 11
565.627991
 21
319.864868
 31
0.0
  0
LINE
  5
937
  8
SIZE
  6
CONTINUOUS
 10
311.270264
 20
-0.135135
 30
0.0
 11
565.627991
 21
-0.135135
 31
0.0
  0
LINE
  5
938
  8
SIZE
  6
CONTINUOUS
 10
563.627991
 20
319.864868
 30
0.0
 11
563.627991
 21
-0.135135
 31
0.0
  0
CIRCLE
  5
939
  8
SIZE
  6
CONTINUOUS
 10
563.627991
 20
319.864868
 30
0.0
 40
0.5
  0
CIRCLE
  5
93A
  8
SIZE
  6
CONTINUOUS
 10
563.627991
 20
319.864868
 30
0.0
 40
0.4
  0
CIRCLE
  5
93B
  8
SIZE
  6
CONTINUOUS
 10
563.627991
 20
319.864868
 30
0.0
 40
0.3
  0
CIRCLE
  5
93C
  8
SIZE
  6
CONTINUOUS
 10
563.627991
 20
319.864868
 30
0.0
 40
0.2
  0
CIRCLE
  5
93D
  8
SIZE
  6
CONTINUOUS
 10
563.627991
 20
319.864868
 30
0.0
 40
0.1
  0
CIRCLE
  5
93E
  8
SIZE
  6
CONTINUOUS
 10
563.627991
 20
-0.135135
 30
0.0
 40
0.5
  0
CIRCLE
  5
93F
  8
SIZE
  6
CONTINUOUS
 10
563.627991
 20
-0.135135
 30
0.0
 40
0.4
  0
CIRCLE
  5
940
  8
SIZE
  6
CONTINUOUS
 10
563.627991
 20
-0.135135
 30
0.0
 40
0.3
  0
CIRCLE
  5
941
  8
SIZE
  6
CONTINUOUS
 10
563.627991
 20
-0.135135
 30
0.0
 40
0.2
  0
CIRCLE
  5
942
  8
SIZE
  6
CONTINUOUS
 10
563.627991
 20
-0.135135
 30
0.0
 40
0.1
  0
POINT
  5
943
  8
DEFPOINTS
  6
BYBLOCK
 10
310.270264
 20
-0.135135
 30
0.0
  0
POINT
  5
944
  8
DEFPOINTS
  6
BYBLOCK
 10
90.270271
 20
319.864868
 30
0.0
  0
POINT
  5
945
  8
DEFPOINTS
  6
BYBLOCK
 10
563.627991
 20
319.864868
 30
0.0
  0
ENDBLK
  5
946
  8
SIZE
  0
BLOCK
  8
SIZE
  2
*D29
 70
     1
 10
0.0
 20
0.0
 30
0.0
  3
*D29
  1

  0
TEXT
  5
949
  8
SIZE
  6
CONTINUOUS
 10
662.627966
 20
156.213043
 30
0.0
 40
2.8
  1
360
 50
90.00000499999999
 41
0.7
  7
STANDARD1
  0
LINE
  5
94A
  8
SIZE
  6
CONTINUOUS
 10
181.270264
 20
359.864868
 30
0.0
 11
665.627991
 21
359.864868
 31
0.0
  0
LINE
  5
94B
  8
SIZE
  6
CONTINUOUS
 10
316.270264
 20
-0.135135
 30
0.0
 11
665.627991
 21
-0.135135
 31
0.0
  0
LINE
  5
94C
  8
SIZE
  6
CONTINUOUS
 10
663.627991
 20
359.864868
 30
0.0
 11
663.627991
 21
-0.135135
 31
0.0
  0
CIRCLE
  5
94D
  8
SIZE
  6
CONTINUOUS
 10
663.627991
 20
359.864868
 30
0.0
 40
0.5
  0
CIRCLE
  5
94E
  8
SIZE
  6
CONTINUOUS
 10
663.627991
 20
359.864868
 30
0.0
 40
0.4
  0
CIRCLE
  5
94F
  8
SIZE
  6
CONTINUOUS
 10
663.627991
 20
359.864868
 30
0.0
 40
0.3
  0
CIRCLE
  5
950
  8
SIZE
  6
CONTINUOUS
 10
663.627991
 20
359.864868
 30
0.0
 40
0.2
  0
CIRCLE
  5
951
  8
SIZE
  6
CONTINUOUS
 10
663.627991
 20
359.864868
 30
0.0
 40
0.1
  0
CIRCLE
  5
952
  8
SIZE
  6
CONTINUOUS
 10
663.627991
 20
-0.135135
 30
0.0
 40
0.5
  0
CIRCLE
  5
953
  8
SIZE
  6
CONTINUOUS
 10
663.627991
 20
-0.135135
 30
0.0
 40
0.4
  0
CIRCLE
  5
954
  8
SIZE
  6
CONTINUOUS
 10
663.627991
 20
-0.135135
 30
0.0
 40
0.3
  0
CIRCLE
  5
955
  8
SIZE
  6
CONTINUOUS
 10
663.627991
 20
-0.135135
 30
0.0
 40
0.2
  0
CIRCLE
  5
956
  8
SIZE
  6
CONTINUOUS
 10
663.627991
 20
-0.135135
 30
0.0
 40
0.1
  0
POINT
  5
957
  8
DEFPOINTS
  6
BYBLOCK
 10
315.270264
 20
-0.135135
 30
0.0
  0
POINT
  5
958
  8
DEFPOINTS
  6
BYBLOCK
 10
180.270264
 20
359.864868
 30
0.0
  0
POINT
  5
959
  8
DEFPOINTS
  6
BYBLOCK
 10
663.627991
 20
359.864868
 30
0.0
  0
ENDBLK
  5
95A
  8
SIZE
  0
BLOCK
  8
SIZE
  2
*D30
 70
     1
 10
0.0
 20
0.0
 30
0.0
  3
*D30
  1

  0
TEXT
  5
95D
  8
SIZE
  6
CONTINUOUS
 10
962.627966
 20
96.924866
 30
0.0
 40
2.8
  1
200
 50
90.00000499999999
 41
0.7
  7
STANDARD1
  0
LINE
  5
95E
  8
SIZE
  6
CONTINUOUS
 10
311.270264
 20
-0.135135
 30
0.0
 11
965.627991
 21
-0.135135
 31
0.0
  0
LINE
  5
95F
  8
SIZE
  6
CONTINUOUS
 10
316.270264
 20
199.864868
 30
0.0
 11
965.627991
 21
199.864868
 31
0.0
  0
LINE
  5
960
  8
SIZE
  6
CONTINUOUS
 10
963.627991
 20
-0.135135
 30
0.0
 11
963.627991
 21
199.864868
 31
0.0
  0
CIRCLE
  5
961
  8
SIZE
  6
CONTINUOUS
 10
963.627991
 20
-0.135135
 30
0.0
 40
0.5
  0
CIRCLE
  5
962
  8
SIZE
  6
CONTINUOUS
 10
963.627991
 20
-0.135135
 30
0.0
 40
0.4
  0
CIRCLE
  5
963
  8
SIZE
  6
CONTINUOUS
 10
963.627991
 20
-0.135135
 30
0.0
 40
0.3
  0
CIRCLE
  5
964
  8
SIZE
  6
CONTINUOUS
 10
963.627991
 20
-0.135135
 30
0.0
 40
0.2
  0
CIRCLE
  5
965
  8
SIZE
  6
CONTINUOUS
 10
963.627991
 20
-0.135135
 30
0.0
 40
0.1
  0
CIRCLE
  5
966
  8
SIZE
  6
CONTINUOUS
 10
963.627991
 20
199.864868
 30
0.0
 40
0.5
  0
CIRCLE
  5
967
  8
SIZE
  6
CONTINUOUS
 10
963.627991
 20
199.864868
 30
0.0
 40
0.4
  0
CIRCLE
  5
968
  8
SIZE
  6
CONTINUOUS
 10
963.627991
 20
199.864868
 30
0.0
 40
0.3
  0
CIRCLE
  5
969
  8
SIZE
  6
CONTINUOUS
 10
963.627991
 20
199.864868
 30
0.0
 40
0.2
  0
CIRCLE
  5
96A
  8
SIZE
  6
CONTINUOUS
 10
963.627991
 20
199.864868
 30
0.0
 40
0.1
  0
POINT
  5
96B
  8
DEFPOINTS
  6
BYBLOCK
 10
315.270264
 20
199.864868
 30
0.0
  0
POINT
  5
96C
  8
DEFPOINTS
  6
BYBLOCK
 10
310.270264
 20
-0.135135
 30
0.0
  0
POINT
  5
96D
  8
DEFPOINTS
  6
BYBLOCK
 10
963.627991
 20
-0.135135
 30
0.0
  0
ENDBLK
  5
96E
  8
SIZE
  0
BLOCK
  8
SIZE
  2
*D31
 70
     1
 10
0.0
 20
0.0
 30
0.0
  3
*D31
  1

  0
TEXT
  5
971
  8
SIZE
  6
CONTINUOUS
 10
-0.739703
 20
-683.195593
 30
0.0
 40
2.8
  1
496
 50
0.000003
 41
0.7
  7
STANDARD1
  0
LINE
  5
972
  8
SIZE
  6
CONTINUOUS
 10
248.270264
 20
-21.135136
 30
0.0
 11
248.270264
 21
-686.195618
 31
0.0
  0
LINE
  5
973
  8
SIZE
  6
CONTINUOUS
 10
-247.729736
 20
-21.135136
 30
0.0
 11
-247.729736
 21
-686.195618
 31
0.0
  0
LINE
  5
974
  8
SIZE
  6
CONTINUOUS
 10
248.270264
 20
-684.195618
 30
0.0
 11
-247.729736
 21
-684.195618
 31
0.0
  0
CIRCLE
  5
975
  8
SIZE
  6
CONTINUOUS
 10
248.270264
 20
-684.195618
 30
0.0
 40
0.5
  0
CIRCLE
  5
976
  8
SIZE
  6
CONTINUOUS
 10
248.270264
 20
-684.195618
 30
0.0
 40
0.4
  0
CIRCLE
  5
977
  8
SIZE
  6
CONTINUOUS
 10
248.270264
 20
-684.195618
 30
0.0
 40
0.3
  0
CIRCLE
  5
978
  8
SIZE
  6
CONTINUOUS
 10
248.270264
 20
-684.195618
 30
0.0
 40
0.2
  0
CIRCLE
  5
979
  8
SIZE
  6
CONTINUOUS
 10
248.270264
 20
-684.195618
 30
0.0
 40
0.1
  0
CIRCLE
  5
97A
  8
SIZE
  6
CONTINUOUS
 10
-247.729736
 20
-684.195618
 30
0.0
 40
0.5
  0
CIRCLE
  5
97B
  8
SIZE
  6
CONTINUOUS
 10
-247.729736
 20
-684.195618
 30
0.0
 40
0.4
  0
CIRCLE
  5
97C
  8
SIZE
  6
CONTINUOUS
 10
-247.729736
 20
-684.195618
 30
0.0
 40
0.3
  0
CIRCLE
  5
97D
  8
SIZE
  6
CONTINUOUS
 10
-247.729736
 20
-684.195618
 30
0.0
 40
0.2
  0
CIRCLE
  5
97E
  8
SIZE
  6
CONTINUOUS
 10
-247.729736
 20
-684.195618
 30
0.0
 40
0.1
  0
POINT
  5
97F
  8
DEFPOINTS
  6
BYBLOCK
 10
-247.729736
 20
-20.135136
 30
0.0
  0
POINT
  5
980
  8
DEFPOINTS
  6
BYBLOCK
 10
248.270264
 20
-20.135136
 30
0.0
  0
POINT
  5
981
  8
DEFPOINTS
  6
BYBLOCK
 10
248.270264
 20
-684.195618
 30
0.0
  0
ENDBLK
  5
982
  8
SIZE
  0
BLOCK
  8
SIZE
  2
*D32
 70
     1
 10
0.0
 20
0.0
 30
0.0
  3
*D32
  1

  0
TEXT
  5
985
  8
SIZE
  6
CONTINUOUS
 10
1.384321
 20
-783.195593
 30
0.0
 40
2.8
  1
402
 50
0.000003
 41
0.7
  7
STANDARD1
  0
LINE
  5
986
  8
SIZE
  6
CONTINUOUS
 10
201.270264
 20
-21.135136
 30
0.0
 11
201.270264
 21
-786.195618
 31
0.0
  0
LINE
  5
987
  8
SIZE
  6
CONTINUOUS
 10
-200.729736
 20
-21.135136
 30
0.0
 11
-200.729736
 21
-786.195618
 31
0.0
  0
LINE
  5
988
  8
SIZE
  6
CONTINUOUS
 10
201.270264
 20
-784.195618
 30
0.0
 11
-200.729736
 21
-784.195618
 31
0.0
  0
CIRCLE
  5
989
  8
SIZE
  6
CONTINUOUS
 10
201.270264
 20
-784.195618
 30
0.0
 40
0.5
  0
CIRCLE
  5
98A
  8
SIZE
  6
CONTINUOUS
 10
201.270264
 20
-784.195618
 30
0.0
 40
0.4
  0
CIRCLE
  5
98B
  8
SIZE
  6
CONTINUOUS
 10
201.270264
 20
-784.195618
 30
0.0
 40
0.3
  0
CIRCLE
  5
98C
  8
SIZE
  6
CONTINUOUS
 10
201.270264
 20
-784.195618
 30
0.0
 40
0.2
  0
CIRCLE
  5
98D
  8
SIZE
  6
CONTINUOUS
 10
201.270264
 20
-784.195618
 30
0.0
 40
0.1
  0
CIRCLE
  5
98E
  8
SIZE
  6
CONTINUOUS
 10
-200.729736
 20
-784.195618
 30
0.0
 40
0.5
  0
CIRCLE
  5
98F
  8
SIZE
  6
CONTINUOUS
 10
-200.729736
 20
-784.195618
 30
0.0
 40
0.4
  0
CIRCLE
  5
990
  8
SIZE
  6
CONTINUOUS
 10
-200.729736
 20
-784.195618
 30
0.0
 40
0.3
  0
CIRCLE
  5
991
  8
SIZE
  6
CONTINUOUS
 10
-200.729736
 20
-784.195618
 30
0.0
 40
0.2
  0
CIRCLE
  5
992
  8
SIZE
  6
CONTINUOUS
 10
-200.729736
 20
-784.195618
 30
0.0
 40
0.1
  0
POINT
  5
993
  8
DEFPOINTS
  6
BYBLOCK
 10
-200.729736
 20
-20.135136
 30
0.0
  0
POINT
  5
994
  8
DEFPOINTS
  6
BYBLOCK
 10
201.270264
 20
-20.135136
 30
0.0
  0
POINT
  5
995
  8
DEFPOINTS
  6
BYBLOCK
 10
201.270264
 20
-784.195618
 30
0.0
  0
ENDBLK
  5
996
  8
SIZE
  0
BLOCK
  8
SIZE
  2
*D33
 70
     1
 10
0.0
 20
0.0
 30
0.0
  3
*D33
  1

  0
TEXT
  5
999
  8
SIZE
  6
CONTINUOUS
 10
1.384325
 20
-883.195593
 30
0.0
 40
2.8
  1
630
 50
0.000003
 41
0.7
  7
STANDARD1
  0
LINE
  5
99A
  8
SIZE
  6
CONTINUOUS
 10
315.270264
 20
198.864868
 30
0.0
 11
315.270264
 21
-886.195618
 31
0.0
  0
LINE
  5
99B
  8
SIZE
  6
CONTINUOUS
 10
-314.729736
 20
198.864868
 30
0.0
 11
-314.729736
 21
-886.195618
 31
0.0
  0
LINE
  5
99C
  8
SIZE
  6
CONTINUOUS
 10
315.270264
 20
-884.195618
 30
0.0
 11
-314.729736
 21
-884.195618
 31
0.0
  0
CIRCLE
  5
99D
  8
SIZE
  6
CONTINUOUS
 10
315.270264
 20
-884.195618
 30
0.0
 40
0.5
  0
CIRCLE
  5
99E
  8
SIZE
  6
CONTINUOUS
 10
315.270264
 20
-884.195618
 30
0.0
 40
0.4
  0
CIRCLE
  5
99F
  8
SIZE
  6
CONTINUOUS
 10
315.270264
 20
-884.195618
 30
0.0
 40
0.3
  0
CIRCLE
  5
9A0
  8
SIZE
  6
CONTINUOUS
 10
315.270264
 20
-884.195618
 30
0.0
 40
0.2
  0
CIRCLE
  5
9A1
  8
SIZE
  6
CONTINUOUS
 10
315.270264
 20
-884.195618
 30
0.0
 40
0.1
  0
CIRCLE
  5
9A2
  8
SIZE
  6
CONTINUOUS
 10
-314.729736
 20
-884.195618
 30
0.0
 40
0.5
  0
CIRCLE
  5
9A3
  8
SIZE
  6
CONTINUOUS
 10
-314.729736
 20
-884.195618
 30
0.0
 40
0.4
  0
CIRCLE
  5
9A4
  8
SIZE
  6
CONTINUOUS
 10
-314.729736
 20
-884.195618
 30
0.0
 40
0.3
  0
CIRCLE
  5
9A5
  8
SIZE
  6
CONTINUOUS
 10
-314.729736
 20
-884.195618
 30
0.0
 40
0.2
  0
CIRCLE
  5
9A6
  8
SIZE
  6
CONTINUOUS
 10
-314.729736
 20
-884.195618
 30
0.0
 40
0.1
  0
POINT
  5
9A7
  8
DEFPOINTS
  6
BYBLOCK
 10
-314.729736
 20
199.864868
 30
0.0
  0
POINT
  5
9A8
  8
DEFPOINTS
  6
BYBLOCK
 10
315.270264
 20
199.864868
 30
0.0
  0
POINT
  5
9A9
  8
DEFPOINTS
  6
BYBLOCK
 10
315.270264
 20
-884.195618
 30
0.0
  0
ENDBLK
  5
9AA
  8
SIZE
  0
BLOCK
  8
SIZE
  2
*D34
 70
     1
 10
0.0
 20
0.0
 30
0.0
  3
*D34
  1

  0
TEXT
  5
9AD
  8
SIZE
  6
CONTINUOUS
 10
-249.689743
 20
-783.195593
 30
0.0
 40
2.8
  1
94
 50
0.000003
 41
0.7
  7
STANDARD1
  0
LINE
  5
9AE
  8
SIZE
  6
CONTINUOUS
 10
-294.729736
 20
-21.135136
 30
0.0
 11
-294.729736
 21
-786.195618
 31
0.0
  0
LINE
  5
9AF
  8
SIZE
  6
CONTINUOUS
 10
-200.729736
 20
-21.135136
 30
0.0
 11
-200.729736
 21
-786.195618
 31
0.0
  0
LINE
  5
9B0
  8
SIZE
  6
CONTINUOUS
 10
-294.729736
 20
-784.195618
 30
0.0
 11
-200.729736
 21
-784.195618
 31
0.0
  0
CIRCLE
  5
9B1
  8
SIZE
  6
CONTINUOUS
 10
-294.729736
 20
-784.195618
 30
0.0
 40
0.5
  0
CIRCLE
  5
9B2
  8
SIZE
  6
CONTINUOUS
 10
-294.729736
 20
-784.195618
 30
0.0
 40
0.4
  0
CIRCLE
  5
9B3
  8
SIZE
  6
CONTINUOUS
 10
-294.729736
 20
-784.195618
 30
0.0
 40
0.3
  0
CIRCLE
  5
9B4
  8
SIZE
  6
CONTINUOUS
 10
-294.729736
 20
-784.195618
 30
0.0
 40
0.2
  0
CIRCLE
  5
9B5
  8
SIZE
  6
CONTINUOUS
 10
-294.729736
 20
-784.195618
 30
0.0
 40
0.1
  0
CIRCLE
  5
9B6
  8
SIZE
  6
CONTINUOUS
 10
-200.729736
 20
-784.195618
 30
0.0
 40
0.5
  0
CIRCLE
  5
9B7
  8
SIZE
  6
CONTINUOUS
 10
-200.729736
 20
-784.195618
 30
0.0
 40
0.4
  0
CIRCLE
  5
9B8
  8
SIZE
  6
CONTINUOUS
 10
-200.729736
 20
-784.195618
 30
0.0
 40
0.3
  0
CIRCLE
  5
9B9
  8
SIZE
  6
CONTINUOUS
 10
-200.729736
 20
-784.195618
 30
0.0
 40
0.2
  0
CIRCLE
  5
9BA
  8
SIZE
  6
CONTINUOUS
 10
-200.729736
 20
-784.195618
 30
0.0
 40
0.1
  0
POINT
  5
9BB
  8
DEFPOINTS
  6
BYBLOCK
 10
-200.729736
 20
-20.135136
 30
0.0
  0
POINT
  5
9BC
  8
DEFPOINTS
  6
BYBLOCK
 10
-294.729736
 20
-20.135136
 30
0.0
  0
POINT
  5
9BD
  8
DEFPOINTS
  6
BYBLOCK
 10
-294.729736
 20
-784.195618
 30
0.0
  0
ENDBLK
  5
9BE
  8
SIZE
  0
BLOCK
  8
SIZE
  2
*D35
 70
     1
 10
0.0
 20
0.0
 30
0.0
  3
*D35
  1

  0
TEXT
  5
9C1
  8
SIZE
  6
CONTINUOUS
 10
246.310257
 20
-783.195593
 30
0.0
 40
2.8
  1
94
 50
0.000003
 41
0.7
  7
STANDARD1
  0
LINE
  5
9C2
  8
SIZE
  6
CONTINUOUS
 10
201.270264
 20
-21.135136
 30
0.0
 11
201.270264
 21
-786.195618
 31
0.0
  0
LINE
  5
9C3
  8
SIZE
  6
CONTINUOUS
 10
295.270264
 20
-21.135136
 30
0.0
 11
295.270264
 21
-786.195618
 31
0.0
  0
LINE
  5
9C4
  8
SIZE
  6
CONTINUOUS
 10
201.270264
 20
-784.195618
 30
0.0
 11
295.270264
 21
-784.195618
 31
0.0
  0
CIRCLE
  5
9C5
  8
SIZE
  6
CONTINUOUS
 10
201.270264
 20
-784.195618
 30
0.0
 40
0.5
  0
CIRCLE
  5
9C6
  8
SIZE
  6
CONTINUOUS
 10
201.270264
 20
-784.195618
 30
0.0
 40
0.4
  0
CIRCLE
  5
9C7
  8
SIZE
  6
CONTINUOUS
 10
201.270264
 20
-784.195618
 30
0.0
 40
0.3
  0
CIRCLE
  5
9C8
  8
SIZE
  6
CONTINUOUS
 10
201.270264
 20
-784.195618
 30
0.0
 40
0.2
  0
CIRCLE
  5
9C9
  8
SIZE
  6
CONTINUOUS
 10
201.270264
 20
-784.195618
 30
0.0
 40
0.1
  0
CIRCLE
  5
9CA
  8
SIZE
  6
CONTINUOUS
 10
295.270264
 20
-784.195618
 30
0.0
 40
0.5
  0
CIRCLE
  5
9CB
  8
SIZE
  6
CONTINUOUS
 10
295.270264
 20
-784.195618
 30
0.0
 40
0.4
  0
CIRCLE
  5
9CC
  8
SIZE
  6
CONTINUOUS
 10
295.270264
 20
-784.195618
 30
0.0
 40
0.3
  0
CIRCLE
  5
9CD
  8
SIZE
  6
CONTINUOUS
 10
295.270264
 20
-784.195618
 30
0.0
 40
0.2
  0
CIRCLE
  5
9CE
  8
SIZE
  6
CONTINUOUS
 10
295.270264
 20
-784.195618
 30
0.0
 40
0.1
  0
POINT
  5
9CF
  8
DEFPOINTS
  6
BYBLOCK
 10
295.270264
 20
-20.135136
 30
0.0
  0
POINT
  5
9D0
  8
DEFPOINTS
  6
BYBLOCK
 10
201.270264
 20
-20.135136
 30
0.0
  0
POINT
  5
9D1
  8
DEFPOINTS
  6
BYBLOCK
 10
201.270264
 20
-784.195618
 30
0.0
  0
ENDBLK
  5
9D2
  8
SIZE
  0
BLOCK
  8
SIZE
  2
*D36
 70
     1
 10
0.0
 20
0.0
 30
0.0
  3
*D36
  1

  0
TEXT
  5
9D5
  8
SIZE
  6
CONTINUOUS
 10
762.627966
 20
196.924866
 30
0.0
 40
2.8
  1
400
 50
90.00000499999999
 41
0.7
  7
STANDARD1
  0
LINE
  5
9D6
  8
SIZE
  6
CONTINUOUS
 10
316.270264
 20
399.864868
 30
0.0
 11
765.627991
 21
399.864868
 31
0.0
  0
LINE
  5
9D7
  8
SIZE
  6
CONTINUOUS
 10
316.270264
 20
-0.135135
 30
0.0
 11
765.627991
 21
-0.135135
 31
0.0
  0
LINE
  5
9D8
  8
SIZE
  6
CONTINUOUS
 10
763.627991
 20
399.864868
 30
0.0
 11
763.627991
 21
-0.135135
 31
0.0
  0
CIRCLE
  5
9D9
  8
SIZE
  6
CONTINUOUS
 10
763.627991
 20
399.864868
 30
0.0
 40
0.5
  0
CIRCLE
  5
9DA
  8
SIZE
  6
CONTINUOUS
 10
763.627991
 20
399.864868
 30
0.0
 40
0.4
  0
CIRCLE
  5
9DB
  8
SIZE
  6
CONTINUOUS
 10
763.627991
 20
399.864868
 30
0.0
 40
0.3
  0
CIRCLE
  5
9DC
  8
SIZE
  6
CONTINUOUS
 10
763.627991
 20
399.864868
 30
0.0
 40
0.2
  0
CIRCLE
  5
9DD
  8
SIZE
  6
CONTINUOUS
 10
763.627991
 20
399.864868
 30
0.0
 40
0.1
  0
CIRCLE
  5
9DE
  8
SIZE
  6
CONTINUOUS
 10
763.627991
 20
-0.135135
 30
0.0
 40
0.5
  0
CIRCLE
  5
9DF
  8
SIZE
  6
CONTINUOUS
 10
763.627991
 20
-0.135135
 30
0.0
 40
0.4
  0
CIRCLE
  5
9E0
  8
SIZE
  6
CONTINUOUS
 10
763.627991
 20
-0.135135
 30
0.0
 40
0.3
  0
CIRCLE
  5
9E1
  8
SIZE
  6
CONTINUOUS
 10
763.627991
 20
-0.135135
 30
0.0
 40
0.2
  0
CIRCLE
  5
9E2
  8
SIZE
  6
CONTINUOUS
 10
763.627991
 20
-0.135135
 30
0.0
 40
0.1
  0
POINT
  5
9E3
  8
DEFPOINTS
  6
BYBLOCK
 10
315.270264
 20
-0.135135
 30
0.0
  0
POINT
  5
9E4
  8
DEFPOINTS
  6
BYBLOCK
 10
315.270264
 20
399.864868
 30
0.0
  0
POINT
  5
9E5
  8
DEFPOINTS
  6
BYBLOCK
 10
763.627991
 20
399.864868
 30
0.0
  0
ENDBLK
  5
9E6
  8
SIZE
  0
BLOCK
  8
SIZE
  2
*D37
 70
     1
 10
0.0
 20
0.0
 30
0.0
  3
*D37
  1

  0
TEXT
  5
9E9
  8
SIZE
  6
CONTINUOUS
 10
-770.040918
 20
541.424866
 30
0.0
 40
2.8
  1
225
 50
90.00000499999999
 41
0.7
  7
STANDARD1
  0
LINE
  5
9EA
  8
SIZE
  6
CONTINUOUS
 10
-277.729736
 20
431.864868
 30
0.0
 11
-771.040894
 21
431.864868
 31
0.0
  0
LINE
  5
9EB
  8
SIZE
  6
CONTINUOUS
 10
-273.729736
 20
656.864868
 30
0.0
 11
-771.040894
 21
656.864868
 31
0.0
  0
LINE
  5
9EC
  8
SIZE
  6
CONTINUOUS
 10
-769.040894
 20
431.864868
 30
0.0
 11
-769.040894
 21
656.864868
 31
0.0
  0
CIRCLE
  5
9ED
  8
SIZE
  6
CONTINUOUS
 10
-769.040894
 20
431.864868
 30
0.0
 40
0.5
  0
CIRCLE
  5
9EE
  8
SIZE
  6
CONTINUOUS
 10
-769.040894
 20
431.864868
 30
0.0
 40
0.4
  0
CIRCLE
  5
9EF
  8
SIZE
  6
CONTINUOUS
 10
-769.040894
 20
431.864868
 30
0.0
 40
0.3
  0
CIRCLE
  5
9F0
  8
SIZE
  6
CONTINUOUS
 10
-769.040894
 20
431.864868
 30
0.0
 40
0.2
  0
CIRCLE
  5
9F1
  8
SIZE
  6
CONTINUOUS
 10
-769.040894
 20
431.864868
 30
0.0
 40
0.1
  0
CIRCLE
  5
9F2
  8
SIZE
  6
CONTINUOUS
 10
-769.040894
 20
656.864868
 30
0.0
 40
0.5
  0
CIRCLE
  5
9F3
  8
SIZE
  6
CONTINUOUS
 10
-769.040894
 20
656.864868
 30
0.0
 40
0.4
  0
CIRCLE
  5
9F4
  8
SIZE
  6
CONTINUOUS
 10
-769.040894
 20
656.864868
 30
0.0
 40
0.3
  0
CIRCLE
  5
9F5
  8
SIZE
  6
CONTINUOUS
 10
-769.040894
 20
656.864868
 30
0.0
 40
0.2
  0
CIRCLE
  5
9F6
  8
SIZE
  6
CONTINUOUS
 10
-769.040894
 20
656.864868
 30
0.0
 40
0.1
  0
POINT
  5
9F7
  8
DEFPOINTS
  6
BYBLOCK
 10
-272.729736
 20
656.864868
 30
0.0
  0
POINT
  5
9F8
  8
DEFPOINTS
  6
BYBLOCK
 10
-276.729736
 20
431.864868
 30
0.0
  0
POINT
  5
9F9
  8
DEFPOINTS
  6
BYBLOCK
 10
-769.040894
 20
431.864868
 30
0.0
  0
ENDBLK
  5
9FA
  8
SIZE
  0
BLOCK
  8
SIZE
  2
*D38
 70
     1
 10
0.0
 20
0.0
 30
0.0
  3
*D38
  1

  0
TEXT
  5
9FD
  8
SIZE
  6
CONTINUOUS
 10
-670.040918
 20
538.924866
 30
0.0
 40
2.8
  1
220
 50
90.00000499999999
 41
0.7
  7
STANDARD1
  0
LINE
  5
9FE
  8
SIZE
  6
CONTINUOUS
 10
-277.729736
 20
651.864868
 30
0.0
 11
-671.040894
 21
651.864868
 31
0.0
  0
LINE
  5
9FF
  8
SIZE
  6
CONTINUOUS
 10
-277.729736
 20
431.864868
 30
0.0
 11
-671.040894
 21
431.864868
 31
0.0
  0
LINE
  5
A00
  8
SIZE
  6
CONTINUOUS
 10
-669.040894
 20
651.864868
 30
0.0
 11
-669.040894
 21
431.864868
 31
0.0
  0
CIRCLE
  5
A01
  8
SIZE
  6
CONTINUOUS
 10
-669.040894
 20
651.864868
 30
0.0
 40
0.5
  0
CIRCLE
  5
A02
  8
SIZE
  6
CONTINUOUS
 10
-669.040894
 20
651.864868
 30
0.0
 40
0.4
  0
CIRCLE
  5
A03
  8
SIZE
  6
CONTINUOUS
 10
-669.040894
 20
651.864868
 30
0.0
 40
0.3
  0
CIRCLE
  5
A04
  8
SIZE
  6
CONTINUOUS
 10
-669.040894
 20
651.864868
 30
0.0
 40
0.2
  0
CIRCLE
  5
A05
  8
SIZE
  6
CONTINUOUS
 10
-669.040894
 20
651.864868
 30
0.0
 40
0.1
  0
CIRCLE
  5
A06
  8
SIZE
  6
CONTINUOUS
 10
-669.040894
 20
431.864868
 30
0.0
 40
0.5
  0
CIRCLE
  5
A07
  8
SIZE
  6
CONTINUOUS
 10
-669.040894
 20
431.864868
 30
0.0
 40
0.4
  0
CIRCLE
  5
A08
  8
SIZE
  6
CONTINUOUS
 10
-669.040894
 20
431.864868
 30
0.0
 40
0.3
  0
CIRCLE
  5
A09
  8
SIZE
  6
CONTINUOUS
 10
-669.040894
 20
431.864868
 30
0.0
 40
0.2
  0
CIRCLE
  5
A0A
  8
SIZE
  6
CONTINUOUS
 10
-669.040894
 20
431.864868
 30
0.0
 40
0.1
  0
POINT
  5
A0B
  8
DEFPOINTS
  6
BYBLOCK
 10
-276.729736
 20
431.864868
 30
0.0
  0
POINT
  5
A0C
  8
DEFPOINTS
  6
BYBLOCK
 10
-276.729736
 20
651.864868
 30
0.0
  0
POINT
  5
A0D
  8
DEFPOINTS
  6
BYBLOCK
 10
-669.040894
 20
651.864868
 30
0.0
  0
ENDBLK
  5
A0E
  8
SIZE
  0
BLOCK
  8
SIZE
  2
*D39
 70
     1
 10
0.0
 20
0.0
 30
0.0
  3
*D39
  1

  0
TEXT
  5
A11
  8
SIZE
  6
CONTINUOUS
 10
-770.040918
 20
212.924866
 30
0.0
 40
2.8
  1
432
 50
90.00000499999999
 41
0.7
  7
STANDARD1
  0
LINE
  5
A12
  8
SIZE
  6
CONTINUOUS
 10
-277.729736
 20
431.864868
 30
0.0
 11
-771.040894
 21
431.864868
 31
0.0
  0
LINE
  5
A13
  8
SIZE
  6
CONTINUOUS
 10
-275.729736
 20
-0.135135
 30
0.0
 11
-771.040894
 21
-0.135135
 31
0.0
  0
LINE
  5
A14
  8
SIZE
  6
CONTINUOUS
 10
-769.040894
 20
431.864868
 30
0.0
 11
-769.040894
 21
-0.135135
 31
0.0
  0
CIRCLE
  5
A15
  8
SIZE
  6
CONTINUOUS
 10
-769.040894
 20
431.864868
 30
0.0
 40
0.5
  0
CIRCLE
  5
A16
  8
SIZE
  6
CONTINUOUS
 10
-769.040894
 20
431.864868
 30
0.0
 40
0.4
  0
CIRCLE
  5
A17
  8
SIZE
  6
CONTINUOUS
 10
-769.040894
 20
431.864868
 30
0.0
 40
0.3
  0
CIRCLE
  5
A18
  8
SIZE
  6
CONTINUOUS
 10
-769.040894
 20
431.864868
 30
0.0
 40
0.2
  0
CIRCLE
  5
A19
  8
SIZE
  6
CONTINUOUS
 10
-769.040894
 20
431.864868
 30
0.0
 40
0.1
  0
CIRCLE
  5
A1A
  8
SIZE
  6
CONTINUOUS
 10
-769.040894
 20
-0.135135
 30
0.0
 40
0.5
  0
CIRCLE
  5
A1B
  8
SIZE
  6
CONTINUOUS
 10
-769.040894
 20
-0.135135
 30
0.0
 40
0.4
  0
CIRCLE
  5
A1C
  8
SIZE
  6
CONTINUOUS
 10
-769.040894
 20
-0.135135
 30
0.0
 40
0.3
  0
CIRCLE
  5
A1D
  8
SIZE
  6
CONTINUOUS
 10
-769.040894
 20
-0.135135
 30
0.0
 40
0.2
  0
CIRCLE
  5
A1E
  8
SIZE
  6
CONTINUOUS
 10
-769.040894
 20
-0.135135
 30
0.0
 40
0.1
  0
POINT
  5
A1F
  8
DEFPOINTS
  6
BYBLOCK
 10
-274.729736
 20
-0.135135
 30
0.0
  0
POINT
  5
A20
  8
DEFPOINTS
  6
BYBLOCK
 10
-276.729736
 20
431.864868
 30
0.0
  0
POINT
  5
A21
  8
DEFPOINTS
  6
BYBLOCK
 10
-769.040894
 20
431.864868
 30
0.0
  0
ENDBLK
  5
A22
  8
SIZE
  0
BLOCK
  8
SIZE
  2
*D40
 70
     1
 10
0.0
 20
0.0
 30
0.0
  3
*D40
  1

  0
TEXT
  5
A25
  8
SIZE
  6
CONTINUOUS
 10
-202.169739
 20
541.60293
 30
0.0
 40
2.8
  1
171
 50
0.000003
 41
0.7
  7
STANDARD1
  0
LINE
  5
A26
  8
SIZE
  6
CONTINUOUS
 10
-284.729736
 20
440.864868
 30
0.0
 11
-284.729736
 21
542.602905
 31
0.0
  0
LINE
  5
A27
  8
SIZE
  6
CONTINUOUS
 10
-113.729729
 20
440.864868
 30
0.0
 11
-113.729729
 21
542.602905
 31
0.0
  0
LINE
  5
A28
  8
SIZE
  6
CONTINUOUS
 10
-284.729736
 20
540.602905
 30
0.0
 11
-113.729729
 21
540.602905
 31
0.0
  0
CIRCLE
  5
A29
  8
SIZE
  6
CONTINUOUS
 10
-284.729736
 20
540.602905
 30
0.0
 40
0.5
  0
CIRCLE
  5
A2A
  8
SIZE
  6
CONTINUOUS
 10
-284.729736
 20
540.602905
 30
0.0
 40
0.4
  0
CIRCLE
  5
A2B
  8
SIZE
  6
CONTINUOUS
 10
-284.729736
 20
540.602905
 30
0.0
 40
0.3
  0
CIRCLE
  5
A2C
  8
SIZE
  6
CONTINUOUS
 10
-284.729736
 20
540.602905
 30
0.0
 40
0.2
  0
CIRCLE
  5
A2D
  8
SIZE
  6
CONTINUOUS
 10
-284.729736
 20
540.602905
 30
0.0
 40
0.1
  0
CIRCLE
  5
A2E
  8
SIZE
  6
CONTINUOUS
 10
-113.729729
 20
540.602905
 30
0.0
 40
0.5
  0
CIRCLE
  5
A2F
  8
SIZE
  6
CONTINUOUS
 10
-113.729729
 20
540.602905
 30
0.0
 40
0.4
  0
CIRCLE
  5
A30
  8
SIZE
  6
CONTINUOUS
 10
-113.729729
 20
540.602905
 30
0.0
 40
0.3
  0
CIRCLE
  5
A31
  8
SIZE
  6
CONTINUOUS
 10
-113.729729
 20
540.602905
 30
0.0
 40
0.2
  0
CIRCLE
  5
A32
  8
SIZE
  6
CONTINUOUS
 10
-113.729729
 20
540.602905
 30
0.0
 40
0.1
  0
POINT
  5
A33
  8
DEFPOINTS
  6
BYBLOCK
 10
-113.729729
 20
439.864868
 30
0.0
  0
POINT
  5
A34
  8
DEFPOINTS
  6
BYBLOCK
 10
-284.729736
 20
439.864868
 30
0.0
  0
POINT
  5
A35
  8
DEFPOINTS
  6
BYBLOCK
 10
-284.729736
 20
540.602905
 30
0.0
  0
ENDBLK
  5
A36
  8
SIZE
  0
BLOCK
  8
0
  2
_ORIGIN
 70
     0
 10
0.0
 20
0.0
 30
0.0
  3
_ORIGIN
  1

  0
CIRCLE
  5
A39
  8
0
  6
BYBLOCK
 62
     0
 10
0.0
 20
0.0
 30
0.0
 40
0.5
  0
LINE
  5
A3A
  8
0
  6
BYBLOCK
 62
     0
 10
0.0
 20
0.0
 30
0.0
 11
-1.0
 21
0.0
 31
0.0
  0
ENDBLK
  5
A3B
  8
0
  0
BLOCK
  8
0
  2
*D42
 70
     1
 10
0.0
 20
0.0
 30
0.0
  3
*D42
  1

  0
LINE
  5
A3E
  8
0
  6
BYBLOCK
 62
     0
 10
-113.729729
 20
449.864868
 30
0.0
 11
-113.729729
 21
555.502905
 31
0.0
  0
LINE
  5
A3F
  8
0
  6
BYBLOCK
 62
     0
 10
-284.729736
 20
449.864868
 30
0.0
 11
-284.729736
 21
555.502905
 31
0.0
  0
LINE
  5
A40
  8
0
  6
BYBLOCK
 62
     0
 10
-123.729729
 20
543.002905
 30
0.0
 11
-274.729736
 21
543.002905
 31
0.0
  0
INSERT
  5
A41
  8
0
  6
BYBLOCK
 62
     0
  2
_ORIGIN
 10
-113.729729
 20
543.002905
 30
0.0
 41
10.0
 42
10.0
 43
10.0
  0
INSERT
  5
A42
  8
0
  6
BYBLOCK
 62
     0
  2
_ORIGIN
 10
-284.729736
 20
543.002905
 30
0.0
 41
10.0
 42
10.0
 43
10.0
 50
180.0
  0
TEXT
  5
A43
  8
0
  6
BYBLOCK
 62
     0
 10
-233.729736
 20
553.002905
 30
0.0
 40
30.0
  1
171
 72
     1
 11
-199.229736
 21
553.002905
 31
0.0
  0
POINT
  5
A44
  8
DEFPOINTS
  6
BYBLOCK
 62
     0
 10
-113.729729
 20
439.864868
 30
0.0
  0
POINT
  5
A45
  8
DEFPOINTS
  6
BYBLOCK
 62
     0
 10
-284.729736
 20
439.864868
 30
0.0
  0
POINT
  5
A46
  8
DEFPOINTS
  6
BYBLOCK
 62
     0
 10
-284.729736
 20
543.002905
 30
0.0
  0
ENDBLK
  5
A47
  8
0
  0
BLOCK
  8
0
  2
*D43
 70
     1
 10
0.0
 20
0.0
 30
0.0
  3
*D43
  1

  0
LINE
  5
A4A
  8
0
  6
BYBLOCK
 62
     0
 10
-284.729736
 20
-0.135135
 30
0.0
 11
-783.940894
 21
-0.135135
 31
0.0
  0
LINE
  5
A4B
  8
0
  6
BYBLOCK
 62
     0
 10
-286.729736
 20
431.864868
 30
0.0
 11
-783.940894
 21
431.864868
 31
0.0
  0
LINE
  5
A4C
  8
0
  6
BYBLOCK
 62
     0
 10
-771.440894
 20
9.864865
 30
0.0
 11
-771.440894
 21
421.864868
 31
0.0
  0
INSERT
  5
A4D
  8
0
  6
BYBLOCK
 62
     0
  2
_ORIGIN
 10
-771.440894
 20
-0.135135
 30
0.0
 41
10.0
 42
10.0
 43
10.0
 50
270.0
  0
INSERT
  5
A4E
  8
0
  6
BYBLOCK
 62
     0
  2
_ORIGIN
 10
-771.440894
 20
431.864868
 30
0.0
 41
10.0
 42
10.0
 43
10.0
 50
90.0
  0
TEXT
  5
A4F
  8
0
  6
BYBLOCK
 62
     0
 10
-781.440894
 20
170.864868
 30
0.0
 40
30.0
  1
432
 50
90.0
 72
     1
 11
-781.440894
 21
215.864868
 31
0.0
  0
POINT
  5
A50
  8
DEFPOINTS
  6
BYBLOCK
 62
     0
 10
-274.729736
 20
-0.135135
 30
0.0
  0
POINT
  5
A51
  8
DEFPOINTS
  6
BYBLOCK
 62
     0
 10
-276.729736
 20
431.864868
 30
0.0
  0
POINT
  5
A52
  8
DEFPOINTS
  6
BYBLOCK
 62
     0
 10
-771.440894
 20
431.864868
 30
0.0
  0
ENDBLK
  5
A53
  8
0
  0
BLOCK
  8
0
  2
*D44
 70
     1
 10
0.0
 20
0.0
 30
0.0
  3
*D44
  1

  0
LINE
  5
A56
  8
0
  6
BYBLOCK
 62
     0
 10
-286.729736
 20
431.864868
 30
0.0
 11
-683.940894
 21
431.864868
 31
0.0
  0
LINE
  5
A57
  8
0
  6
BYBLOCK
 62
     0
 10
-286.729736
 20
651.864868
 30
0.0
 11
-683.940894
 21
651.864868
 31
0.0
  0
LINE
  5
A58
  8
0
  6
BYBLOCK
 62
     0
 10
-671.440894
 20
441.864868
 30
0.0
 11
-671.440894
 21
641.864868
 31
0.0
  0
INSERT
  5
A59
  8
0
  6
BYBLOCK
 62
     0
  2
_ORIGIN
 10
-671.440894
 20
431.864868
 30
0.0
 41
10.0
 42
10.0
 43
10.0
 50
270.0
  0
INSERT
  5
A5A
  8
0
  6
BYBLOCK
 62
     0
  2
_ORIGIN
 10
-671.440894
 20
651.864868
 30
0.0
 41
10.0
 42
10.0
 43
10.0
 50
90.0
  0
TEXT
  5
A5B
  8
0
  6
BYBLOCK
 62
     0
 10
-681.440894
 20
499.414868
 30
0.0
 40
30.0
  1
220
 50
90.0
 72
     1
 11
-681.440894
 21
541.864868
 31
0.0
  0
POINT
  5
A5C
  8
DEFPOINTS
  6
BYBLOCK
 62
     0
 10
-276.729736
 20
431.864868
 30
0.0
  0
POINT
  5
A5D
  8
DEFPOINTS
  6
BYBLOCK
 62
     0
 10
-276.729736
 20
651.864868
 30
0.0
  0
POINT
  5
A5E
  8
DEFPOINTS
  6
BYBLOCK
 62
     0
 10
-671.440894
 20
651.864868
 30
0.0
  0
ENDBLK
  5
A5F
  8
0
  0
BLOCK
  8
0
  2
*D45
 70
     1
 10
0.0
 20
0.0
 30
0.0
  3
*D45
  1

  0
LINE
  5
A62
  8
0
  6
BYBLOCK
 62
     0
 10
-282.729736
 20
656.864868
 30
0.0
 11
-783.940894
 21
656.864868
 31
0.0
  0
LINE
  5
A63
  8
0
  6
BYBLOCK
 62
     0
 10
-286.729736
 20
431.864868
 30
0.0
 11
-783.940894
 21
431.864868
 31
0.0
  0
LINE
  5
A64
  8
0
  6
BYBLOCK
 62
     0
 10
-771.440894
 20
646.864868
 30
0.0
 11
-771.440894
 21
441.864868
 31
0.0
  0
INSERT
  5
A65
  8
0
  6
BYBLOCK
 62
     0
  2
_ORIGIN
 10
-771.440894
 20
656.864868
 30
0.0
 41
10.0
 42
10.0
 43
10.0
 50
90.0
  0
INSERT
  5
A66
  8
0
  6
BYBLOCK
 62
     0
  2
_ORIGIN
 10
-771.440894
 20
431.864868
 30
0.0
 41
10.0
 42
10.0
 43
10.0
 50
270.0
  0
TEXT
  5
A67
  8
0
  6
BYBLOCK
 62
     0
 10
-781.440894
 20
499.364868
 30
0.0
 40
30.0
  1
225
 50
90.0
 72
     1
 11
-781.440894
 21
544.364868
 31
0.0
  0
POINT
  5
A68
  8
DEFPOINTS
  6
BYBLOCK
 62
     0
 10
-272.729736
 20
656.864868
 30
0.0
  0
POINT
  5
A69
  8
DEFPOINTS
  6
BYBLOCK
 62
     0
 10
-276.729736
 20
431.864868
 30
0.0
  0
POINT
  5
A6A
  8
DEFPOINTS
  6
BYBLOCK
 62
     0
 10
-771.440894
 20
431.864868
 30
0.0
  0
ENDBLK
  5
A6B
  8
0
  0
BLOCK
  8
0
  2
*D46
 70
     1
 10
0.0
 20
0.0
 30
0.0
  3
*D46
  1

  0
LINE
  5
A6E
  8
0
  6
BYBLOCK
 62
     0
 10
325.270264
 20
-0.135135
 30
0.0
 11
773.727991
 21
-0.135135
 31
0.0
  0
LINE
  5
A6F
  8
0
  6
BYBLOCK
 62
     0
 10
325.270264
 20
399.864868
 30
0.0
 11
773.727991
 21
399.864868
 31
0.0
  0
LINE
  5
A70
  8
0
  6
BYBLOCK
 62
     0
 10
761.227991
 20
9.864865
 30
0.0
 11
761.227991
 21
389.864868
 31
0.0
  0
INSERT
  5
A71
  8
0
  6
BYBLOCK
 62
     0
  2
_ORIGIN
 10
761.227991
 20
-0.135135
 30
0.0
 41
10.0
 42
10.0
 43
10.0
 50
270.0
  0
INSERT
  5
A72
  8
0
  6
BYBLOCK
 62
     0
  2
_ORIGIN
 10
761.227991
 20
399.864868
 30
0.0
 41
10.0
 42
10.0
 43
10.0
 50
90.0
  0
TEXT
  5
A73
  8
0
  6
BYBLOCK
 62
     0
 10
751.227991
 20
159.964868
 30
0.0
 40
30.0
  1
400
 50
90.0
 72
     1
 11
751.227991
 21
199.864868
 31
0.0
  0
POINT
  5
A74
  8
DEFPOINTS
  6
BYBLOCK
 62
     0
 10
315.270264
 20
-0.135135
 30
0.0
  0
POINT
  5
A75
  8
DEFPOINTS
  6
BYBLOCK
 62
     0
 10
315.270264
 20
399.864868
 30
0.0
  0
POINT
  5
A76
  8
DEFPOINTS
  6
BYBLOCK
 62
     0
 10
761.227991
 20
399.864868
 30
0.0
  0
ENDBLK
  5
A77
  8
0
  0
BLOCK
  8
0
  2
*D47
 70
     1
 10
0.0
 20
0.0
 30
0.0
  3
*D47
  1

  0
LINE
  5
A7A
  8
0
  6
BYBLOCK
 62
     0
 10
295.270264
 20
-30.135136
 30
0.0
 11
295.270264
 21
-794.295618
 31
0.0
  0
LINE
  5
A7B
  8
0
  6
BYBLOCK
 62
     0
 10
201.270264
 20
-30.135136
 30
0.0
 11
201.270264
 21
-794.295618
 31
0.0
  0
LINE
  5
A7C
  8
0
  6
BYBLOCK
 62
     0
 10
285.270264
 20
-781.795618
 30
0.0
 11
211.270264
 21
-781.795618
 31
0.0
  0
INSERT
  5
A7D
  8
0
  6
BYBLOCK
 62
     0
  2
_ORIGIN
 10
295.270264
 20
-781.795618
 30
0.0
 41
10.0
 42
10.0
 43
10.0
  0
INSERT
  5
A7E
  8
0
  6
BYBLOCK
 62
     0
  2
_ORIGIN
 10
201.270264
 20
-781.795618
 30
0.0
 41
10.0
 42
10.0
 43
10.0
 50
180.0
  0
TEXT
  5
A7F
  8
0
  6
BYBLOCK
 62
     0
 10
218.270264
 20
-771.795618
 30
0.0
 40
30.0
  1
94
 72
     1
 11
248.270264
 21
-771.795618
 31
0.0
  0
POINT
  5
A80
  8
DEFPOINTS
  6
BYBLOCK
 62
     0
 10
295.270264
 20
-20.135136
 30
0.0
  0
POINT
  5
A81
  8
DEFPOINTS
  6
BYBLOCK
 62
     0
 10
201.270264
 20
-20.135136
 30
0.0
  0
POINT
  5
A82
  8
DEFPOINTS
  6
BYBLOCK
 62
     0
 10
201.270264
 20
-781.795618
 30
0.0
  0
ENDBLK
  5
A83
  8
0
  0
BLOCK
  8
0
  2
*D48
 70
     1
 10
0.0
 20
0.0
 30
0.0
  3
*D48
  1

  0
LINE
  5
A86
  8
0
  6
BYBLOCK
 62
     0
 10
-200.729736
 20
-30.135136
 30
0.0
 11
-200.729736
 21
-794.295618
 31
0.0
  0
LINE
  5
A87
  8
0
  6
BYBLOCK
 62
     0
 10
-294.729736
 20
-30.135136
 30
0.0
 11
-294.729736
 21
-794.295618
 31
0.0
  0
LINE
  5
A88
  8
0
  6
BYBLOCK
 62
     0
 10
-210.729736
 20
-781.795618
 30
0.0
 11
-284.729736
 21
-781.795618
 31
0.0
  0
INSERT
  5
A89
  8
0
  6
BYBLOCK
 62
     0
  2
_ORIGIN
 10
-200.729736
 20
-781.795618
 30
0.0
 41
10.0
 42
10.0
 43
10.0
  0
INSERT
  5
A8A
  8
0
  6
BYBLOCK
 62
     0
  2
_ORIGIN
 10
-294.729736
 20
-781.795618
 30
0.0
 41
10.0
 42
10.0
 43
10.0
 50
180.0
  0
TEXT
  5
A8B
  8
0
  6
BYBLOCK
 62
     0
 10
-277.729736
 20
-771.795618
 30
0.0
 40
30.0
  1
94
 72
     1
 11
-247.729736
 21
-771.795618
 31
0.0
  0
POINT
  5
A8C
  8
DEFPOINTS
  6
BYBLOCK
 62
     0
 10
-200.729736
 20
-20.135136
 30
0.0
  0
POINT
  5
A8D
  8
DEFPOINTS
  6
BYBLOCK
 62
     0
 10
-294.729736
 20
-20.135136
 30
0.0
  0
POINT
  5
A8E
  8
DEFPOINTS
  6
BYBLOCK
 62
     0
 10
-294.729736
 20
-781.795618
 30
0.0
  0
ENDBLK
  5
A8F
  8
0
  0
BLOCK
  8
0
  2
*D49
 70
     1
 10
0.0
 20
0.0
 30
0.0
  3
*D49
  1

  0
LINE
  5
A92
  8
0
  6
BYBLOCK
 62
     0
 10
-314.729736
 20
189.864868
 30
0.0
 11
-314.729736
 21
-894.295618
 31
0.0
  0
LINE
  5
A93
  8
0
  6
BYBLOCK
 62
     0
 10
315.270264
 20
189.864868
 30
0.0
 11
315.270264
 21
-894.295618
 31
0.0
  0
LINE
  5
A94
  8
0
  6
BYBLOCK
 62
     0
 10
-304.729736
 20
-881.795618
 30
0.0
 11
305.270264
 21
-881.795618
 31
0.0
  0
INSERT
  5
A95
  8
0
  6
BYBLOCK
 62
     0
  2
_ORIGIN
 10
-314.729736
 20
-881.795618
 30
0.0
 41
10.0
 42
10.0
 43
10.0
 50
180.0
  0
INSERT
  5
A96
  8
0
  6
BYBLOCK
 62
     0
  2
_ORIGIN
 10
315.270264
 20
-881.795618
 30
0.0
 41
10.0
 42
10.0
 43
10.0
  0
TEXT
  5
A97
  8
0
  6
BYBLOCK
 62
     0
 10
-38.125675
 20
-871.795618
 30
0.0
 40
30.0
  1
630
 72
     1
 11
4.324325
 21
-871.795618
 31
0.0
  0
POINT
  5
A98
  8
DEFPOINTS
  6
BYBLOCK
 62
     0
 10
-314.729736
 20
199.864868
 30
0.0
  0
POINT
  5
A99
  8
DEFPOINTS
  6
BYBLOCK
 62
     0
 10
315.270264
 20
199.864868
 30
0.0
  0
POINT
  5
A9A
  8
DEFPOINTS
  6
BYBLOCK
 62
     0
 10
315.270264
 20
-881.795618
 30
0.0
  0
ENDBLK
  5
A9B
  8
0
  0
BLOCK
  8
0
  2
*D50
 70
     1
 10
0.0
 20
0.0
 30
0.0
  3
*D50
  1

  0
LINE
  5
A9E
  8
0
  6
BYBLOCK
 62
     0
 10
-200.729736
 20
-30.135136
 30
0.0
 11
-200.729736
 21
-794.295618
 31
0.0
  0
LINE
  5
A9F
  8
0
  6
BYBLOCK
 62
     0
 10
201.270264
 20
-30.135136
 30
0.0
 11
201.270264
 21
-794.295618
 31
0.0
  0
LINE
  5
AA0
  8
0
  6
BYBLOCK
 62
     0
 10
-190.729736
 20
-781.795618
 30
0.0
 11
191.270264
 21
-781.795618
 31
0.0
  0
INSERT
  5
AA1
  8
0
  6
BYBLOCK
 62
     0
  2
_ORIGIN
 10
-200.729736
 20
-781.795618
 30
0.0
 41
10.0
 42
10.0
 43
10.0
 50
180.0
  0
INSERT
  5
AA2
  8
0
  6
BYBLOCK
 62
     0
  2
_ORIGIN
 10
201.270264
 20
-781.795618
 30
0.0
 41
10.0
 42
10.0
 43
10.0
  0
TEXT
  5
AA3
  8
0
  6
BYBLOCK
 62
     0
 10
-38.125679
 20
-771.795618
 30
0.0
 40
30.0
  1
402
 72
     1
 11
4.324321
 21
-771.795618
 31
0.0
  0
POINT
  5
AA4
  8
DEFPOINTS
  6
BYBLOCK
 62
     0
 10
-200.729736
 20
-20.135136
 30
0.0
  0
POINT
  5
AA5
  8
DEFPOINTS
  6
BYBLOCK
 62
     0
 10
201.270264
 20
-20.135136
 30
0.0
  0
POINT
  5
AA6
  8
DEFPOINTS
  6
BYBLOCK
 62
     0
 10
201.270264
 20
-781.795618
 30
0.0
  0
ENDBLK
  5
AA7
  8
0
  0
BLOCK
  8
0
  2
*D51
 70
     1
 10
0.0
 20
0.0
 30
0.0
  3
*D51
  1

  0
LINE
  5
AAA
  8
0
  6
BYBLOCK
 62
     0
 10
-247.729736
 20
-30.135136
 30
0.0
 11
-247.729736
 21
-694.295618
 31
0.0
  0
LINE
  5
AAB
  8
0
  6
BYBLOCK
 62
     0
 10
248.270264
 20
-30.135136
 30
0.0
 11
248.270264
 21
-694.295618
 31
0.0
  0
LINE
  5
AAC
  8
0
  6
BYBLOCK
 62
     0
 10
-237.729736
 20
-681.795618
 30
0.0
 11
238.270264
 21
-681.795618
 31
0.0
  0
INSERT
  5
AAD
  8
0
  6
BYBLOCK
 62
     0
  2
_ORIGIN
 10
-247.729736
 20
-681.795618
 30
0.0
 41
10.0
 42
10.0
 43
10.0
 50
180.0
  0
INSERT
  5
AAE
  8
0
  6
BYBLOCK
 62
     0
  2
_ORIGIN
 10
248.270264
 20
-681.795618
 30
0.0
 41
10.0
 42
10.0
 43
10.0
  0
TEXT
  5
AAF
  8
0
  6
BYBLOCK
 62
     0
 10
-42.799704
 20
-671.795618
 30
0.0
 40
30.0
  1
496
 72
     1
 11
2.200296
 21
-671.795618
 31
0.0
  0
POINT
  5
AB0
  8
DEFPOINTS
  6
BYBLOCK
 62
     0
 10
-247.729736
 20
-20.135136
 30
0.0
  0
POINT
  5
AB1
  8
DEFPOINTS
  6
BYBLOCK
 62
     0
 10
248.270264
 20
-20.135136
 30
0.0
  0
POINT
  5
AB2
  8
DEFPOINTS
  6
BYBLOCK
 62
     0
 10
248.270264
 20
-681.795618
 30
0.0
  0
ENDBLK
  5
AB3
  8
0
  0
BLOCK
  8
0
  2
*D52
 70
     1
 10
0.0
 20
0.0
 30
0.0
  3
*D52
  1

  0
LINE
  5
AB6
  8
0
  6
BYBLOCK
 62
     0
 10
325.270264
 20
199.864868
 30
0.0
 11
973.727991
 21
199.864868
 31
0.0
  0
LINE
  5
AB7
  8
0
  6
BYBLOCK
 62
     0
 10
320.270264
 20
-0.135135
 30
0.0
 11
973.727991
 21
-0.135135
 31
0.0
  0
LINE
  5
AB8
  8
0
  6
BYBLOCK
 62
     0
 10
961.227991
 20
189.864868
 30
0.0
 11
961.227991
 21
9.864865
 31
0.0
  0
INSERT
  5
AB9
  8
0
  6
BYBLOCK
 62
     0
  2
_ORIGIN
 10
961.227991
 20
199.864868
 30
0.0
 41
10.0
 42
10.0
 43
10.0
 50
90.0
  0
INSERT
  5
ABA
  8
0
  6
BYBLOCK
 62
     0
  2
_ORIGIN
 10
961.227991
 20
-0.135135
 30
0.0
 41
10.0
 42
10.0
 43
10.0
 50
270.0
  0
TEXT
  5
ABB
  8
0
  6
BYBLOCK
 62
     0
 10
951.227991
 20
59.964868
 30
0.0
 40
30.0
  1
200
 50
90.0
 72
     1
 11
951.227991
 21
99.864868
 31
0.0
  0
POINT
  5
ABC
  8
DEFPOINTS
  6
BYBLOCK
 62
     0
 10
315.270264
 20
199.864868
 30
0.0
  0
POINT
  5
ABD
  8
DEFPOINTS
  6
BYBLOCK
 62
     0
 10
310.270264
 20
-0.135135
 30
0.0
  0
POINT
  5
ABE
  8
DEFPOINTS
  6
BYBLOCK
 62
     0
 10
961.227991
 20
-0.135135
 30
0.0
  0
ENDBLK
  5
ABF
  8
0
  0
BLOCK
  8
0
  2
*D53
 70
     1
 10
0.0
 20
0.0
 30
0.0
  3
*D53
  1

  0
LINE
  5
AC2
  8
0
  6
BYBLOCK
 62
     0
 10
325.270264
 20
-0.135135
 30
0.0
 11
673.727991
 21
-0.135135
 31
0.0
  0
LINE
  5
AC3
  8
0
  6
BYBLOCK
 62
     0
 10
190.270264
 20
359.864868
 30
0.0
 11
673.727991
 21
359.864868
 31
0.0
  0
LINE
  5
AC4
  8
0
  6
BYBLOCK
 62
     0
 10
661.227991
 20
9.864865
 30
0.0
 11
661.227991
 21
349.864868
 31
0.0
  0
INSERT
  5
AC5
  8
0
  6
BYBLOCK
 62
     0
  2
_ORIGIN
 10
661.227991
 20
-0.135135
 30
0.0
 41
10.0
 42
10.0
 43
10.0
 50
270.0
  0
INSERT
  5
AC6
  8
0
  6
BYBLOCK
 62
     0
  2
_ORIGIN
 10
661.227991
 20
359.864868
 30
0.0
 41
10.0
 42
10.0
 43
10.0
 50
90.0
  0
TEXT
  5
AC7
  8
0
  6
BYBLOCK
 62
     0
 10
651.227991
 20
116.703046
 30
0.0
 40
30.0
  1
360
 50
90.0
 72
     1
 11
651.227991
 21
159.153046
 31
0.0
  0
POINT
  5
AC8
  8
DEFPOINTS
  6
BYBLOCK
 62
     0
 10
315.270264
 20
-0.135135
 30
0.0
  0
POINT
  5
AC9
  8
DEFPOINTS
  6
BYBLOCK
 62
     0
 10
180.270264
 20
359.864868
 30
0.0
  0
POINT
  5
ACA
  8
DEFPOINTS
  6
BYBLOCK
 62
     0
 10
661.227991
 20
359.864868
 30
0.0
  0
ENDBLK
  5
ACB
  8
0
  0
BLOCK
  8
0
  2
*D54
 70
     1
 10
0.0
 20
0.0
 30
0.0
  3
*D54
  1

  0
LINE
  5
ACE
  8
0
  6
BYBLOCK
 62
     0
 10
320.270264
 20
-0.135135
 30
0.0
 11
573.727991
 21
-0.135135
 31
0.0
  0
LINE
  5
ACF
  8
0
  6
BYBLOCK
 62
     0
 10
100.270271
 20
319.864868
 30
0.0
 11
573.727991
 21
319.864868
 31
0.0
  0
LINE
  5
AD0
  8
0
  6
BYBLOCK
 62
     0
 10
561.227991
 20
9.864865
 30
0.0
 11
561.227991
 21
309.864868
 31
0.0
  0
INSERT
  5
AD1
  8
0
  6
BYBLOCK
 62
     0
  2
_ORIGIN
 10
561.227991
 20
-0.135135
 30
0.0
 41
10.0
 42
10.0
 43
10.0
 50
270.0
  0
INSERT
  5
AD2
  8
0
  6
BYBLOCK
 62
     0
  2
_ORIGIN
 10
561.227991
 20
319.864868
 30
0.0
 41
10.0
 42
10.0
 43
10.0
 50
90.0
  0
TEXT
  5
AD3
  8
0
  6
BYBLOCK
 62
     0
 10
551.227991
 20
117.414868
 30
0.0
 40
30.0
  1
320
 50
90.0
 72
     1
 11
551.227991
 21
159.864868
 31
0.0
  0
POINT
  5
AD4
  8
DEFPOINTS
  6
BYBLOCK
 62
     0
 10
310.270264
 20
-0.135135
 30
0.0
  0
POINT
  5
AD5
  8
DEFPOINTS
  6
BYBLOCK
 62
     0
 10
90.270271
 20
319.864868
 30
0.0
  0
POINT
  5
AD6
  8
DEFPOINTS
  6
BYBLOCK
 62
     0
 10
561.227991
 20
319.864868
 30
0.0
  0
ENDBLK
  5
AD7
  8
0
  0
BLOCK
  8
0
  2
*D55
 70
     1
 10
0.0
 20
0.0
 30
0.0
  3
*D55
  1

  0
LINE
  5
ADA
  8
0
  6
BYBLOCK
 62
     0
 10
278.270264
 20
-0.135135
 30
0.0
 11
473.72796
 21
-0.135135
 31
0.0
  0
LINE
  5
ADB
  8
0
  6
BYBLOCK
 62
     0
 10
138.29335
 20
172.364868
 30
0.0
 11
473.72796
 21
172.364868
 31
0.0
  0
LINE
  5
ADC
  8
0
  6
BYBLOCK
 62
     0
 10
461.22796
 20
9.864865
 30
0.0
 11
461.22796
 21
162.364868
 31
0.0
  0
INSERT
  5
ADD
  8
0
  6
BYBLOCK
 62
     0
  2
_ORIGIN
 10
461.22796
 20
-0.135135
 30
0.0
 41
10.0
 42
10.0
 43
10.0
 50
270.0
  0
INSERT
  5
ADE
  8
0
  6
BYBLOCK
 62
     0
  2
_ORIGIN
 10
461.22796
 20
172.364868
 30
0.0
 41
10.0
 42
10.0
 43
10.0
 50
90.0
  0
TEXT
  5
ADF
  8
0
  6
BYBLOCK
 62
     0
 10
451.22796
 20
46.364868
 30
0.0
 40
30.0
  1
173
 50
90.0
 72
     1
 11
451.22796
 21
86.114868
 31
0.0
  0
POINT
  5
AE0
  8
DEFPOINTS
  6
BYBLOCK
 62
     0
 10
268.270264
 20
-0.135135
 30
0.0
  0
POINT
  5
AE1
  8
DEFPOINTS
  6
BYBLOCK
 62
     0
 10
128.29335
 20
172.364868
 30
0.0
  0
POINT
  5
AE2
  8
DEFPOINTS
  6
BYBLOCK
 62
     0
 10
461.22796
 20
172.364868
 30
0.0
  0
ENDBLK
  5
AE3
  8
0
  0
BLOCK
  8
0
  2
*D56
 70
     1
 10
0.0
 20
0.0
 30
0.0
  3
*D56
  1

  0
LINE
  5
AE6
  8
0
  6
BYBLOCK
 62
     0
 10
-319.729736
 20
-0.135135
 30
0.0
 11
-483.940955
 21
-0.135135
 31
0.0
  0
LINE
  5
AE7
  8
0
  6
BYBLOCK
 62
     0
 10
-217.729736
 20
154.864868
 30
0.0
 11
-483.940955
 21
154.864868
 31
0.0
  0
LINE
  5
AE8
  8
0
  6
BYBLOCK
 62
     0
 10
-471.440955
 20
9.864865
 30
0.0
 11
-471.440955
 21
144.864868
 31
0.0
  0
INSERT
  5
AE9
  8
0
  6
BYBLOCK
 62
     0
  2
_ORIGIN
 10
-471.440955
 20
-0.135135
 30
0.0
 41
10.0
 42
10.0
 43
10.0
 50
270.0
  0
INSERT
  5
AEA
  8
0
  6
BYBLOCK
 62
     0
  2
_ORIGIN
 10
-471.440955
 20
154.864868
 30
0.0
 41
10.0
 42
10.0
 43
10.0
 50
90.0
  0
TEXT
  5
AEB
  8
0
  6
BYBLOCK
 62
     0
 10
-481.440955
 20
37.614868
 30
0.0
 40
30.0
  1
155
 50
90.0
 72
     1
 11
-481.440955
 21
77.364868
 31
0.0
  0
POINT
  5
AEC
  8
DEFPOINTS
  6
BYBLOCK
 62
     0
 10
-309.729736
 20
-0.135135
 30
0.0
  0
POINT
  5
AED
  8
DEFPOINTS
  6
BYBLOCK
 62
     0
 10
-207.729736
 20
154.864868
 30
0.0
  0
POINT
  5
AEE
  8
DEFPOINTS
  6
BYBLOCK
 62
     0
 10
-471.440955
 20
154.864868
 30
0.0
  0
ENDBLK
  5
AEF
  8
0
  0
BLOCK
  8
0
  2
*D57
 70
     1
 10
0.0
 20
0.0
 30
0.0
  3
*D57
  1

  0
LINE
  5
AF2
  8
0
  6
BYBLOCK
 62
     0
 10
-319.729736
 20
-0.135135
 30
0.0
 11
-583.940894
 21
-0.135135
 31
0.0
  0
LINE
  5
AF3
  8
0
  6
BYBLOCK
 62
     0
 10
-259.729736
 20
319.864868
 30
0.0
 11
-583.940894
 21
319.864868
 31
0.0
  0
LINE
  5
AF4
  8
0
  6
BYBLOCK
 62
     0
 10
-571.440894
 20
9.864865
 30
0.0
 11
-571.440894
 21
309.864868
 31
0.0
  0
INSERT
  5
AF5
  8
0
  6
BYBLOCK
 62
     0
  2
_ORIGIN
 10
-571.440894
 20
-0.135135
 30
0.0
 41
10.0
 42
10.0
 43
10.0
 50
270.0
  0
INSERT
  5
AF6
  8
0
  6
BYBLOCK
 62
     0
  2
_ORIGIN
 10
-571.440894
 20
319.864868
 30
0.0
 41
10.0
 42
10.0
 43
10.0
 50
90.0
  0
TEXT
  5
AF7
  8
0
  6
BYBLOCK
 62
     0
 10
-581.440894
 20
117.414868
 30
0.0
 40
30.0
  1
320
 50
90.0
 72
     1
 11
-581.440894
 21
159.864868
 31
0.0
  0
POINT
  5
AF8
  8
DEFPOINTS
  6
BYBLOCK
 62
     0
 10
-309.729736
 20
-0.135135
 30
0.0
  0
POINT
  5
AF9
  8
DEFPOINTS
  6
BYBLOCK
 62
     0
 10
-249.729736
 20
319.864868
 30
0.0
  0
POINT
  5
AFA
  8
DEFPOINTS
  6
BYBLOCK
 62
     0
 10
-571.440894
 20
319.864868
 30
0.0
  0
ENDBLK
  5
AFB
  8
0
  0
BLOCK
  8
0
  2
*D58
 70
     1
 10
0.0
 20
0.0
 30
0.0
  3
*D58
  1

  0
LINE
  5
AFE
  8
0
  6
BYBLOCK
 62
     0
 10
-319.729736
 20
-0.135135
 30
0.0
 11
-683.940894
 21
-0.135135
 31
0.0
  0
LINE
  5
AFF
  8
0
  6
BYBLOCK
 62
     0
 10
-324.729736
 20
399.864868
 30
0.0
 11
-683.940894
 21
399.864868
 31
0.0
  0
LINE
  5
B00
  8
0
  6
BYBLOCK
 62
     0
 10
-671.440894
 20
9.864865
 30
0.0
 11
-671.440894
 21
389.864868
 31
0.0
  0
INSERT
  5
B01
  8
0
  6
BYBLOCK
 62
     0
  2
_ORIGIN
 10
-671.440894
 20
-0.135135
 30
0.0
 41
10.0
 42
10.0
 43
10.0
 50
270.0
  0
INSERT
  5
B02
  8
0
  6
BYBLOCK
 62
     0
  2
_ORIGIN
 10
-671.440894
 20
399.864868
 30
0.0
 41
10.0
 42
10.0
 43
10.0
 50
90.0
  0
TEXT
  5
B03
  8
0
  6
BYBLOCK
 62
     0
 10
-681.440894
 20
159.964868
 30
0.0
 40
30.0
  1
400
 50
90.0
 72
     1
 11
-681.440894
 21
199.864868
 31
0.0
  0
POINT
  5
B04
  8
DEFPOINTS
  6
BYBLOCK
 62
     0
 10
-309.729736
 20
-0.135135
 30
0.0
  0
POINT
  5
B05
  8
DEFPOINTS
  6
BYBLOCK
 62
     0
 10
-314.729736
 20
399.864868
 30
0.0
  0
POINT
  5
B06
  8
DEFPOINTS
  6
BYBLOCK
 62
     0
 10
-671.440894
 20
399.864868
 30
0.0
  0
ENDBLK
  5
B07
  8
0
  0
BLOCK
  8
0
  2
*D59
 70
     1
 10
0.0
 20
0.0
 30
0.0
  3
*D59
  1

  0
LINE
  5
B0A
  8
0
  6
BYBLOCK
 62
     0
 10
-282.729736
 20
786.864868
 30
0.0
 11
-783.940894
 21
786.864868
 31
0.0
  0
LINE
  5
B0B
  8
0
  6
BYBLOCK
 62
     0
 10
-282.729736
 20
656.864868
 30
0.0
 11
-783.940894
 21
656.864868
 31
0.0
  0
LINE
  5
B0C
  8
0
  6
BYBLOCK
 62
     0
 10
-771.440894
 20
776.864868
 30
0.0
 11
-771.440894
 21
666.864868
 31
0.0
  0
INSERT
  5
B0D
  8
0
  6
BYBLOCK
 62
     0
  2
_ORIGIN
 10
-771.440894
 20
786.864868
 30
0.0
 41
10.0
 42
10.0
 43
10.0
 50
90.0
  0
INSERT
  5
B0E
  8
0
  6
BYBLOCK
 62
     0
  2
_ORIGIN
 10
-771.440894
 20
656.864868
 30
0.0
 41
10.0
 42
10.0
 43
10.0
 50
270.0
  0
TEXT
  5
B0F
  8
0
  6
BYBLOCK
 62
     0
 10
-781.440894
 20
684.664868
 30
0.0
 40
30.0
  1
130
 50
90.0
 72
     1
 11
-781.440894
 21
721.864868
 31
0.0
  0
POINT
  5
B10
  8
DEFPOINTS
  6
BYBLOCK
 62
     0
 10
-272.729736
 20
786.864868
 30
0.0
  0
POINT
  5
B11
  8
DEFPOINTS
  6
BYBLOCK
 62
     0
 10
-272.729736
 20
656.864868
 30
0.0
  0
POINT
  5
B12
  8
DEFPOINTS
  6
BYBLOCK
 62
     0
 10
-771.440894
 20
656.864868
 30
0.0
  0
ENDBLK
  5
B13
  8
0
  0
BLOCK
  8
0
  2
*D60
 70
     1
 10
0.0
 20
0.0
 30
0.0
  3
*D60
  1

  0
LINE
  5
B16
  8
0
  6
BYBLOCK
 62
     0
 10
-123.729729
 20
788.864868
 30
0.0
 11
-123.729729
 21
891.118689
 31
0.0
  0
LINE
  5
B17
  8
0
  6
BYBLOCK
 62
     0
 10
-280.729736
 20
788.864868
 30
0.0
 11
-280.729736
 21
891.118689
 31
0.0
  0
LINE
  5
B18
  8
0
  6
BYBLOCK
 62
     0
 10
-133.729729
 20
878.618689
 30
0.0
 11
-270.729736
 21
878.618689
 31
0.0
  0
INSERT
  5
B19
  8
0
  6
BYBLOCK
 62
     0
  2
_ORIGIN
 10
-123.729729
 20
878.618689
 30
0.0
 41
10.0
 42
10.0
 43
10.0
  0
INSERT
  5
B1A
  8
0
  6
BYBLOCK
 62
     0
  2
_ORIGIN
 10
-280.729736
 20
878.618689
 30
0.0
 41
10.0
 42
10.0
 43
10.0
 50
180.0
  0
TEXT
  5
B1B
  8
0
  6
BYBLOCK
 62
     0
 10
-241.979736
 20
888.618689
 30
0.0
 40
30.0
  1
157
 72
     1
 11
-202.229736
 21
888.618689
 31
0.0
  0
POINT
  5
B1C
  8
DEFPOINTS
  6
BYBLOCK
 62
     0
 10
-123.729729
 20
778.864868
 30
0.0
  0
POINT
  5
B1D
  8
DEFPOINTS
  6
BYBLOCK
 62
     0
 10
-280.729736
 20
778.864868
 30
0.0
  0
POINT
  5
B1E
  8
DEFPOINTS
  6
BYBLOCK
 62
     0
 10
-280.729736
 20
878.618689
 30
0.0
  0
ENDBLK
  5
B1F
  8
0
  0
BLOCK
  8
0
  2
*D61
 70
     1
 10
0.0
 20
0.0
 30
0.0
  3
*D61
  1

  0
LINE
  5
B22
  8
0
  6
BYBLOCK
 62
     0
 10
140.270264
 20
2005.864868
 30
0.0
 11
140.270264
 21
1891.980566
 31
0.0
  0
LINE
  5
B23
  8
0
  6
BYBLOCK
 62
     0
 10
270.270264
 20
2005.864868
 30
0.0
 11
270.270264
 21
1891.980566
 31
0.0
  0
LINE
  5
B24
  8
0
  6
BYBLOCK
 62
     0
 10
150.270264
 20
1904.480566
 30
0.0
 11
260.270264
 21
1904.480566
 31
0.0
  0
INSERT
  5
B25
  8
0
  6
BYBLOCK
 62
     0
  2
_ORIGIN
 10
140.270264
 20
1904.480566
 30
0.0
 41
10.0
 42
10.0
 43
10.0
 50
180.0
  0
INSERT
  5
B26
  8
0
  6
BYBLOCK
 62
     0
  2
_ORIGIN
 10
270.270264
 20
1904.480566
 30
0.0
 41
10.0
 42
10.0
 43
10.0
  0
TEXT
  5
B27
  8
0
  6
BYBLOCK
 62
     0
 10
168.070264
 20
1914.480566
 30
0.0
 40
30.0
  1
130
 72
     1
 11
205.270264
 21
1914.480566
 31
0.0
  0
POINT
  5
B28
  8
DEFPOINTS
  6
BYBLOCK
 62
     0
 10
140.270264
 20
2015.864868
 30
0.0
  0
POINT
  5
B29
  8
DEFPOINTS
  6
BYBLOCK
 62
     0
 10
270.270264
 20
2015.864868
 30
0.0
  0
POINT
  5
B2A
  8
DEFPOINTS
  6
BYBLOCK
 62
     0
 10
270.270264
 20
1904.480566
 30
0.0
  0
ENDBLK
  5
B2B
  8
0
  0
BLOCK
  8
0
  2
*D62
 70
     1
 10
0.0
 20
0.0
 30
0.0
  3
*D62
  1

  0
LINE
  5
B2E
  8
0
  6
BYBLOCK
 62
     0
 10
274.270264
 20
2009.864868
 30
0.0
 11
871.727991
 21
2009.864868
 31
0.0
  0
LINE
  5
B2F
  8
0
  6
BYBLOCK
 62
     0
 10
274.270264
 20
2127.864746
 30
0.0
 11
871.727991
 21
2127.864746
 31
0.0
  0
LINE
  5
B30
  8
0
  6
BYBLOCK
 62
     0
 10
859.227991
 20
2019.864868
 30
0.0
 11
859.227991
 21
2117.864746
 31
0.0
  0
INSERT
  5
B31
  8
0
  6
BYBLOCK
 62
     0
  2
_ORIGIN
 10
859.227991
 20
2009.864868
 30
0.0
 41
10.0
 42
10.0
 43
10.0
 50
270.0
  0
INSERT
  5
B32
  8
0
  6
BYBLOCK
 62
     0
  2
_ORIGIN
 10
859.227991
 20
2127.864746
 30
0.0
 41
10.0
 42
10.0
 43
10.0
 50
90.0
  0
TEXT
  5
B33
  8
0
  6
BYBLOCK
 62
     0
 10
849.227991
 20
2034.364746
 30
0.0
 40
30.0
  1
118
 50
90.0
 72
     1
 11
849.227991
 21
2068.864746
 31
0.0
  0
POINT
  5
B34
  8
DEFPOINTS
  6
BYBLOCK
 62
     0
 10
264.270264
 20
2009.864868
 30
0.0
  0
POINT
  5
B35
  8
DEFPOINTS
  6
BYBLOCK
 62
     0
 10
264.270264
 20
2127.864746
 30
0.0
  0
POINT
  5
B36
  8
DEFPOINTS
  6
BYBLOCK
 62
     0
 10
859.227991
 20
2127.864746
 30
0.0
  0
ENDBLK
  5
B37
  8
0
  0
BLOCK
  8
0
  2
*D63
 70
     1
 10
0.0
 20
0.0
 30
0.0
  3
*D63
  1

  0
LINE
  5
B3A
  8
0
  6
BYBLOCK
 62
     0
 10
315.270264
 20
2379.864746
 30
0.0
 11
315.270264
 21
2734.764746
 31
0.0
  0
LINE
  5
B3B
  8
0
  6
BYBLOCK
 62
     0
 10
-314.729736
 20
2379.864746
 30
0.0
 11
-314.729736
 21
2734.764746
 31
0.0
  0
LINE
  5
B3C
  8
0
  6
BYBLOCK
 62
     0
 10
305.270264
 20
2722.264746
 30
0.0
 11
-304.729736
 21
2722.264746
 31
0.0
  0
INSERT
  5
B3D
  8
0
  6
BYBLOCK
 62
     0
  2
_ORIGIN
 10
315.270264
 20
2722.264746
 30
0.0
 41
10.0
 42
10.0
 43
10.0
  0
INSERT
  5
B3E
  8
0
  6
BYBLOCK
 62
     0
  2
_ORIGIN
 10
-314.729736
 20
2722.264746
 30
0.0
 41
10.0
 42
10.0
 43
10.0
 50
180.0
  0
TEXT
  5
B3F
  8
0
  6
BYBLOCK
 62
     0
 10
-42.17973
 20
2732.264746
 30
0.0
 40
30.0
  1
630
 72
     1
 11
0.27027
 21
2732.264746
 31
0.0
  0
POINT
  5
B40
  8
DEFPOINTS
  6
BYBLOCK
 62
     0
 10
315.270264
 20
2369.864746
 30
0.0
  0
POINT
  5
B41
  8
DEFPOINTS
  6
BYBLOCK
 62
     0
 10
-314.729736
 20
2369.864746
 30
0.0
  0
POINT
  5
B42
  8
DEFPOINTS
  6
BYBLOCK
 62
     0
 10
-314.729736
 20
2722.264746
 30
0.0
  0
ENDBLK
  5
B43
  8
0
  0
BLOCK
  8
0
  2
*D64
 70
     1
 10
0.0
 20
0.0
 30
0.0
  3
*D64
  1

  0
LINE
  5
B46
  8
0
  6
BYBLOCK
 62
     0
 10
45.270271
 20
2219.864746
 30
0.0
 11
45.270271
 21
2584.764746
 31
0.0
  0
LINE
  5
B47
  8
0
  6
BYBLOCK
 62
     0
 10
-44.729729
 20
2219.864746
 30
0.0
 11
-44.729729
 21
2584.764746
 31
0.0
  0
LINE
  5
B48
  8
0
  6
BYBLOCK
 62
     0
 10
35.270271
 20
2572.264746
 30
0.0
 11
-34.729729
 21
2572.264746
 31
0.0
  0
INSERT
  5
B49
  8
0
  6
BYBLOCK
 62
     0
  2
_ORIGIN
 10
45.270271
 20
2572.264746
 30
0.0
 41
10.0
 42
10.0
 43
10.0
  0
INSERT
  5
B4A
  8
0
  6
BYBLOCK
 62
     0
  2
_ORIGIN
 10
-44.729729
 20
2572.264746
 30
0.0
 41
10.0
 42
10.0
 43
10.0
 50
180.0
  0
TEXT
  5
B4B
  8
0
  6
BYBLOCK
 62
     0
 10
-27.17973
 20
2582.264746
 30
0.0
 40
30.0
  1
90
 72
     1
 11
0.27027
 21
2582.264746
 31
0.0
  0
POINT
  5
B4C
  8
DEFPOINTS
  6
BYBLOCK
 62
     0
 10
45.270271
 20
2209.864746
 30
0.0
  0
POINT
  5
B4D
  8
DEFPOINTS
  6
BYBLOCK
 62
     0
 10
-44.729729
 20
2209.864746
 30
0.0
  0
POINT
  5
B4E
  8
DEFPOINTS
  6
BYBLOCK
 62
     0
 10
-44.729729
 20
2572.264746
 30
0.0
  0
ENDBLK
  5
B4F
  8
0
  0
BLOCK
  8
0
  2
*D65
 70
     1
 10
0.0
 20
0.0
 30
0.0
  3
*D65
  1

  0
LINE
  5
B52
  8
0
  6
BYBLOCK
 62
     0
 10
30.270269
 20
2222.864746
 30
0.0
 11
30.270269
 21
2484.764746
 31
0.0
  0
LINE
  5
B53
  8
0
  6
BYBLOCK
 62
     0
 10
-29.729731
 20
2222.864746
 30
0.0
 11
-29.729731
 21
2484.764746
 31
0.0
  0
LINE
  5
B54
  8
0
  6
BYBLOCK
 62
     0
 10
20.270269
 20
2472.264746
 30
0.0
 11
-19.729731
 21
2472.264746
 31
0.0
  0
INSERT
  5
B55
  8
0
  6
BYBLOCK
 62
     0
  2
_ORIGIN
 10
30.270269
 20
2472.264746
 30
0.0
 41
10.0
 42
10.0
 43
10.0
  0
INSERT
  5
B56
  8
0
  6
BYBLOCK
 62
     0
  2
_ORIGIN
 10
-29.729731
 20
2472.264746
 30
0.0
 41
10.0
 42
10.0
 43
10.0
 50
180.0
  0
TEXT
  5
B57
  8
0
  6
BYBLOCK
 62
     0
 10
-27.179731
 20
2482.264746
 30
0.0
 40
30.0
  1
60
 72
     1
 11
0.270269
 21
2482.264746
 31
0.0
  0
POINT
  5
B58
  8
DEFPOINTS
  6
BYBLOCK
 62
     0
 10
30.270269
 20
2212.864746
 30
0.0
  0
POINT
  5
B59
  8
DEFPOINTS
  6
BYBLOCK
 62
     0
 10
-29.729731
 20
2212.864746
 30
0.0
  0
POINT
  5
B5A
  8
DEFPOINTS
  6
BYBLOCK
 62
     0
 10
-29.729731
 20
2472.264746
 30
0.0
  0
ENDBLK
  5
B5B
  8
0
  0
BLOCK
  8
0
  2
*D66
 70
     1
 10
0.0
 20
0.0
 30
0.0
  3
*D66
  1

  0
LINE
  5
B5E
  8
0
  6
BYBLOCK
 62
     0
 10
325.270264
 20
2169.864746
 30
0.0
 11
1073.727808
 21
2169.864746
 31
0.0
  0
LINE
  5
B5F
  8
0
  6
BYBLOCK
 62
     0
 10
325.270264
 20
2369.864746
 30
0.0
 11
1073.727808
 21
2369.864746
 31
0.0
  0
LINE
  5
B60
  8
0
  6
BYBLOCK
 62
     0
 10
1061.227808
 20
2179.864746
 30
0.0
 11
1061.227808
 21
2359.864746
 31
0.0
  0
INSERT
  5
B61
  8
0
  6
BYBLOCK
 62
     0
  2
_ORIGIN
 10
1061.227808
 20
2169.864746
 30
0.0
 41
10.0
 42
10.0
 43
10.0
 50
270.0
  0
INSERT
  5
B62
  8
0
  6
BYBLOCK
 62
     0
  2
_ORIGIN
 10
1061.227808
 20
2369.864746
 30
0.0
 41
10.0
 42
10.0
 43
10.0
 50
90.0
  0
TEXT
  5
B63
  8
0
  6
BYBLOCK
 62
     0
 10
1051.227808
 20
2229.964746
 30
0.0
 40
30.0
  1
200
 50
90.0
 72
     1
 11
1051.227808
 21
2269.864746
 31
0.0
  0
POINT
  5
B64
  8
DEFPOINTS
  6
BYBLOCK
 62
     0
 10
315.270264
 20
2169.864746
 30
0.0
  0
POINT
  5
B65
  8
DEFPOINTS
  6
BYBLOCK
 62
     0
 10
315.270264
 20
2369.864746
 30
0.0
  0
POINT
  5
B66
  8
DEFPOINTS
  6
BYBLOCK
 62
     0
 10
1061.227808
 20
2369.864746
 30
0.0
  0
ENDBLK
  5
B67
  8
0
  0
BLOCK
  8
0
  2
*D67
 70
     1
 10
0.0
 20
0.0
 30
0.0
  3
*D67
  1

  0
LINE
  5
B6A
  8
0
  6
BYBLOCK
 62
     0
 10
325.270264
 20
199.864868
 30
0.0
 11
973.727991
 21
199.864868
 31
0.0
  0
LINE
  5
B6B
  8
0
  6
BYBLOCK
 62
     0
 10
325.270264
 20
2169.864746
 30
0.0
 11
973.727991
 21
2169.864746
 31
0.0
  0
LINE
  5
B6C
  8
0
  6
BYBLOCK
 62
     0
 10
961.227991
 20
209.864868
 30
0.0
 11
961.227991
 21
2159.864746
 31
0.0
  0
INSERT
  5
B6D
  8
0
  6
BYBLOCK
 62
     0
  2
_ORIGIN
 10
961.227991
 20
199.864868
 30
0.0
 41
10.0
 42
10.0
 43
10.0
 50
270.0
  0
INSERT
  5
B6E
  8
0
  6
BYBLOCK
 62
     0
  2
_ORIGIN
 10
961.227991
 20
2169.864746
 30
0.0
 41
10.0
 42
10.0
 43
10.0
 50
90.0
  0
TEXT
  5
B6F
  8
0
  6
BYBLOCK
 62
     0
 10
951.227991
 20
1132.664868
 30
0.0
 40
30.0
  1
1970
 50
90.0
 72
     1
 11
951.227991
 21
1184.864868
 31
0.0
  0
POINT
  5
B70
  8
DEFPOINTS
  6
BYBLOCK
 62
     0
 10
315.270264
 20
199.864868
 30
0.0
  0
POINT
  5
B71
  8
DEFPOINTS
  6
BYBLOCK
 62
     0
 10
315.270264
 20
2169.864746
 30
0.0
  0
POINT
  5
B72
  8
DEFPOINTS
  6
BYBLOCK
 62
     0
 10
961.227991
 20
2169.864746
 30
0.0
  0
ENDBLK
  5
B73
  8
0
  0
BLOCK
  8
0
  2
*D68
 70
     1
 10
0.0
 20
0.0
 30
0.0
  3
*D68
  1

  0
LINE
  5
B76
  8
0
  6
BYBLOCK
 62
     0
 10
325.270264
 20
-0.135135
 30
0.0
 11
1073.727808
 21
-0.135135
 31
0.0
  0
LINE
  5
B77
  8
0
  6
BYBLOCK
 62
     0
 10
325.270264
 20
2169.864746
 30
0.0
 11
1073.727808
 21
2169.864746
 31
0.0
  0
LINE
  5
B78
  8
0
  6
BYBLOCK
 62
     0
 10
1061.227808
 20
9.864865
 30
0.0
 11
1061.227808
 21
2159.864746
 31
0.0
  0
INSERT
  5
B79
  8
0
  6
BYBLOCK
 62
     0
  2
_ORIGIN
 10
1061.227808
 20
-0.135135
 30
0.0
 41
10.0
 42
10.0
 43
10.0
 50
270.0
  0
INSERT
  5
B7A
  8
0
  6
BYBLOCK
 62
     0
  2
_ORIGIN
 10
1061.227808
 20
2169.864746
 30
0.0
 41
10.0
 42
10.0
 43
10.0
 50
90.0
  0
TEXT
  5
B7B
  8
0
  6
BYBLOCK
 62
     0
 10
1051.227808
 20
1032.664868
 30
0.0
 40
30.0
  1
2170
 50
90.0
 72
     1
 11
1051.227808
 21
1084.864868
 31
0.0
  0
POINT
  5
B7C
  8
DEFPOINTS
  6
BYBLOCK
 62
     0
 10
315.270264
 20
-0.135135
 30
0.0
  0
POINT
  5
B7D
  8
DEFPOINTS
  6
BYBLOCK
 62
     0
 10
315.270264
 20
2169.864746
 30
0.0
  0
POINT
  5
B7E
  8
DEFPOINTS
  6
BYBLOCK
 62
     0
 10
1061.227808
 20
2169.864746
 30
0.0
  0
ENDBLK
  5
B7F
  8
0
  0
BLOCK
  8
0
  2
*D69
 70
     1
 10
0.0
 20
0.0
 30
0.0
  3
*D69
  1

  0
LINE
  5
B82
  8
0
  6
BYBLOCK
 62
     0
 10
-59.729729
 20
2192.864746
 30
0.0
 11
-883.940894
 21
2192.864746
 31
0.0
  0
LINE
  5
B83
  8
0
  6
BYBLOCK
 62
     0
 10
-324.729736
 20
-0.135135
 30
0.0
 11
-883.940894
 21
-0.135135
 31
0.0
  0
LINE
  5
B84
  8
0
  6
BYBLOCK
 62
     0
 10
-871.440894
 20
2182.864746
 30
0.0
 11
-871.440894
 21
9.864865
 31
0.0
  0
INSERT
  5
B85
  8
0
  6
BYBLOCK
 62
     0
  2
_ORIGIN
 10
-871.440894
 20
2192.864746
 30
0.0
 41
10.0
 42
10.0
 43
10.0
 50
90.0
  0
INSERT
  5
B86
  8
0
  6
BYBLOCK
 62
     0
  2
_ORIGIN
 10
-871.440894
 20
-0.135135
 30
0.0
 41
10.0
 42
10.0
 43
10.0
 50
270.0
  0
TEXT
  5
B87
  8
0
  6
BYBLOCK
 62
     0
 10
-881.440894
 20
1041.614868
 30
0.0
 40
30.0
  1
2193
 50
90.0
 72
     1
 11
-881.440894
 21
1096.364868
 31
0.0
  0
POINT
  5
B88
  8
DEFPOINTS
  6
BYBLOCK
 62
     0
 10
-49.729729
 20
2192.864746
 30
0.0
  0
POINT
  5
B89
  8
DEFPOINTS
  6
BYBLOCK
 62
     0
 10
-314.729736
 20
-0.135135
 30
0.0
  0
POINT
  5
B8A
  8
DEFPOINTS
  6
BYBLOCK
 62
     0
 10
-871.440894
 20
-0.135135
 30
0.0
  0
ENDBLK
  5
B8B
  8
0
  0
BLOCK
  8
0
  2
*D70
 70
     1
 10
0.0
 20
0.0
 30
0.0
  3
*D70
  1

  0
LINE
  5
B8E
  8
0
  6
BYBLOCK
 62
     0
 10
-324.729736
 20
-0.135135
 30
0.0
 11
-983.940894
 21
-0.135135
 31
0.0
  0
LINE
  5
B8F
  8
0
  6
BYBLOCK
 62
     0
 10
-49.729729
 20
2214.864746
 30
0.0
 11
-983.940894
 21
2214.864746
 31
0.0
  0
LINE
  5
B90
  8
0
  6
BYBLOCK
 62
     0
 10
-971.440894
 20
9.864865
 30
0.0
 11
-971.440894
 21
2204.864746
 31
0.0
  0
INSERT
  5
B91
  8
0
  6
BYBLOCK
 62
     0
  2
_ORIGIN
 10
-971.440894
 20
-0.135135
 30
0.0
 41
10.0
 42
10.0
 43
10.0
 50
270.0
  0
INSERT
  5
B92
  8
0
  6
BYBLOCK
 62
     0
  2
_ORIGIN
 10
-971.440894
 20
2214.864746
 30
0.0
 41
10.0
 42
10.0
 43
10.0
 50
90.0
  0
TEXT
  5
B93
  8
0
  6
BYBLOCK
 62
     0
 10
-981.440894
 20
1052.614868
 30
0.0
 40
30.0
  1
2215
 50
90.0
 72
     1
 11
-981.440894
 21
1107.364868
 31
0.0
  0
POINT
  5
B94
  8
DEFPOINTS
  6
BYBLOCK
 62
     0
 10
-314.729736
 20
-0.135135
 30
0.0
  0
POINT
  5
B95
  8
DEFPOINTS
  6
BYBLOCK
 62
     0
 10
-39.729729
 20
2214.864746
 30
0.0
  0
POINT
  5
B96
  8
DEFPOINTS
  6
BYBLOCK
 62
     0
 10
-971.440894
 20
2214.864746
 30
0.0
  0
ENDBLK
  5
B97
  8
0
  0
BLOCK
  8
0
  2
*D71
 70
     1
 10
0.0
 20
0.0
 30
0.0
  3
*D71
  1

  0
LINE
  5
B9A
  8
0
  6
BYBLOCK
 62
     0
 10
-314.729736
 20
209.864868
 30
0.0
 11
-314.729736
 21
891.118689
 31
0.0
  0
LINE
  5
B9B
  8
0
  6
BYBLOCK
 62
     0
 10
-280.729736
 20
674.864868
 30
0.0
 11
-280.729736
 21
891.118689
 31
0.0
  0
LINE
  5
B9C
  8
0
  6
BYBLOCK
 62
     0
 10
-270.729736
 20
878.618689
 30
0.0
 11
-260.729736
 21
878.618689
 31
0.0
  0
LINE
  5
B9D
  8
0
  6
BYBLOCK
 62
     0
 10
-324.729736
 20
878.618689
 30
0.0
 11
-407.594727
 21
878.618689
 31
0.0
  0
LINE
  5
B9E
  8
0
  6
BYBLOCK
 62
     0
 10
-280.729736
 20
878.618689
 30
0.0
 11
-314.729736
 21
878.618689
 31
0.0
  0
INSERT
  5
B9F
  8
0
  6
BYBLOCK
 62
     0
  2
_ORIGIN
 10
-280.729736
 20
878.618689
 30
0.0
 41
10.0
 42
10.0
 43
10.0
 50
180.0
  0
INSERT
  5
BA0
  8
0
  6
BYBLOCK
 62
     0
  2
_ORIGIN
 10
-314.729736
 20
878.618689
 30
0.0
 41
10.0
 42
10.0
 43
10.0
  0
TEXT
  5
BA1
  8
0
  6
BYBLOCK
 62
     0
 10
-402.594727
 20
888.618689
 30
0.0
 40
30.0
  1
34
 72
     1
 11
-372.594727
 21
888.618689
 31
0.0
  0
POINT
  5
BA2
  8
DEFPOINTS
  6
BYBLOCK
 62
     0
 10
-314.729736
 20
199.864868
 30
0.0
  0
POINT
  5
BA3
  8
DEFPOINTS
  6
BYBLOCK
 62
     0
 10
-280.729736
 20
664.864868
 30
0.0
  0
POINT
  5
BA4
  8
DEFPOINTS
  6
BYBLOCK
 62
     0
 10
-280.729736
 20
878.618689
 30
0.0
  0
ENDBLK
  5
BA5
  8
0
  0
BLOCK
  8
0
  2
*D72
 70
     1
 10
0.0
 20
0.0
 30
0.0
  3
*D72
  1

  0
LINE
  5
BA8
  8
0
  6
BYBLOCK
 62
     0
 10
-284.729736
 20
633.864868
 30
0.0
 11
-284.729736
 21
530.502905
 31
0.0
  0
LINE
  5
BA9
  8
0
  6
BYBLOCK
 62
     0
 10
-314.729736
 20
209.864868
 30
0.0
 11
-314.729736
 21
555.502905
 31
0.0
  0
LINE
  5
BAA
  8
0
  6
BYBLOCK
 62
     0
 10
-274.729736
 20
543.002905
 30
0.0
 11
-264.729736
 21
543.002905
 31
0.0
  0
LINE
  5
BAB
  8
0
  6
BYBLOCK
 62
     0
 10
-324.729736
 20
543.002905
 30
0.0
 11
-399.729736
 21
543.002905
 31
0.0
  0
LINE
  5
BAC
  8
0
  6
BYBLOCK
 62
     0
 10
-284.729736
 20
543.002905
 30
0.0
 11
-314.729736
 21
543.002905
 31
0.0
  0
INSERT
  5
BAD
  8
0
  6
BYBLOCK
 62
     0
  2
_ORIGIN
 10
-284.729736
 20
543.002905
 30
0.0
 41
10.0
 42
10.0
 43
10.0
 50
180.0
  0
INSERT
  5
BAE
  8
0
  6
BYBLOCK
 62
     0
  2
_ORIGIN
 10
-314.729736
 20
543.002905
 30
0.0
 41
10.0
 42
10.0
 43
10.0
  0
TEXT
  5
BAF
  8
0
  6
BYBLOCK
 62
     0
 10
-394.679736
 20
553.002905
 30
0.0
 40
30.0
  1
30
 72
     1
 11
-367.229736
 21
553.002905
 31
0.0
  0
POINT
  5
BB0
  8
DEFPOINTS
  6
BYBLOCK
 62
     0
 10
-284.729736
 20
643.864868
 30
0.0
  0
POINT
  5
BB1
  8
DEFPOINTS
  6
BYBLOCK
 62
     0
 10
-314.729736
 20
199.864868
 30
0.0
  0
POINT
  5
BB2
  8
DEFPOINTS
  6
BYBLOCK
 62
     0
 10
-314.729736
 20
543.002905
 30
0.0
  0
ENDBLK
  5
BB3
  8
0
  0
BLOCK
  8
0
  2
*D73
 70
     1
 10
0.0
 20
0.0
 30
0.0
  3
*D73
  1

  0
LINE
  5
BB6
  8
0
  6
BYBLOCK
 62
     0
 10
-179.729736
 20
369.864868
 30
0.0
 11
-179.729736
 21
-294.295557
 31
0.0
  0
LINE
  5
BB7
  8
0
  6
BYBLOCK
 62
     0
 10
0.27027
 20
279.864868
 30
0.0
 11
0.27027
 21
-294.295557
 31
0.0
  0
LINE
  5
BB8
  8
0
  6
BYBLOCK
 62
     0
 10
-169.729736
 20
-281.795557
 30
0.0
 11
-9.72973
 21
-281.795557
 31
0.0
  0
INSERT
  5
BB9
  8
0
  6
BYBLOCK
 62
     0
  2
_ORIGIN
 10
-179.729736
 20
-281.795557
 30
0.0
 41
10.0
 42
10.0
 43
10.0
 50
180.0
  0
INSERT
  5
BBA
  8
0
  6
BYBLOCK
 62
     0
  2
_ORIGIN
 10
0.27027
 20
-281.795557
 30
0.0
 41
10.0
 42
10.0
 43
10.0
  0
TEXT
  5
BBB
  8
0
  6
BYBLOCK
 62
     0
 10
-126.929729
 20
-271.795557
 30
0.0
 40
30.0
  1
180
 72
     1
 11
-89.729729
 21
-271.795557
 31
0.0
  0
POINT
  5
BBC
  8
DEFPOINTS
  6
BYBLOCK
 62
     0
 10
-179.729736
 20
379.864868
 30
0.0
  0
POINT
  5
BBD
  8
DEFPOINTS
  6
BYBLOCK
 62
     0
 10
0.27027
 20
289.864868
 30
0.0
  0
POINT
  5
BBE
  8
DEFPOINTS
  6
BYBLOCK
 62
     0
 10
0.27027
 20
-281.795557
 30
0.0
  0
ENDBLK
  5
BBF
  8
0
  0
BLOCK
  8
0
  2
*D74
 70
     1
 10
0.0
 20
0.0
 30
0.0
  3
*D74
  1

  0
LINE
  5
BC2
  8
0
  6
BYBLOCK
 62
     0
 10
70.270271
 20
289.864868
 30
0.0
 11
70.270271
 21
-294.295557
 31
0.0
  0
LINE
  5
BC3
  8
0
  6
BYBLOCK
 62
     0
 10
0.27027
 20
279.864868
 30
0.0
 11
0.27027
 21
-294.295557
 31
0.0
  0
LINE
  5
BC4
  8
0
  6
BYBLOCK
 62
     0
 10
60.270271
 20
-281.795557
 30
0.0
 11
10.27027
 21
-281.795557
 31
0.0
  0
INSERT
  5
BC5
  8
0
  6
BYBLOCK
 62
     0
  2
_ORIGIN
 10
70.270271
 20
-281.795557
 30
0.0
 41
10.0
 42
10.0
 43
10.0
  0
INSERT
  5
BC6
  8
0
  6
BYBLOCK
 62
     0
  2
_ORIGIN
 10
0.27027
 20
-281.795557
 30
0.0
 41
10.0
 42
10.0
 43
10.0
 50
180.0
  0
TEXT
  5
BC7
  8
0
  6
BYBLOCK
 62
     0
 10
7.820271
 20
-271.795557
 30
0.0
 40
30.0
  1
70
 72
     1
 11
35.270271
 21
-271.795557
 31
0.0
  0
POINT
  5
BC8
  8
DEFPOINTS
  6
BYBLOCK
 62
     0
 10
70.270271
 20
299.864868
 30
0.0
  0
POINT
  5
BC9
  8
DEFPOINTS
  6
BYBLOCK
 62
     0
 10
0.27027
 20
289.864868
 30
0.0
  0
POINT
  5
BCA
  8
DEFPOINTS
  6
BYBLOCK
 62
     0
 10
0.27027
 20
-281.795557
 30
0.0
  0
ENDBLK
  5
BCB
  8
0
  0
BLOCK
  8
0
  2
*D75
 70
     1
 10
0.0
 20
0.0
 30
0.0
  3
*D75
  1

  0
LINE
  5
BCE
  8
0
  6
BYBLOCK
 62
     0
 10
-187.729736
 20
124.864868
 30
0.0
 11
-187.729736
 21
-394.295557
 31
0.0
  0
LINE
  5
BCF
  8
0
  6
BYBLOCK
 62
     0
 10
0.27027
 20
279.864868
 30
0.0
 11
0.27027
 21
-394.295557
 31
0.0
  0
LINE
  5
BD0
  8
0
  6
BYBLOCK
 62
     0
 10
-177.729736
 20
-381.795557
 30
0.0
 11
-9.72973
 21
-381.795557
 31
0.0
  0
INSERT
  5
BD1
  8
0
  6
BYBLOCK
 62
     0
  2
_ORIGIN
 10
-187.729736
 20
-381.795557
 30
0.0
 41
10.0
 42
10.0
 43
10.0
 50
180.0
  0
INSERT
  5
BD2
  8
0
  6
BYBLOCK
 62
     0
  2
_ORIGIN
 10
0.27027
 20
-381.795557
 30
0.0
 41
10.0
 42
10.0
 43
10.0
  0
TEXT
  5
BD3
  8
0
  6
BYBLOCK
 62
     0
 10
-133.479729
 20
-371.795557
 30
0.0
 40
30.0
  1
188
 72
     1
 11
-93.729729
 21
-371.795557
 31
0.0
  0
POINT
  5
BD4
  8
DEFPOINTS
  6
BYBLOCK
 62
     0
 10
-187.729736
 20
134.864868
 30
0.0
  0
POINT
  5
BD5
  8
DEFPOINTS
  6
BYBLOCK
 62
     0
 10
0.27027
 20
289.864868
 30
0.0
  0
POINT
  5
BD6
  8
DEFPOINTS
  6
BYBLOCK
 62
     0
 10
0.27027
 20
-381.795557
 30
0.0
  0
ENDBLK
  5
BD7
  8
0
  0
BLOCK
  8
0
  2
*D76
 70
     1
 10
0.0
 20
0.0
 30
0.0
  3
*D76
  1

  0
LINE
  5
BDA
  8
0
  6
BYBLOCK
 62
     0
 10
108.293358
 20
142.364868
 30
0.0
 11
108.293358
 21
-394.295557
 31
0.0
  0
LINE
  5
BDB
  8
0
  6
BYBLOCK
 62
     0
 10
0.27027
 20
279.864868
 30
0.0
 11
0.27027
 21
-394.295557
 31
0.0
  0
LINE
  5
BDC
  8
0
  6
BYBLOCK
 62
     0
 10
98.293358
 20
-381.795557
 30
0.0
 11
10.27027
 21
-381.795557
 31
0.0
  0
INSERT
  5
BDD
  8
0
  6
BYBLOCK
 62
     0
  2
_ORIGIN
 10
108.293358
 20
-381.795557
 30
0.0
 41
10.0
 42
10.0
 43
10.0
  0
INSERT
  5
BDE
  8
0
  6
BYBLOCK
 62
     0
  2
_ORIGIN
 10
0.27027
 20
-381.795557
 30
0.0
 41
10.0
 42
10.0
 43
10.0
 50
180.0
  0
TEXT
  5
BDF
  8
0
  6
BYBLOCK
 62
     0
 10
17.081811
 20
-371.795557
 30
0.0
 40
30.0
  1
108
 72
     1
 11
54.281811
 21
-371.795557
 31
0.0
  0
POINT
  5
BE0
  8
DEFPOINTS
  6
BYBLOCK
 62
     0
 10
108.293358
 20
152.364868
 30
0.0
  0
POINT
  5
BE1
  8
DEFPOINTS
  6
BYBLOCK
 62
     0
 10
0.27027
 20
289.864868
 30
0.0
  0
POINT
  5
BE2
  8
DEFPOINTS
  6
BYBLOCK
 62
     0
 10
0.27027
 20
-381.795557
 30
0.0
  0
ENDBLK
  5
BE3
  8
0
  0
BLOCK
  8
0
  2
*D77
 70
     1
 10
0.0
 20
0.0
 30
0.0
  3
*D77
  1

  0
LINE
  5
BE6
  8
0
  6
BYBLOCK
 62
     0
 10
-229.729736
 20
289.864868
 30
0.0
 11
-229.729736
 21
-494.295557
 31
0.0
  0
LINE
  5
BE7
  8
0
  6
BYBLOCK
 62
     0
 10
0.27027
 20
279.864868
 30
0.0
 11
0.27027
 21
-494.295557
 31
0.0
  0
LINE
  5
BE8
  8
0
  6
BYBLOCK
 62
     0
 10
-219.729736
 20
-481.795557
 30
0.0
 11
-9.72973
 21
-481.795557
 31
0.0
  0
INSERT
  5
BE9
  8
0
  6
BYBLOCK
 62
     0
  2
_ORIGIN
 10
-229.729736
 20
-481.795557
 30
0.0
 41
10.0
 42
10.0
 43
10.0
 50
180.0
  0
INSERT
  5
BEA
  8
0
  6
BYBLOCK
 62
     0
  2
_ORIGIN
 10
0.27027
 20
-481.795557
 30
0.0
 41
10.0
 42
10.0
 43
10.0
  0
TEXT
  5
BEB
  8
0
  6
BYBLOCK
 62
     0
 10
-157.179729
 20
-471.795557
 30
0.0
 40
30.0
  1
230
 72
     1
 11
-114.729729
 21
-471.795557
 31
0.0
  0
POINT
  5
BEC
  8
DEFPOINTS
  6
BYBLOCK
 62
     0
 10
-229.729736
 20
299.864868
 30
0.0
  0
POINT
  5
BED
  8
DEFPOINTS
  6
BYBLOCK
 62
     0
 10
0.27027
 20
289.864868
 30
0.0
  0
POINT
  5
BEE
  8
DEFPOINTS
  6
BYBLOCK
 62
     0
 10
0.27027
 20
-481.795557
 30
0.0
  0
ENDBLK
  5
BEF
  8
0
  0
BLOCK
  8
0
  2
*D78
 70
     1
 10
0.0
 20
0.0
 30
0.0
  3
*D78
  1

  0
LINE
  5
BF2
  8
0
  6
BYBLOCK
 62
     0
 10
160.270264
 20
329.864868
 30
0.0
 11
160.270264
 21
-494.295557
 31
0.0
  0
LINE
  5
BF3
  8
0
  6
BYBLOCK
 62
     0
 10
0.27027
 20
279.864868
 30
0.0
 11
0.27027
 21
-494.295557
 31
0.0
  0
LINE
  5
BF4
  8
0
  6
BYBLOCK
 62
     0
 10
150.270264
 20
-481.795557
 30
0.0
 11
10.27027
 21
-481.795557
 31
0.0
  0
INSERT
  5
BF5
  8
0
  6
BYBLOCK
 62
     0
  2
_ORIGIN
 10
160.270264
 20
-481.795557
 30
0.0
 41
10.0
 42
10.0
 43
10.0
  0
INSERT
  5
BF6
  8
0
  6
BYBLOCK
 62
     0
  2
_ORIGIN
 10
0.27027
 20
-481.795557
 30
0.0
 41
10.0
 42
10.0
 43
10.0
 50
180.0
  0
TEXT
  5
BF7
  8
0
  6
BYBLOCK
 62
     0
 10
43.070271
 20
-471.795557
 30
0.0
 40
30.0
  1
160
 72
     1
 11
80.270271
 21
-471.795557
 31
0.0
  0
POINT
  5
BF8
  8
DEFPOINTS
  6
BYBLOCK
 62
     0
 10
160.270264
 20
339.864868
 30
0.0
  0
POINT
  5
BF9
  8
DEFPOINTS
  6
BYBLOCK
 62
     0
 10
0.27027
 20
289.864868
 30
0.0
  0
POINT
  5
BFA
  8
DEFPOINTS
  6
BYBLOCK
 62
     0
 10
0.27027
 20
-481.795557
 30
0.0
  0
ENDBLK
  5
BFB
  8
0
  0
BLOCK
  8
0
  2
*D79
 70
     1
 10
0.0
 20
0.0
 30
0.0
  3
*D79
  1

  0
LINE
  5
BFE
  8
0
  6
BYBLOCK
 62
     0
 10
255.270264
 20
329.864868
 30
0.0
 11
255.270264
 21
-594.295618
 31
0.0
  0
LINE
  5
BFF
  8
0
  6
BYBLOCK
 62
     0
 10
0.27027
 20
279.864868
 30
0.0
 11
0.27027
 21
-594.295618
 31
0.0
  0
LINE
  5
C00
  8
0
  6
BYBLOCK
 62
     0
 10
245.270264
 20
-581.795618
 30
0.0
 11
10.27027
 21
-581.795618
 31
0.0
  0
INSERT
  5
C01
  8
0
  6
BYBLOCK
 62
     0
  2
_ORIGIN
 10
255.270264
 20
-581.795618
 30
0.0
 41
10.0
 42
10.0
 43
10.0
  0
INSERT
  5
C02
  8
0
  6
BYBLOCK
 62
     0
  2
_ORIGIN
 10
0.27027
 20
-581.795618
 30
0.0
 41
10.0
 42
10.0
 43
10.0
 50
180.0
  0
TEXT
  5
C03
  8
0
  6
BYBLOCK
 62
     0
 10
82.770271
 20
-571.795618
 30
0.0
 40
30.0
  1
255
 72
     1
 11
127.770271
 21
-571.795618
 31
0.0
  0
POINT
  5
C04
  8
DEFPOINTS
  6
BYBLOCK
 62
     0
 10
255.270264
 20
339.864868
 30
0.0
  0
POINT
  5
C05
  8
DEFPOINTS
  6
BYBLOCK
 62
     0
 10
0.27027
 20
289.864868
 30
0.0
  0
POINT
  5
C06
  8
DEFPOINTS
  6
BYBLOCK
 62
     0
 10
0.27027
 20
-581.795618
 30
0.0
  0
ENDBLK
  5
C07
  8
0
  0
BLOCK
  8
0
  2
*D80
 70
     1
 10
0.0
 20
0.0
 30
0.0
  3
*D80
  1

  0
LINE
  5
C0A
  8
0
  6
BYBLOCK
 62
     0
 10
-274.729736
 20
369.864868
 30
0.0
 11
-274.729736
 21
-594.295618
 31
0.0
  0
LINE
  5
C0B
  8
0
  6
BYBLOCK
 62
     0
 10
0.27027
 20
279.864868
 30
0.0
 11
0.27027
 21
-594.295618
 31
0.0
  0
LINE
  5
C0C
  8
0
  6
BYBLOCK
 62
     0
 10
-264.729736
 20
-581.795618
 30
0.0
 11
-9.72973
 21
-581.795618
 31
0.0
  0
INSERT
  5
C0D
  8
0
  6
BYBLOCK
 62
     0
  2
_ORIGIN
 10
-274.729736
 20
-581.795618
 30
0.0
 41
10.0
 42
10.0
 43
10.0
 50
180.0
  0
INSERT
  5
C0E
  8
0
  6
BYBLOCK
 62
     0
  2
_ORIGIN
 10
0.27027
 20
-581.795618
 30
0.0
 41
10.0
 42
10.0
 43
10.0
  0
TEXT
  5
C0F
  8
0
  6
BYBLOCK
 62
     0
 10
-182.229736
 20
-571.795618
 30
0.0
 40
30.0
  1
275
 72
     1
 11
-137.229736
 21
-571.795618
 31
0.0
  0
POINT
  5
C10
  8
DEFPOINTS
  6
BYBLOCK
 62
     0
 10
-274.729736
 20
379.864868
 30
0.0
  0
POINT
  5
C11
  8
DEFPOINTS
  6
BYBLOCK
 62
     0
 10
0.27027
 20
289.864868
 30
0.0
  0
POINT
  5
C12
  8
DEFPOINTS
  6
BYBLOCK
 62
     0
 10
0.27027
 20
-581.795618
 30
0.0
  0
ENDBLK
  5
C13
  8
0
  0
BLOCK
  8
0
  2
*D81
 70
     1
 10
0.0
 20
0.0
 30
0.0
  3
*D81
  1

  0
LINE
  5
C16
  8
0
  6
BYBLOCK
 62
     0
 10
320.270264
 20
-0.135135
 30
0.0
 11
873.727991
 21
-0.135135
 31
0.0
  0
LINE
  5
C17
  8
0
  6
BYBLOCK
 62
     0
 10
274.270264
 20
2009.864868
 30
0.0
 11
873.727991
 21
2009.864868
 31
0.0
  0
LINE
  5
C18
  8
0
  6
BYBLOCK
 62
     0
 10
861.227991
 20
9.864865
 30
0.0
 11
861.227991
 21
1999.864868
 31
0.0
  0
INSERT
  5
C19
  8
0
  6
BYBLOCK
 62
     0
  2
_ORIGIN
 10
861.227991
 20
-0.135135
 30
0.0
 41
10.0
 42
10.0
 43
10.0
 50
270.0
  0
INSERT
  5
C1A
  8
0
  6
BYBLOCK
 62
     0
  2
_ORIGIN
 10
861.227991
 20
2009.864868
 30
0.0
 41
10.0
 42
10.0
 43
10.0
 50
90.0
  0
TEXT
  5
C1B
  8
0
  6
BYBLOCK
 62
     0
 10
851.227991
 20
955.214868
 30
0.0
 40
30.0
  1
2010
 50
90.0
 72
     1
 11
851.227991
 21
1004.864868
 31
0.0
  0
POINT
  5
C1C
  8
DEFPOINTS
  6
BYBLOCK
 62
     0
 10
310.270264
 20
-0.135135
 30
0.0
  0
POINT
  5
C1D
  8
DEFPOINTS
  6
BYBLOCK
 62
     0
 10
264.270264
 20
2009.864868
 30
0.0
  0
POINT
  5
C1E
  8
DEFPOINTS
  6
BYBLOCK
 62
     0
 10
861.227991
 20
2009.864868
 30
0.0
  0
ENDBLK
  5
C1F
  8
0
  0
BLOCK
  8
0
  2
*D82
 70
     1
 10
0.0
 20
0.0
 30
0.0
  3
*D82
  1

  0
LINE
  5
C22
  8
0
  6
BYBLOCK
 62
     0
 10
315.270264
 20
2159.864746
 30
0.0
 11
315.270264
 21
1891.980566
 31
0.0
  0
LINE
  5
C23
  8
0
  6
BYBLOCK
 62
     0
 10
270.270264
 20
2111.864746
 30
0.0
 11
270.270264
 21
1891.980566
 31
0.0
  0
LINE
  5
C24
  8
0
  6
BYBLOCK
 62
     0
 10
305.270264
 20
1904.480566
 30
0.0
 11
280.270264
 21
1904.480566
 31
0.0
  0
INSERT
  5
C25
  8
0
  6
BYBLOCK
 62
     0
  2
_ORIGIN
 10
315.270264
 20
1904.480566
 30
0.0
 41
10.0
 42
10.0
 43
10.0
  0
INSERT
  5
C26
  8
0
  6
BYBLOCK
 62
     0
  2
_ORIGIN
 10
270.270264
 20
1904.480566
 30
0.0
 41
10.0
 42
10.0
 43
10.0
 50
180.0
  0
TEXT
  5
C27
  8
0
  6
BYBLOCK
 62
     0
 10
262.770264
 20
1914.480566
 30
0.0
 40
30.0
  1
45
 72
     1
 11
292.770264
 21
1914.480566
 31
0.0
  0
POINT
  5
C28
  8
DEFPOINTS
  6
BYBLOCK
 62
     0
 10
315.270264
 20
2169.864746
 30
0.0
  0
POINT
  5
C29
  8
DEFPOINTS
  6
BYBLOCK
 62
     0
 10
270.270264
 20
2121.864746
 30
0.0
  0
POINT
  5
C2A
  8
DEFPOINTS
  6
BYBLOCK
 62
     0
 10
270.270264
 20
1904.480566
 30
0.0
  0
ENDBLK
  5
C2B
  8
0
  0
ENDSEC
  0
SECTION
  2
ENTITIES
  0
LINE
  5
C2C
  8
OUTLINE
  6
CONTINUOUS
 10
315.0
 20
2170.0
 30
0.0
 11
315.0
 21
200.0
 31
0.0
  0
LINE
  5
C2D
  8
OUTLINE
  6
CONTINUOUS
 10
-36.5
 20
200.0
 30
0.0
 11
-36.5
 21
0.0
 31
0.0
  0
LINE
  5
C2E
  8
OUTLINE
  6
CONTINUOUS
 10
-284.5
 20
0.0
 30
0.0
 11
-211.5
 21
0.0
 31
0.0
  0
LINE
  5
C2F
  8
OUTLINE
  6
CONTINUOUS
 10
-211.5
 20
200.0
 30
0.0
 11
-211.5
 21
0.0
 31
0.0
  0
LINE
  5
C30
  8
OUTLINE
  6
CONTINUOUS
 10
-284.5
 20
200.0
 30
0.0
 11
-284.5
 21
0.0
 31
0.0
  0
LINE
  5
C31
  8
OUTLINE
  6
CONTINUOUS
 10
36.5
 20
0.0
 30
0.0
 11
-36.5
 21
0.0
 31
0.0
  0
LINE
  5
C32
  8
OUTLINE
  6
CONTINUOUS
 10
36.5
 20
200.0
 30
0.0
 11
36.5
 21
0.0
 31
0.0
  0
LINE
  5
C33
  8
OUTLINE
  6
CONTINUOUS
 10
211.5
 20
200.0
 30
0.0
 11
211.5
 21
0.0
 31
0.0
  0
LINE
  5
C34
  8
OUTLINE
  6
CONTINUOUS
 10
284.5
 20
200.0
 30
0.0
 11
284.5
 21
0.0
 31
0.0
  0
LINE
  5
C35
  8
OUTLINE
  6
CONTINUOUS
 10
-315.0
 20
2170.0
 30
0.0
 11
-315.0
 21
200.0
 31
0.0
  0
LINE
  5
C36
  8
OUTLINE
  6
CONTINUOUS
 10
315.0
 20
2170.0
 30
0.0
 11
-315.0
 21
2170.0
 31
0.0
  0
LINE
  5
C37
  8
OUTLINE
  6
CONTINUOUS
 10
315.0
 20
200.0
 30
0.0
 11
-315.0
 21
200.0
 31
0.0
  0
LINE
  5
C38
  8
OUTLINE
  6
CONTINUOUS
 10
284.5
 20
0.0
 30
0.0
 11
211.5
 21
0.0
 31
0.0
  0
LINE
  5
C39
  8
OUTLINE
  6
CONTINUOUS
 10
315.0
 20
400.0
 30
0.0
 11
-315.0
 21
400.0
 31
0.0
  0
LINE
  5
C3A
  8
DETAIL
  6
CONTINUOUS
 10
93.7
 20
192.0
 30
0.0
 11
177.7
 21
192.0
 31
0.0
  0
LINE
  5
C3B
  8
DETAIL
  6
CONTINUOUS
 10
146.0
 20
2128.0
 30
0.0
 11
264.0
 21
2128.0
 31
0.0
  0
LINE
  5
C3C
  8
DETAIL
  6
CONTINUOUS
 10
270.0
 20
2122.0
 30
0.0
 11
270.0
 21
2016.0
 31
0.0
  0
LINE
  5
C3D
  8
DETAIL
  6
CONTINUOUS
 10
140.0
 20
2122.0
 30
0.0
 11
140.0
 21
2016.0
 31
0.0
  0
ARC
  5
C3E
  8
DETAIL
  6
CONTINUOUS
 10
264.0
 20
2122.0
 30
0.0
 40
6.0
 50
0.0
 51
90.0
  0
ARC
  5
C3F
  8
DETAIL
  6
CONTINUOUS
 10
146.0
 20
2122.0
 30
0.0
 40
6.0
 50
90.0
 51
180.0
  0
LINE
  5
C40
  8
DETAIL
  6
CONTINUOUS
 10
146.0
 20
2122.0
 30
0.0
 11
264.0
 21
2122.0
 31
0.0
  0
LINE
  5
C41
  8
DETAIL
  6
CONTINUOUS
 10
146.0
 20
2010.0
 30
0.0
 11
264.0
 21
2010.0
 31
0.0
  0
ARC
  5
C42
  8
DETAIL
  6
CONTINUOUS
 10
264.0
 20
2016.0
 30
0.0
 40
6.0
 50
270.0
 51
0.0
  0
ARC
  5
C43
  8
DETAIL
  6
CONTINUOUS
 10
146.0
 20
2016.0
 30
0.0
 40
6.0
 50
180.0
 51
270.0
  0
LINE
  5
C44
  8
DETAIL
  6
CONTINUOUS
 10
264.0
 20
2122.0
 30
0.0
 11
264.0
 21
2014.0
 31
0.0
  0
LINE
  5
C45
  8
DETAIL
  6
CONTINUOUS
 10
146.0
 20
2122.0
 30
0.0
 11
146.0
 21
2014.0
 31
0.0
  0
LINE
  5
C46
  8
DETAIL
  6
CONTINUOUS
 10
148.0
 20
2025.0
 30
0.0
 11
262.0
 21
2025.0
 31
0.0
  0
LINE
  5
C47
  8
DETAIL
  6
CONTINUOUS
 10
148.0
 20
2012.0
 30
0.0
 11
262.0
 21
2012.0
 31
0.0
  0
ARC
  5
C48
  8
DETAIL
  6
CONTINUOUS
 10
262.0
 20
2014.0
 30
0.0
 40
2.0
 50
270.0
 51
0.0
  0
ARC
  5
C49
  8
DETAIL
  6
CONTINUOUS
 10
148.0
 20
2014.0
 30
0.0
 40
2.0
 50
180.0
 51
270.0
  0
ARC
  5
C4A
  8
DETAIL
  6
CONTINUOUS
 10
262.0
 20
2027.0
 30
0.0
 40
2.0
 50
270.0
 51
0.0
  0
ARC
  5
C4B
  8
DETAIL
  6
CONTINUOUS
 10
148.0
 20
2027.0
 30
0.0
 40
2.0
 50
180.0
 51
270.0
  0
CIRCLE
  5
C4C
  8
DETAIL
  6
CONTINUOUS
 10
-202.5
 20
673.5
 30
0.0
 40
8.0
  0
ARC
  5
C4D
  8
DETAIL
  6
CONTINUOUS
 10
-273.0
 20
776.0
 30
0.0
 40
2.0
 50
90.0
 51
180.0
  0
ARC
  5
C4E
  8
DETAIL
  6
CONTINUOUS
 10
-132.0
 20
776.0
 30
0.0
 40
2.0
 50
0.0
 51
90.0
  0
ARC
  5
C4F
  8
DETAIL
  6
CONTINUOUS
 10
-267.0
 20
671.0
 30
0.0
 40
8.0
 50
180.0
 51
270.0
  0
ARC
  5
C50
  8
DETAIL
  6
CONTINUOUS
 10
-138.0
 20
671.0
 30
0.0
 40
8.0
 50
270.0
 51
0.0
  0
LINE
  5
C51
  8
DETAIL
  6
CONTINUOUS
 10
-267.0
 20
663.0
 30
0.0
 11
-138.0
 21
663.0
 31
0.0
  0
LINE
  5
C52
  8
DETAIL
  6
CONTINUOUS
 10
-273.0
 20
778.0
 30
0.0
 11
-132.0
 21
778.0
 31
0.0
  0
LINE
  5
C53
  8
DETAIL
  6
CONTINUOUS
 10
-275.0
 20
776.0
 30
0.0
 11
-275.0
 21
671.0
 31
0.0
  0
LINE
  5
C54
  8
DETAIL
  6
CONTINUOUS
 10
-130.0
 20
776.0
 30
0.0
 11
-130.0
 21
671.0
 31
0.0
  0
LINE
  5
C55
  8
DETAIL
  6
CONTINUOUS
 10
121.2
 20
143.0
 30
0.0
 11
121.2
 21
188.5
 31
0.0
  0
LINE
  5
C56
  8
DETAIL
  6
CONTINUOUS
 10
112.353213
 20
163.5
 30
0.0
 11
121.2
 21
163.5
 31
0.0
  0
LINE
  5
C57
  8
DETAIL
  6
CONTINUOUS
 10
110.621162
 20
150.0
 30
0.0
 11
121.2
 21
150.0
 31
0.0
  0
LINE
  5
C58
  8
DETAIL
  6
CONTINUOUS
 10
157.2
 20
143.0
 30
0.0
 11
157.2
 21
188.5
 31
0.0
  0
LINE
  5
C59
  8
DETAIL
  6
CONTINUOUS
 10
110.621162
 20
139.0
 30
0.0
 11
153.2
 21
139.0
 31
0.0
  0
LINE
  5
C5A
  8
DETAIL
  6
CONTINUOUS
 10
107.7
 20
188.5
 30
0.0
 11
170.7
 21
188.5
 31
0.0
  0
LINE
  5
C5B
  8
DETAIL
  6
CONTINUOUS
 10
170.7
 20
188.5
 30
0.0
 11
170.7
 21
192.0
 31
0.0
  0
ARC
  5
C5C
  8
DETAIL
  6
CONTINUOUS
 10
153.2
 20
143.0
 30
0.0
 40
4.0
 50
270.0
 51
0.0
  0
LINE
  5
C5D
  8
DETAIL
  6
CONTINUOUS
 10
-200.6875
 20
155.0
 30
0.0
 11
-175.3125
 21
155.0
 31
0.0
  0
ARC
  5
C5E
  8
DETAIL
  6
CONTINUOUS
 10
-40.0
 20
2210.0
 30
0.0
 40
5.0
 50
90.0
 51
180.0
  0
ARC
  5
C5F
  8
DETAIL
  6
CONTINUOUS
 10
40.0
 20
2210.0
 30
0.0
 40
5.0
 50
0.0
 51
90.0
  0
LINE
  5
C60
  8
DETAIL
  6
CONTINUOUS
 10
40.0
 20
2215.0
 30
0.0
 11
-40.0
 21
2215.0
 31
0.0
  0
LINE
  5
C61
  8
DETAIL
  6
CONTINUOUS
 10
-45.0
 20
2170.0
 30
0.0
 11
-45.0
 21
2210.0
 31
0.0
  0
LINE
  5
C62
  8
DETAIL
  6
CONTINUOUS
 10
45.0
 20
2170.0
 30
0.0
 11
45.0
 21
2210.0
 31
0.0
  0
LINE
  5
C63
  8
DETAIL
  6
CONTINUOUS
 10
211.5
 20
0.0
 30
0.0
 11
186.0
 21
0.0
 31
0.0
  0
LINE
  5
C64
  8
DETAIL
  6
CONTINUOUS
 10
284.5
 20
0.0
 30
0.0
 11
310.0
 21
0.0
 31
0.0
  0
LINE
  5
C65
  8
DETAIL
  6
CONTINUOUS
 10
284.5
 20
3.2
 30
0.0
 11
310.0
 21
3.2
 31
0.0
  0
LINE
  5
C66
  8
DETAIL
  6
CONTINUOUS
 10
211.5
 20
3.2
 30
0.0
 11
186.0
 21
3.2
 31
0.0
  0
LINE
  5
C67
  8
DETAIL
  6
CONTINUOUS
 10
310.0
 20
0.0
 30
0.0
 11
310.0
 21
3.2
 31
0.0
  0
LINE
  5
C68
  8
DETAIL
  6
CONTINUOUS
 10
186.0
 20
0.0
 30
0.0
 11
186.0
 21
3.2
 31
0.0
  0
LINE
  5
C69
  8
DETAIL
  6
CONTINUOUS
 10
-284.5
 20
0.0
 30
0.0
 11
-310.0
 21
0.0
 31
0.0
  0
LINE
  5
C6A
  8
DETAIL
  6
CONTINUOUS
 10
-284.5
 20
3.2
 30
0.0
 11
-310.0
 21
3.2
 31
0.0
  0
LINE
  5
C6B
  8
DETAIL
  6
CONTINUOUS
 10
-310.0
 20
0.0
 30
0.0
 11
-310.0
 21
3.2
 31
0.0
  0
LINE
  5
C6C
  8
DETAIL
  6
CONTINUOUS
 10
-211.5
 20
0.0
 30
0.0
 11
-186.0
 21
0.0
 31
0.0
  0
LINE
  5
C6D
  8
DETAIL
  6
CONTINUOUS
 10
-211.5
 20
3.2
 30
0.0
 11
-186.0
 21
3.2
 31
0.0
  0
LINE
  5
C6E
  8
DETAIL
  6
CONTINUOUS
 10
-186.0
 20
0.0
 30
0.0
 11
-186.0
 21
3.2
 31
0.0
  0
LINE
  5
C6F
  8
DETAIL
  6
CONTINUOUS
 10
284.5
 20
0.0
 30
0.0
 11
211.5
 21
0.0
 31
0.0
  0
LINE
  5
C70
  8
DETAIL
  6
CONTINUOUS
 10
315.0
 20
200.0
 30
0.0
 11
-315.0
 21
200.0
 31
0.0
  0
LINE
  5
C71
  8
DETAIL
  6
CONTINUOUS
 10
315.0
 20
2170.0
 30
0.0
 11
-315.0
 21
2170.0
 31
0.0
  0
LINE
  5
C72
  8
DETAIL
  6
CONTINUOUS
 10
315.0
 20
200.0
 30
0.0
 11
315.0
 21
2170.0
 31
0.0
  0
LINE
  5
C73
  8
DETAIL
  6
CONTINUOUS
 10
-315.0
 20
2166.0
 30
0.0
 11
-315.0
 21
200.0
 31
0.0
  0
LINE
  5
C74
  8
DETAIL
  6
CONTINUOUS
 10
284.5
 20
200.0
 30
0.0
 11
284.5
 21
0.0
 31
0.0
  0
LINE
  5
C75
  8
DETAIL
  6
CONTINUOUS
 10
211.5
 20
200.0
 30
0.0
 11
211.5
 21
0.0
 31
0.0
  0
LINE
  5
C76
  8
DETAIL
  6
CONTINUOUS
 10
36.5
 20
200.0
 30
0.0
 11
36.5
 21
0.0
 31
0.0
  0
LINE
  5
C77
  8
DETAIL
  6
CONTINUOUS
 10
36.5
 20
0.0
 30
0.0
 11
-36.5
 21
0.0
 31
0.0
  0
LINE
  5
C78
  8
DETAIL
  6
CONTINUOUS
 10
-284.5
 20
200.0
 30
0.0
 11
-284.5
 21
0.0
 31
0.0
  0
LINE
  5
C79
  8
DETAIL
  6
CONTINUOUS
 10
-211.5
 20
183.5
 30
0.0
 11
-211.5
 21
0.0
 31
0.0
  0
LINE
  5
C7A
  8
DETAIL
  6
CONTINUOUS
 10
-284.5
 20
0.0
 30
0.0
 11
-211.5
 21
0.0
 31
0.0
  0
LINE
  5
C7B
  8
DETAIL
  6
CONTINUOUS
 10
-36.5
 20
200.0
 30
0.0
 11
-36.5
 21
0.0
 31
0.0
  0
LINE
  5
C7C
  8
DETAIL
  6
CONTINUOUS
 10
-124.0
 20
779.0
 30
0.0
 11
-124.0
 21
665.0
 31
0.0
  0
ARC
  5
C7D
  8
DETAIL
  6
CONTINUOUS
 10
-132.0
 20
779.0
 30
0.0
 40
8.0
 50
0.0
 51
90.0
  0
ARC
  5
C7E
  8
DETAIL
  6
CONTINUOUS
 10
-273.0
 20
779.0
 30
0.0
 40
8.0
 50
90.0
 51
180.0
  0
LINE
  5
C7F
  8
DETAIL
  6
CONTINUOUS
 10
-132.0
 20
657.0
 30
0.0
 11
-273.0
 21
657.0
 31
0.0
  0
ARC
  5
C80
  8
DETAIL
  6
CONTINUOUS
 10
-132.0
 20
665.0
 30
0.0
 40
8.0
 50
270.0
 51
0.0
  0
LINE
  5
C81
  8
DETAIL
  6
CONTINUOUS
 10
-281.0
 20
779.0
 30
0.0
 11
-281.0
 21
665.0
 31
0.0
  0
ARC
  5
C82
  8
DETAIL
  6
CONTINUOUS
 10
-273.0
 20
665.0
 30
0.0
 40
8.0
 50
180.0
 51
270.0
  0
LINE
  5
C83
  8
DETAIL
  6
CONTINUOUS
 10
-273.0
 20
787.0
 30
0.0
 11
-132.0
 21
787.0
 31
0.0
  0
LINE
  5
C84
  8
DETAIL
  6
CONTINUOUS
 10
-186.0
 20
0.0
 30
0.0
 11
-186.0
 21
3.2
 31
0.0
  0
LINE
  5
C85
  8
DETAIL
  6
CONTINUOUS
 10
-211.5
 20
3.2
 30
0.0
 11
-186.0
 21
3.2
 31
0.0
  0
LINE
  5
C86
  8
DETAIL
  6
CONTINUOUS
 10
-211.5
 20
0.0
 30
0.0
 11
-186.0
 21
0.0
 31
0.0
  0
LINE
  5
C87
  8
DETAIL
  6
CONTINUOUS
 10
-310.0
 20
0.0
 30
0.0
 11
-310.0
 21
3.2
 31
0.0
  0
LINE
  5
C88
  8
DETAIL
  6
CONTINUOUS
 10
-284.5
 20
3.2
 30
0.0
 11
-310.0
 21
3.2
 31
0.0
  0
LINE
  5
C89
  8
DETAIL
  6
CONTINUOUS
 10
-284.5
 20
0.0
 30
0.0
 11
-310.0
 21
0.0
 31
0.0
  0
LINE
  5
C8A
  8
DETAIL
  6
CONTINUOUS
 10
186.0
 20
0.0
 30
0.0
 11
186.0
 21
3.2
 31
0.0
  0
LINE
  5
C8B
  8
DETAIL
  6
CONTINUOUS
 10
310.0
 20
0.0
 30
0.0
 11
310.0
 21
3.2
 31
0.0
  0
LINE
  5
C8C
  8
DETAIL
  6
CONTINUOUS
 10
211.5
 20
3.2
 30
0.0
 11
186.0
 21
3.2
 31
0.0
  0
LINE
  5
C8D
  8
DETAIL
  6
CONTINUOUS
 10
284.5
 20
3.2
 30
0.0
 11
310.0
 21
3.2
 31
0.0
  0
LINE
  5
C8E
  8
DETAIL
  6
CONTINUOUS
 10
284.5
 20
0.0
 30
0.0
 11
310.0
 21
0.0
 31
0.0
  0
LINE
  5
C8F
  8
DETAIL
  6
CONTINUOUS
 10
211.5
 20
0.0
 30
0.0
 11
186.0
 21
0.0
 31
0.0
  0
LINE
  5
C90
  8
DETAIL
  6
CONTINUOUS
 10
315.0
 20
2144.0
 30
0.0
 11
-315.0
 21
2144.0
 31
0.0
  0
LINE
  5
C91
  8
DETAIL
  6
CONTINUOUS
 10
45.0
 20
2170.0
 30
0.0
 11
45.0
 21
2210.0
 31
0.0
  0
LINE
  5
C92
  8
DETAIL
  6
CONTINUOUS
 10
-45.0
 20
2170.0
 30
0.0
 11
-45.0
 21
2210.0
 31
0.0
  0
LINE
  5
C93
  8
DETAIL
  6
CONTINUOUS
 10
40.0
 20
2215.0
 30
0.0
 11
-40.0
 21
2215.0
 31
0.0
  0
ARC
  5
C94
  8
DETAIL
  6
CONTINUOUS
 10
40.0
 20
2210.0
 30
0.0
 40
5.0
 50
0.0
 51
90.0
  0
ARC
  5
C95
  8
DETAIL
  6
CONTINUOUS
 10
-40.0
 20
2210.0
 30
0.0
 40
5.0
 50
90.0
 51
180.0
  0
LINE
  5
C96
  8
DETAIL
  6
CONTINUOUS
 10
-164.0
 20
184.0
 30
0.0
 11
-212.0
 21
184.0
 31
0.0
  0
LINE
  5
C97
  8
DETAIL
  6
CONTINUOUS
 10
-168.0
 20
180.0
 30
0.0
 11
-164.0
 21
184.0
 31
0.0
  0
LINE
  5
C98
  8
DETAIL
  6
CONTINUOUS
 10
-164.0
 20
200.0
 30
0.0
 11
-164.0
 21
184.0
 31
0.0
  0
LINE
  5
C99
  8
DETAIL
  6
CONTINUOUS
 10
-208.0
 20
180.0
 30
0.0
 11
-168.0
 21
180.0
 31
0.0
  0
LINE
  5
C9A
  8
DETAIL
  6
CONTINUOUS
 10
-208.0
 20
180.0
 30
0.0
 11
-212.0
 21
184.0
 31
0.0
  0
LINE
  5
C9B
  8
DETAIL
  6
CONTINUOUS
 10
-212.0
 20
200.0
 30
0.0
 11
-212.0
 21
184.0
 31
0.0
  0
LINE
  5
C9C
  8
DETAIL
  6
CONTINUOUS
 10
-205.783054
 20
180.0
 30
0.0
 11
-205.783054
 21
167.0
 31
0.0
  0
LINE
  5
C9D
  8
DETAIL
  6
CONTINUOUS
 10
-170.216945
 20
180.0
 30
0.0
 11
-170.216945
 21
167.0
 31
0.0
  0
LINE
  5
C9E
  8
DETAIL
  6
CONTINUOUS
 10
-205.783054
 20
167.0
 30
0.0
 11
-170.216945
 21
167.0
 31
0.0
  0
LINE
  5
C9F
  8
DETAIL
  6
CONTINUOUS
 10
-175.125
 20
155.0
 30
0.0
 11
-174.375
 21
167.0
 31
0.0
  0
LINE
  5
CA0
  8
DETAIL
  6
CONTINUOUS
 10
-200.875
 20
155.0
 30
0.0
 11
-201.625
 21
167.0
 31
0.0
  0
LINE
  5
CA1
  8
DETAIL
  6
CONTINUOUS
 10
315.0
 20
400.0
 30
0.0
 11
-315.0
 21
400.0
 31
0.0
  0
LINE
  5
CA2
  8
DETAIL
  6
CONTINUOUS
 10
244.15
 20
360.0
 30
0.0
 11
244.15
 21
400.0
 31
0.0
  0
LINE
  5
CA3
  8
DETAIL
  6
CONTINUOUS
 10
265.85
 20
360.0
 30
0.0
 11
244.15
 21
360.0
 31
0.0
  0
LINE
  5
CA4
  8
DETAIL
  6
CONTINUOUS
 10
265.85
 20
360.0
 30
0.0
 11
265.85
 21
400.0
 31
0.0
  0
LINE
  5
CA5
  8
DETAIL
  6
CONTINUOUS
 10
265.85
 20
368.0
 30
0.0
 11
265.85
 21
400.0
 31
0.0
  0
LINE
  5
CA6
  8
DETAIL
  6
CONTINUOUS
 10
149.15
 20
360.0
 30
0.0
 11
149.15
 21
400.0
 31
0.0
  0
LINE
  5
CA7
  8
DETAIL
  6
CONTINUOUS
 10
170.85
 20
360.0
 30
0.0
 11
149.15
 21
360.0
 31
0.0
  0
LINE
  5
CA8
  8
DETAIL
  6
CONTINUOUS
 10
170.85
 20
360.0
 30
0.0
 11
170.85
 21
400.0
 31
0.0
  0
LINE
  5
CA9
  8
DETAIL
  6
CONTINUOUS
 10
56.40000000000001
 20
320.0
 30
0.0
 11
56.40000000000001
 21
400.0
 31
0.0
  0
LINE
  5
CAA
  8
DETAIL
  6
CONTINUOUS
 10
83.60000000000001
 20
320.0
 30
0.0
 11
83.60000000000001
 21
400.0
 31
0.0
  0
LINE
  5
CAB
  8
DETAIL
  6
CONTINUOUS
 10
83.60000000000001
 20
320.0
 30
0.0
 11
56.40000000000001
 21
320.0
 31
0.0
  0
LINE
  5
CAC
  8
DETAIL
  6
CONTINUOUS
 10
-243.6
 20
320.0
 30
0.0
 11
-243.6
 21
400.0
 31
0.0
  0
LINE
  5
CAD
  8
DETAIL
  6
CONTINUOUS
 10
-216.4
 20
320.0
 30
0.0
 11
-216.4
 21
400.0
 31
0.0
  0
LINE
  5
CAE
  8
DETAIL
  6
CONTINUOUS
 10
-216.4
 20
320.0
 30
0.0
 11
-243.6
 21
320.0
 31
0.0
  0
LINE
  5
CAF
  8
DETAIL
  6
CONTINUOUS
 10
-122.0
 20
432.0
 30
0.0
 11
-277.0
 21
432.0
 31
0.0
  0
LINE
  5
CB0
  8
DETAIL
  6
CONTINUOUS
 10
-122.0
 20
652.0
 30
0.0
 11
-277.0
 21
652.0
 31
0.0
  0
LINE
  5
CB1
  8
DETAIL
  6
CONTINUOUS
 10
-114.0
 20
644.0
 30
0.0
 11
-114.0
 21
440.0
 31
0.0
  0
LINE
  5
CB2
  8
DETAIL
  6
CONTINUOUS
 10
-285.0
 20
644.0
 30
0.0
 11
-285.0
 21
440.0
 31
0.0
  0
ARC
  5
CB3
  8
DETAIL
  6
CONTINUOUS
 10
-122.0
 20
644.0
 30
0.0
 40
8.0
 50
0.0
 51
90.0
  0
ARC
  5
CB4
  8
DETAIL
  6
CONTINUOUS
 10
-277.0
 20
644.0
 30
0.0
 40
8.0
 50
90.0
 51
180.0
  0
ARC
  5
CB5
  8
DETAIL
  6
CONTINUOUS
 10
-277.0
 20
440.0
 30
0.0
 40
8.0
 50
180.0
 51
270.0
  0
ARC
  5
CB6
  8
DETAIL
  6
CONTINUOUS
 10
-122.0
 20
440.0
 30
0.0
 40
8.0
 50
270.0
 51
0.0
  0
LINE
  5
CB7
  8
DETAIL
  6
CONTINUOUS
 10
-216.5
 20
594.5
 30
0.0
 11
-210.857816
 21
594.5
 31
0.0
  0
LINE
  5
CB8
  8
DETAIL
  6
CONTINUOUS
 10
-216.5
 20
609.5
 30
0.0
 11
-182.5
 21
609.5
 31
0.0
  0
LINE
  5
CB9
  8
DETAIL
  6
CONTINUOUS
 10
-179.5
 20
606.5
 30
0.0
 11
-179.5
 21
597.5
 31
0.0
  0
LINE
  5
CBA
  8
DETAIL
  6
CONTINUOUS
 10
-219.5
 20
606.5
 30
0.0
 11
-219.5
 21
597.5
 31
0.0
  0
ARC
  5
CBB
  8
DETAIL
  6
CONTINUOUS
 10
-199.5
 20
577.5
 30
0.0
 40
20.0
 50
60.40815399999996
 51
119.591846
  0
LINE
  5
CBC
  8
DETAIL
  6
CONTINUOUS
 10
-182.5
 20
594.5
 30
0.0
 11
-188.142183
 21
594.5
 31
0.0
  0
ARC
  5
CBD
  8
DETAIL
  6
CONTINUOUS
 10
-182.5
 20
606.5
 30
0.0
 40
3.0
 50
0.0
 51
90.0
  0
ARC
  5
CBE
  8
DETAIL
  6
CONTINUOUS
 10
-188.142183
 20
597.5
 30
0.0
 40
3.0
 50
240.4081540000003
 51
270.0
  0
ARC
  5
CBF
  8
DETAIL
  6
CONTINUOUS
 10
-182.5
 20
597.5
 30
0.0
 40
3.0
 50
270.0
 51
0.0
  0
ARC
  5
CC0
  8
DETAIL
  6
CONTINUOUS
 10
-210.857816
 20
597.5
 30
0.0
 40
3.0
 50
270.0
 51
299.5918459999997
  0
ARC
  5
CC1
  8
DETAIL
  6
CONTINUOUS
 10
-216.5
 20
606.5
 30
0.0
 40
3.0
 50
90.0
 51
180.0
  0
ARC
  5
CC2
  8
DETAIL
  6
CONTINUOUS
 10
-216.5
 20
597.5
 30
0.0
 40
3.0
 50
180.0
 51
270.0
  0
LINE
  5
CC3
  8
DETAIL
  6
CONTINUOUS
 10
107.7
 20
188.5
 30
0.0
 11
107.7
 21
192.0
 31
0.0
  0
LINE
  5
CC4
  8
DETAIL
  6
CONTINUOUS
 10
112.353213
 20
181.5
 30
0.0
 11
121.2
 21
181.5
 31
0.0
  0
ARC
  5
CC5
  8
DETAIL
  6
CONTINUOUS
 10
125.2
 20
143.0
 30
0.0
 40
4.0
 50
180.0
 51
270.0
  0
LINE
  5
CC6
  8
DETAIL
  6
CONTINUOUS
 10
177.7
 20
192.0
 30
0.0
 11
185.7
 21
200.0
 31
0.0
  0
LINE
  5
CC7
  8
DETAIL
  6
CONTINUOUS
 10
93.7
 20
192.0
 30
0.0
 11
85.7
 21
200.0
 31
0.0
  0
POLYLINE
  5
CC8
  8
DETAIL
  6
CONTINUOUS
 66
     1
 10
0.0
 20
0.0
 30
0.0
  0
VERTEX
  5
F7E
  8
DETAIL
  6
CONTINUOUS
 10
110.621162
 20
150.0
 30
0.0
  0
VERTEX
  5
F7F
  8
DETAIL
  6
CONTINUOUS
 10
110.084664
 20
149.894319
 30
0.0
  0
VERTEX
  5
F80
  8
DETAIL
  6
CONTINUOUS
 10
109.568783
 20
149.581337
 30
0.0
  0
VERTEX
  5
F81
  8
DETAIL
  6
CONTINUOUS
 10
109.093344
 20
149.073083
 30
0.0
  0
VERTEX
  5
F82
  8
DETAIL
  6
CONTINUOUS
 10
108.676618
 20
148.389087
 30
0.0
  0
VERTEX
  5
F83
  8
DETAIL
  6
CONTINUOUS
 10
108.334621
 20
147.555636
 30
0.0
  0
VERTEX
  5
F84
  8
DETAIL
  6
CONTINUOUS
 10
108.080493
 20
146.604759
 30
0.0
  0
VERTEX
  5
F85
  8
DETAIL
  6
CONTINUOUS
 10
107.924002
 20
145.572997
 30
0.0
  0
VERTEX
  5
F86
  8
DETAIL
  6
CONTINUOUS
 10
107.871162
 20
144.5
 30
0.0
  0
VERTEX
  5
F87
  8
DETAIL
  6
CONTINUOUS
 10
107.924002
 20
143.427003
 30
0.0
  0
VERTEX
  5
F88
  8
DETAIL
  6
CONTINUOUS
 10
108.080493
 20
142.395241
 30
0.0
  0
VERTEX
  5
F89
  8
DETAIL
  6
CONTINUOUS
 10
108.334621
 20
141.444364
 30
0.0
  0
VERTEX
  5
F8A
  8
DETAIL
  6
CONTINUOUS
 10
108.676618
 20
140.610913
 30
0.0
  0
VERTEX
  5
F8B
  8
DETAIL
  6
CONTINUOUS
 10
109.093344
 20
139.926917
 30
0.0
  0
VERTEX
  5
F8C
  8
DETAIL
  6
CONTINUOUS
 10
109.568783
 20
139.418662
 30
0.0
  0
VERTEX
  5
F8D
  8
DETAIL
  6
CONTINUOUS
 10
110.084664
 20
139.105681
 30
0.0
  0
VERTEX
  5
F8E
  8
DETAIL
  6
CONTINUOUS
 10
110.621162
 20
139.0
 30
0.0
  0
SEQEND
  5
FA3
  8
DETAIL
  6
CONTINUOUS
  0
POLYLINE
  5
CDB
  8
DETAIL
  6
CONTINUOUS
 66
     1
 10
0.0
 20
0.0
 30
0.0
  0
VERTEX
  5
F8F
  8
DETAIL
  6
CONTINUOUS
 10
111.833597
 20
163.560201
 30
0.0
  0
VERTEX
  5
F90
  8
DETAIL
  6
CONTINUOUS
 10
112.353213
 20
163.5
 30
0.0
  0
SEQEND
  5
FA4
  8
DETAIL
  6
CONTINUOUS
  0
POLYLINE
  5
CDF
  8
DETAIL
  6
CONTINUOUS
 66
     1
 10
0.0
 20
0.0
 30
0.0
  0
VERTEX
  5
F91
  8
DETAIL
  6
CONTINUOUS
 10
107.561206
 20
180.446488
 30
0.0
  0
VERTEX
  5
F92
  8
DETAIL
  6
CONTINUOUS
 10
106.803852
 20
180.119309
 30
0.0
  0
VERTEX
  5
F93
  8
DETAIL
  6
CONTINUOUS
 10
106.092246
 20
179.506242
 30
0.0
  0
VERTEX
  5
F94
  8
DETAIL
  6
CONTINUOUS
 10
105.453088
 20
178.63029
 30
0.0
  0
VERTEX
  5
F95
  8
DETAIL
  6
CONTINUOUS
 10
104.910361
 20
177.524319
 30
0.0
  0
VERTEX
  5
F96
  8
DETAIL
  6
CONTINUOUS
 10
104.484428
 20
176.229827
 30
0.0
  0
VERTEX
  5
F97
  8
DETAIL
  6
CONTINUOUS
 10
104.191272
 20
174.795387
 30
0.0
  0
VERTEX
  5
F98
  8
DETAIL
  6
CONTINUOUS
 10
104.041891
 20
173.274819
 30
0.0
  0
VERTEX
  5
F99
  8
DETAIL
  6
CONTINUOUS
 10
104.041891
 20
171.72518
 30
0.0
  0
VERTEX
  5
F9A
  8
DETAIL
  6
CONTINUOUS
 10
104.191272
 20
170.204612
 30
0.0
  0
VERTEX
  5
F9B
  8
DETAIL
  6
CONTINUOUS
 10
104.484428
 20
168.770172
 30
0.0
  0
VERTEX
  5
F9C
  8
DETAIL
  6
CONTINUOUS
 10
104.910361
 20
167.47568
 30
0.0
  0
VERTEX
  5
F9D
  8
DETAIL
  6
CONTINUOUS
 10
105.453089
 20
166.36971
 30
0.0
  0
VERTEX
  5
F9E
  8
DETAIL
  6
CONTINUOUS
 10
106.092246
 20
165.493757
 30
0.0
  0
VERTEX
  5
F9F
  8
DETAIL
  6
CONTINUOUS
 10
106.803852
 20
164.88069
 30
0.0
  0
VERTEX
  5
FA0
  8
DETAIL
  6
CONTINUOUS
 10
107.561206
 20
164.553512
 30
0.0
  0
SEQEND
  5
FA5
  8
DETAIL
  6
CONTINUOUS
  0
LINE
  5
CF1
  8
DETAIL
  6
CONTINUOUS
 10
107.561206
 20
180.446488
 30
0.0
 11
111.833598
 21
181.439799
 31
0.0
  0
LINE
  5
CF2
  8
DETAIL
  6
CONTINUOUS
 10
111.833598
 20
163.560201
 30
0.0
 11
107.561206
 21
164.553512
 31
0.0
  0
POLYLINE
  5
CF3
  8
DETAIL
  6
CONTINUOUS
 66
     1
 10
0.0
 20
0.0
 30
0.0
  0
VERTEX
  5
FA1
  8
DETAIL
  6
CONTINUOUS
 10
112.353213
 20
181.5
 30
0.0
  0
VERTEX
  5
FA2
  8
DETAIL
  6
CONTINUOUS
 10
111.833598
 20
181.439799
 30
0.0
  0
SEQEND
  5
FA6
  8
DETAIL
  6
CONTINUOUS
  0
LINE
  5
CF7
  8
BASIS
  6
DASHDOT
 10
0.0
 20
2265.0
 30
0.0
 11
0.0
 21
0.0
 31
0.0
  0
LINE
  5
CF8
  8
SIZE
  6
CONTINUOUS
 62
    30
 10
314.999994
 20
2159.999881
 30
0.0
 11
314.999994
 21
1892.115701
 31
0.0
  0
LINE
  5
CF9
  8
SIZE
  6
CONTINUOUS
 62
    30
 10
269.999994
 20
2111.999881
 30
0.0
 11
269.999994
 21
1892.115701
 31
0.0
  0
LINE
  5
CFA
  8
SIZE
  6
CONTINUOUS
 62
    30
 10
304.999994
 20
1904.615701
 30
0.0
 11
279.999994
 21
1904.615701
 31
0.0
  0
CIRCLE
  5
CFB
  8
SIZE
  6
CONTINUOUS
 62
    30
 10
314.999994
 20
1904.615701
 30
0.0
 40
5.0
  0
LINE
  5
CFC
  8
SIZE
  6
CONTINUOUS
 62
    30
 10
314.999994
 20
1904.615701
 30
0.0
 11
304.999994
 21
1904.615701
 31
0.0
  0
CIRCLE
  5
CFD
  8
SIZE
  6
CONTINUOUS
 62
    30
 10
269.999994
 20
1904.615701
 30
0.0
 40
5.0
  0
LINE
  5
CFE
  8
SIZE
  6
CONTINUOUS
 62
    30
 10
269.999994
 20
1904.615701
 30
0.0
 11
279.999994
 21
1904.615701
 31
0.0
  0
TEXT
  5
CFF
  8
SIZE
  6
CONTINUOUS
 62
    30
 10
263.9285654285715
 20
1914.615701
 30
0.0
 40
30.0
  1
45
 72
     1
 11
292.499994
 21
1914.615701
 31
0.0
  0
POINT
  5
D00
  8
DEFPOINTS
  6
CONTINUOUS
 62
    30
 10
314.999994
 20
2169.999881
 30
0.0
  0
POINT
  5
D01
  8
DEFPOINTS
  6
CONTINUOUS
 62
    30
 10
269.999994
 20
2121.999881
 30
0.0
  0
POINT
  5
D02
  8
DEFPOINTS
  6
CONTINUOUS
 62
    30
 10
269.999994
 20
1904.615701
 30
0.0
  0
LINE
  5
D03
  8
SIZE
  6
CONTINUOUS
 62
    30
 10
319.999994
 20
0.0
 30
0.0
 11
873.457721
 21
0.0
 31
0.0
  0
LINE
  5
D04
  8
SIZE
  6
CONTINUOUS
 62
    30
 10
273.999994
 20
2010.000003
 30
0.0
 11
873.457721
 21
2010.000003
 31
0.0
  0
LINE
  5
D05
  8
SIZE
  6
CONTINUOUS
 62
    30
 10
860.957721
 20
10.0
 30
0.0
 11
860.957721
 21
2000.000003
 31
0.0
  0
CIRCLE
  5
D06
  8
SIZE
  6
CONTINUOUS
 62
    30
 10
860.957721
 20
0.0
 30
0.0
 40
5.0
  0
LINE
  5
D07
  8
SIZE
  6
CONTINUOUS
 62
    30
 10
860.957721
 20
0.0
 30
0.0
 11
860.957721
 21
10.0
 31
0.0
  0
CIRCLE
  5
D08
  8
SIZE
  6
CONTINUOUS
 62
    30
 10
860.957721
 20
2010.000003
 30
0.0
 40
5.0
  0
LINE
  5
D09
  8
SIZE
  6
CONTINUOUS
 62
    30
 10
860.957721
 20
2010.000003
 30
0.0
 11
860.957721
 21
2000.000003
 31
0.0
  0
TEXT
  5
D0A
  8
SIZE
  6
CONTINUOUS
 62
    30
 10
850.957721
 20
947.8571458571429
 30
0.0
 40
30.0
  1
2010
 50
90.0
 72
     1
 11
850.957721
 21
1005.000003
 31
0.0
  0
POINT
  5
D0B
  8
DEFPOINTS
  6
CONTINUOUS
 62
    30
 10
309.999994
 20
0.0
 30
0.0
  0
POINT
  5
D0C
  8
DEFPOINTS
  6
CONTINUOUS
 62
    30
 10
263.999994
 20
2010.000003
 30
0.0
  0
POINT
  5
D0D
  8
DEFPOINTS
  6
CONTINUOUS
 62
    30
 10
860.957721
 20
2010.000003
 30
0.0
  0
LINE
  5
D0E
  8
SIZE
  6
CONTINUOUS
 62
    30
 10
-275.000006
 20
370.000003
 30
0.0
 11
-275.000006
 21
-594.160483
 31
0.0
  0
LINE
  5
D0F
  8
SIZE
  6
CONTINUOUS
 62
    30
 10
0.0
 20
280.000003
 30
0.0
 11
0.0
 21
-594.160483
 31
0.0
  0
LINE
  5
D10
  8
SIZE
  6
CONTINUOUS
 62
    30
 10
-265.000006
 20
-581.660483
 30
0.0
 11
-10.0
 21
-581.660483
 31
0.0
  0
CIRCLE
  5
D11
  8
SIZE
  6
CONTINUOUS
 62
    30
 10
-275.000006
 20
-581.660483
 30
0.0
 40
5.0
  0
LINE
  5
D12
  8
SIZE
  6
CONTINUOUS
 62
    30
 10
-275.000006
 20
-581.660483
 30
0.0
 11
-265.000006
 21
-581.660483
 31
0.0
  0
CIRCLE
  5
D13
  8
SIZE
  6
CONTINUOUS
 62
    30
 10
0.0
 20
-581.660483
 30
0.0
 40
5.0
  0
LINE
  5
D14
  8
SIZE
  6
CONTINUOUS
 62
    30
 10
0.0
 20
-581.660483
 30
0.0
 11
-10.0
 21
-581.660483
 31
0.0
  0
TEXT
  5
D15
  8
SIZE
  6
CONTINUOUS
 62
    30
 10
-180.3571488571429
 20
-571.660483
 30
0.0
 40
30.0
  1
275
 72
     1
 11
-137.500006
 21
-571.660483
 31
0.0
  0
POINT
  5
D16
  8
DEFPOINTS
  6
CONTINUOUS
 62
    30
 10
-275.000006
 20
380.000003
 30
0.0
  0
POINT
  5
D17
  8
DEFPOINTS
  6
CONTINUOUS
 62
    30
 10
0.0
 20
290.000003
 30
0.0
  0
POINT
  5
D18
  8
DEFPOINTS
  6
CONTINUOUS
 62
    30
 10
0.0
 20
-581.660483
 30
0.0
  0
LINE
  5
D19
  8
SIZE
  6
CONTINUOUS
 62
    30
 10
254.999994
 20
330.000003
 30
0.0
 11
254.999994
 21
-594.160483
 31
0.0
  0
LINE
  5
D1A
  8
SIZE
  6
CONTINUOUS
 62
    30
 10
0.0
 20
280.000003
 30
0.0
 11
0.0
 21
-594.160483
 31
0.0
  0
LINE
  5
D1B
  8
SIZE
  6
CONTINUOUS
 62
    30
 10
244.999994
 20
-581.660483
 30
0.0
 11
10.0
 21
-581.660483
 31
0.0
  0
CIRCLE
  5
D1C
  8
SIZE
  6
CONTINUOUS
 62
    30
 10
254.999994
 20
-581.660483
 30
0.0
 40
5.0
  0
LINE
  5
D1D
  8
SIZE
  6
CONTINUOUS
 62
    30
 10
254.999994
 20
-581.660483
 30
0.0
 11
244.999994
 21
-581.660483
 31
0.0
  0
CIRCLE
  5
D1E
  8
SIZE
  6
CONTINUOUS
 62
    30
 10
0.0
 20
-581.660483
 30
0.0
 40
5.0
  0
LINE
  5
D1F
  8
SIZE
  6
CONTINUOUS
 62
    30
 10
0.0
 20
-581.660483
 30
0.0
 11
10.0
 21
-581.660483
 31
0.0
  0
TEXT
  5
D20
  8
SIZE
  6
CONTINUOUS
 62
    30
 10
84.64285814285714
 20
-571.660483
 30
0.0
 40
30.0
  1
255
 72
     1
 11
127.500001
 21
-571.660483
 31
0.0
  0
POINT
  5
D21
  8
DEFPOINTS
  6
CONTINUOUS
 62
    30
 10
254.999994
 20
340.000003
 30
0.0
  0
POINT
  5
D22
  8
DEFPOINTS
  6
CONTINUOUS
 62
    30
 10
0.0
 20
290.000003
 30
0.0
  0
POINT
  5
D23
  8
DEFPOINTS
  6
CONTINUOUS
 62
    30
 10
0.0
 20
-581.660483
 30
0.0
  0
LINE
  5
D24
  8
SIZE
  6
CONTINUOUS
 62
    30
 10
159.999994
 20
330.000003
 30
0.0
 11
159.999994
 21
-494.160422
 31
0.0
  0
LINE
  5
D25
  8
SIZE
  6
CONTINUOUS
 62
    30
 10
0.0
 20
280.000003
 30
0.0
 11
0.0
 21
-494.160422
 31
0.0
  0
LINE
  5
D26
  8
SIZE
  6
CONTINUOUS
 62
    30
 10
149.999994
 20
-481.660422
 30
0.0
 11
10.0
 21
-481.660422
 31
0.0
  0
CIRCLE
  5
D27
  8
SIZE
  6
CONTINUOUS
 62
    30
 10
159.999994
 20
-481.660422
 30
0.0
 40
5.0
  0
LINE
  5
D28
  8
SIZE
  6
CONTINUOUS
 62
    30
 10
159.999994
 20
-481.660422
 30
0.0
 11
149.999994
 21
-481.660422
 31
0.0
  0
CIRCLE
  5
D29
  8
SIZE
  6
CONTINUOUS
 62
    30
 10
0.0
 20
-481.660422
 30
0.0
 40
5.0
  0
LINE
  5
D2A
  8
SIZE
  6
CONTINUOUS
 62
    30
 10
0.0
 20
-481.660422
 30
0.0
 11
10.0
 21
-481.660422
 31
0.0
  0
TEXT
  5
D2B
  8
SIZE
  6
CONTINUOUS
 62
    30
 10
35.000001
 20
-471.660422
 30
0.0
 40
30.0
  1
160
 72
     1
 11
80.000001
 21
-471.660422
 31
0.0
  0
POINT
  5
D2C
  8
DEFPOINTS
  6
CONTINUOUS
 62
    30
 10
159.999994
 20
340.000003
 30
0.0
  0
POINT
  5
D2D
  8
DEFPOINTS
  6
CONTINUOUS
 62
    30
 10
0.0
 20
290.000003
 30
0.0
  0
POINT
  5
D2E
  8
DEFPOINTS
  6
CONTINUOUS
 62
    30
 10
0.0
 20
-481.660422
 30
0.0
  0
LINE
  5
D2F
  8
SIZE
  6
CONTINUOUS
 62
    30
 10
-230.000006
 20
290.000003
 30
0.0
 11
-230.000006
 21
-494.160422
 31
0.0
  0
LINE
  5
D30
  8
SIZE
  6
CONTINUOUS
 62
    30
 10
0.0
 20
280.000003
 30
0.0
 11
0.0
 21
-494.160422
 31
0.0
  0
LINE
  5
D31
  8
SIZE
  6
CONTINUOUS
 62
    30
 10
-220.000006
 20
-481.660422
 30
0.0
 11
-10.0
 21
-481.660422
 31
0.0
  0
CIRCLE
  5
D32
  8
SIZE
  6
CONTINUOUS
 62
    30
 10
-230.000006
 20
-481.660422
 30
0.0
 40
5.0
  0
LINE
  5
D33
  8
SIZE
  6
CONTINUOUS
 62
    30
 10
-230.000006
 20
-481.660422
 30
0.0
 11
-220.000006
 21
-481.660422
 31
0.0
  0
CIRCLE
  5
D34
  8
SIZE
  6
CONTINUOUS
 62
    30
 10
0.0
 20
-481.660422
 30
0.0
 40
5.0
  0
LINE
  5
D35
  8
SIZE
  6
CONTINUOUS
 62
    30
 10
0.0
 20
-481.660422
 30
0.0
 11
-10.0
 21
-481.660422
 31
0.0
  0
TEXT
  5
D36
  8
SIZE
  6
CONTINUOUS
 62
    30
 10
-157.8571418571429
 20
-471.660422
 30
0.0
 40
30.0
  1
230
 72
     1
 11
-114.999999
 21
-471.660422
 31
0.0
  0
POINT
  5
D37
  8
DEFPOINTS
  6
CONTINUOUS
 62
    30
 10
-230.000006
 20
300.000003
 30
0.0
  0
POINT
  5
D38
  8
DEFPOINTS
  6
CONTINUOUS
 62
    30
 10
0.0
 20
290.000003
 30
0.0
  0
POINT
  5
D39
  8
DEFPOINTS
  6
CONTINUOUS
 62
    30
 10
0.0
 20
-481.660422
 30
0.0
  0
LINE
  5
D3A
  8
SIZE
  6
CONTINUOUS
 62
    30
 10
108.023088
 20
142.500003
 30
0.0
 11
108.023088
 21
-394.160422
 31
0.0
  0
LINE
  5
D3B
  8
SIZE
  6
CONTINUOUS
 62
    30
 10
0.0
 20
280.000003
 30
0.0
 11
0.0
 21
-394.160422
 31
0.0
  0
LINE
  5
D3C
  8
SIZE
  6
CONTINUOUS
 62
    30
 10
98.023088
 20
-381.660422
 30
0.0
 11
10.0
 21
-381.660422
 31
0.0
  0
CIRCLE
  5
D3D
  8
SIZE
  6
CONTINUOUS
 62
    30
 10
108.023088
 20
-381.660422
 30
0.0
 40
5.0
  0
LINE
  5
D3E
  8
SIZE
  6
CONTINUOUS
 62
    30
 10
108.023088
 20
-381.660422
 30
0.0
 11
98.023088
 21
-381.660422
 31
0.0
  0
CIRCLE
  5
D3F
  8
SIZE
  6
CONTINUOUS
 62
    30
 10
0.0
 20
-381.660422
 30
0.0
 40
5.0
  0
LINE
  5
D40
  8
SIZE
  6
CONTINUOUS
 62
    30
 10
0.0
 20
-381.660422
 30
0.0
 11
10.0
 21
-381.660422
 31
0.0
  0
TEXT
  5
D41
  8
SIZE
  6
CONTINUOUS
 62
    30
 10
9.011540999999994
 20
-371.660422
 30
0.0
 40
30.0
  1
108
 72
     1
 11
54.01154099999999
 21
-371.660422
 31
0.0
  0
POINT
  5
D42
  8
DEFPOINTS
  6
CONTINUOUS
 62
    30
 10
108.023088
 20
152.500003
 30
0.0
  0
POINT
  5
D43
  8
DEFPOINTS
  6
CONTINUOUS
 62
    30
 10
0.0
 20
290.000003
 30
0.0
  0
POINT
  5
D44
  8
DEFPOINTS
  6
CONTINUOUS
 62
    30
 10
0.0
 20
-381.660422
 30
0.0
  0
LINE
  5
D45
  8
SIZE
  6
CONTINUOUS
 62
    30
 10
-188.000006
 20
125.000003
 30
0.0
 11
-188.000006
 21
-394.160422
 31
0.0
  0
LINE
  5
D46
  8
SIZE
  6
CONTINUOUS
 62
    30
 10
0.0
 20
280.000003
 30
0.0
 11
0.0
 21
-394.160422
 31
0.0
  0
LINE
  5
D47
  8
SIZE
  6
CONTINUOUS
 62
    30
 10
-178.000006
 20
-381.660422
 30
0.0
 11
-10.0
 21
-381.660422
 31
0.0
  0
CIRCLE
  5
D48
  8
SIZE
  6
CONTINUOUS
 62
    30
 10
-188.000006
 20
-381.660422
 30
0.0
 40
5.0
  0
LINE
  5
D49
  8
SIZE
  6
CONTINUOUS
 62
    30
 10
-188.000006
 20
-381.660422
 30
0.0
 11
-178.000006
 21
-381.660422
 31
0.0
  0
CIRCLE
  5
D4A
  8
SIZE
  6
CONTINUOUS
 62
    30
 10
0.0
 20
-381.660422
 30
0.0
 40
5.0
  0
LINE
  5
D4B
  8
SIZE
  6
CONTINUOUS
 62
    30
 10
0.0
 20
-381.660422
 30
0.0
 11
-10.0
 21
-381.660422
 31
0.0
  0
TEXT
  5
D4C
  8
SIZE
  6
CONTINUOUS
 62
    30
 10
-138.999999
 20
-371.660422
 30
0.0
 40
30.0
  1
188
 72
     1
 11
-93.999999
 21
-371.660422
 31
0.0
  0
POINT
  5
D4D
  8
DEFPOINTS
  6
CONTINUOUS
 62
    30
 10
-188.000006
 20
135.000003
 30
0.0
  0
POINT
  5
D4E
  8
DEFPOINTS
  6
CONTINUOUS
 62
    30
 10
0.0
 20
290.000003
 30
0.0
  0
POINT
  5
D4F
  8
DEFPOINTS
  6
CONTINUOUS
 62
    30
 10
0.0
 20
-381.660422
 30
0.0
  0
LINE
  5
D50
  8
SIZE
  6
CONTINUOUS
 62
    30
 10
70.000001
 20
290.000003
 30
0.0
 11
70.000001
 21
-294.160422
 31
0.0
  0
LINE
  5
D51
  8
SIZE
  6
CONTINUOUS
 62
    30
 10
0.0
 20
280.000003
 30
0.0
 11
0.0
 21
-294.160422
 31
0.0
  0
LINE
  5
D52
  8
SIZE
  6
CONTINUOUS
 62
    30
 10
60.000001
 20
-281.660422
 30
0.0
 11
10.0
 21
-281.660422
 31
0.0
  0
CIRCLE
  5
D53
  8
SIZE
  6
CONTINUOUS
 62
    30
 10
70.000001
 20
-281.660422
 30
0.0
 40
5.0
  0
LINE
  5
D54
  8
SIZE
  6
CONTINUOUS
 62
    30
 10
70.000001
 20
-281.660422
 30
0.0
 11
60.000001
 21
-281.660422
 31
0.0
  0
CIRCLE
  5
D55
  8
SIZE
  6
CONTINUOUS
 62
    30
 10
0.0
 20
-281.660422
 30
0.0
 40
5.0
  0
LINE
  5
D56
  8
SIZE
  6
CONTINUOUS
 62
    30
 10
0.0
 20
-281.660422
 30
0.0
 11
10.0
 21
-281.660422
 31
0.0
  0
TEXT
  5
D57
  8
SIZE
  6
CONTINUOUS
 62
    30
 10
6.428572428571425
 20
-271.660422
 30
0.0
 40
30.0
  1
70
 72
     1
 11
35.000001
 21
-271.660422
 31
0.0
  0
POINT
  5
D58
  8
DEFPOINTS
  6
CONTINUOUS
 62
    30
 10
70.000001
 20
300.000003
 30
0.0
  0
POINT
  5
D59
  8
DEFPOINTS
  6
CONTINUOUS
 62
    30
 10
0.0
 20
290.000003
 30
0.0
  0
POINT
  5
D5A
  8
DEFPOINTS
  6
CONTINUOUS
 62
    30
 10
0.0
 20
-281.660422
 30
0.0
  0
LINE
  5
D5B
  8
SIZE
  6
CONTINUOUS
 62
    30
 10
-180.000006
 20
370.000003
 30
0.0
 11
-180.000006
 21
-294.160422
 31
0.0
  0
LINE
  5
D5C
  8
SIZE
  6
CONTINUOUS
 62
    30
 10
0.0
 20
280.000003
 30
0.0
 11
0.0
 21
-294.160422
 31
0.0
  0
LINE
  5
D5D
  8
SIZE
  6
CONTINUOUS
 62
    30
 10
-170.000006
 20
-281.660422
 30
0.0
 11
-10.0
 21
-281.660422
 31
0.0
  0
CIRCLE
  5
D5E
  8
SIZE
  6
CONTINUOUS
 62
    30
 10
-180.000006
 20
-281.660422
 30
0.0
 40
5.0
  0
LINE
  5
D5F
  8
SIZE
  6
CONTINUOUS
 62
    30
 10
-180.000006
 20
-281.660422
 30
0.0
 11
-170.000006
 21
-281.660422
 31
0.0
  0
CIRCLE
  5
D60
  8
SIZE
  6
CONTINUOUS
 62
    30
 10
0.0
 20
-281.660422
 30
0.0
 40
5.0
  0
LINE
  5
D61
  8
SIZE
  6
CONTINUOUS
 62
    30
 10
0.0
 20
-281.660422
 30
0.0
 11
-10.0
 21
-281.660422
 31
0.0
  0
TEXT
  5
D62
  8
SIZE
  6
CONTINUOUS
 62
    30
 10
-134.999999
 20
-271.660422
 30
0.0
 40
30.0
  1
180
 72
     1
 11
-89.999999
 21
-271.660422
 31
0.0
  0
POINT
  5
D63
  8
DEFPOINTS
  6
CONTINUOUS
 62
    30
 10
-180.000006
 20
380.000003
 30
0.0
  0
POINT
  5
D64
  8
DEFPOINTS
  6
CONTINUOUS
 62
    30
 10
0.0
 20
290.000003
 30
0.0
  0
POINT
  5
D65
  8
DEFPOINTS
  6
CONTINUOUS
 62
    30
 10
0.0
 20
-281.660422
 30
0.0
  0
LINE
  5
D66
  8
SIZE
  6
CONTINUOUS
 62
    30
 10
-285.000006
 20
634.000003
 30
0.0
 11
-285.000006
 21
530.63804
 31
0.0
  0
LINE
  5
D67
  8
SIZE
  6
CONTINUOUS
 62
    30
 10
-315.000006
 20
210.000003
 30
0.0
 11
-315.000006
 21
555.63804
 31
0.0
  0
LINE
  5
D68
  8
SIZE
  6
CONTINUOUS
 62
    30
 10
-275.000006
 20
543.13804
 30
0.0
 11
-265.000006
 21
543.13804
 31
0.0
  0
LINE
  5
D69
  8
SIZE
  6
CONTINUOUS
 62
    30
 10
-325.000006
 20
543.13804
 30
0.0
 11
-400.000006
 21
543.13804
 31
0.0
  0
LINE
  5
D6A
  8
SIZE
  6
CONTINUOUS
 62
    30
 10
-285.000006
 20
543.13804
 30
0.0
 11
-315.000006
 21
543.13804
 31
0.0
  0
CIRCLE
  5
D6B
  8
SIZE
  6
CONTINUOUS
 62
    30
 10
-285.000006
 20
543.13804
 30
0.0
 40
5.0
  0
LINE
  5
D6C
  8
SIZE
  6
CONTINUOUS
 62
    30
 10
-285.000006
 20
543.13804
 30
0.0
 11
-275.000006
 21
543.13804
 31
0.0
  0
CIRCLE
  5
D6D
  8
SIZE
  6
CONTINUOUS
 62
    30
 10
-315.000006
 20
543.13804
 30
0.0
 40
5.0
  0
LINE
  5
D6E
  8
SIZE
  6
CONTINUOUS
 62
    30
 10
-315.000006
 20
543.13804
 30
0.0
 11
-325.000006
 21
543.13804
 31
0.0
  0
TEXT
  5
D6F
  8
SIZE
  6
CONTINUOUS
 62
    30
 10
-396.0714345714285
 20
553.13804
 30
0.0
 40
30.0
  1
30
 72
     1
 11
-367.500006
 21
553.13804
 31
0.0
  0
POINT
  5
D70
  8
DEFPOINTS
  6
CONTINUOUS
 62
    30
 10
-285.000006
 20
644.000003
 30
0.0
  0
POINT
  5
D71
  8
DEFPOINTS
  6
CONTINUOUS
 62
    30
 10
-315.000006
 20
200.000003
 30
0.0
  0
POINT
  5
D72
  8
DEFPOINTS
  6
CONTINUOUS
 62
    30
 10
-315.000006
 20
543.13804
 30
0.0
  0
LINE
  5
D73
  8
SIZE
  6
CONTINUOUS
 62
    30
 10
-315.000006
 20
210.000003
 30
0.0
 11
-315.000006
 21
891.253824
 31
0.0
  0
LINE
  5
D74
  8
SIZE
  6
CONTINUOUS
 62
    30
 10
-281.000006
 20
675.000003
 30
0.0
 11
-281.000006
 21
891.253824
 31
0.0
  0
LINE
  5
D75
  8
SIZE
  6
CONTINUOUS
 62
    30
 10
-271.000006
 20
878.753824
 30
0.0
 11
-261.000006
 21
878.753824
 31
0.0
  0
LINE
  5
D76
  8
SIZE
  6
CONTINUOUS
 62
    30
 10
-325.000006
 20
878.753824
 30
0.0
 11
-407.864997
 21
878.753824
 31
0.0
  0
LINE
  5
D77
  8
SIZE
  6
CONTINUOUS
 62
    30
 10
-281.000006
 20
878.753824
 30
0.0
 11
-315.000006
 21
878.753824
 31
0.0
  0
CIRCLE
  5
D78
  8
SIZE
  6
CONTINUOUS
 62
    30
 10
-281.000006
 20
878.753824
 30
0.0
 40
5.0
  0
LINE
  5
D79
  8
SIZE
  6
CONTINUOUS
 62
    30
 10
-281.000006
 20
878.753824
 30
0.0
 11
-271.000006
 21
878.753824
 31
0.0
  0
CIRCLE
  5
D7A
  8
SIZE
  6
CONTINUOUS
 62
    30
 10
-315.000006
 20
878.753824
 30
0.0
 40
5.0
  0
LINE
  5
D7B
  8
SIZE
  6
CONTINUOUS
 62
    30
 10
-315.000006
 20
878.753824
 30
0.0
 11
-325.000006
 21
878.753824
 31
0.0
  0
TEXT
  5
D7C
  8
SIZE
  6
CONTINUOUS
 62
    30
 10
-402.1507112857142
 20
888.753824
 30
0.0
 40
30.0
  1
34
 72
     1
 11
-372.864997
 21
888.753824
 31
0.0
  0
POINT
  5
D7D
  8
DEFPOINTS
  6
CONTINUOUS
 62
    30
 10
-315.000006
 20
200.000003
 30
0.0
  0
POINT
  5
D7E
  8
DEFPOINTS
  6
CONTINUOUS
 62
    30
 10
-281.000006
 20
665.000003
 30
0.0
  0
POINT
  5
D7F
  8
DEFPOINTS
  6
CONTINUOUS
 62
    30
 10
-281.000006
 20
878.753824
 30
0.0
  0
LINE
  5
D80
  8
SIZE
  6
CONTINUOUS
 62
    30
 10
-325.000006
 20
0.0
 30
0.0
 11
-984.2111639999999
 21
0.0
 31
0.0
  0
LINE
  5
D81
  8
SIZE
  6
CONTINUOUS
 62
    30
 10
-49.999999
 20
2214.999881
 30
0.0
 11
-984.2111639999999
 21
2214.999881
 31
0.0
  0
LINE
  5
D82
  8
SIZE
  6
CONTINUOUS
 62
    30
 10
-971.7111639999999
 20
10.0
 30
0.0
 11
-971.7111639999999
 21
2204.999881
 31
0.0
  0
CIRCLE
  5
D83
  8
SIZE
  6
CONTINUOUS
 62
    30
 10
-971.7111639999999
 20
0.0
 30
0.0
 40
5.0
  0
LINE
  5
D84
  8
SIZE
  6
CONTINUOUS
 62
    30
 10
-971.7111639999999
 20
0.0
 30
0.0
 11
-971.7111639999999
 21
10.0
 31
0.0
  0
CIRCLE
  5
D85
  8
SIZE
  6
CONTINUOUS
 62
    30
 10
-971.7111639999999
 20
2214.999881
 30
0.0
 40
5.0
  0
LINE
  5
D86
  8
SIZE
  6
CONTINUOUS
 62
    30
 10
-971.7111639999999
 20
2214.999881
 30
0.0
 11
-971.7111639999999
 21
2204.999881
 31
0.0
  0
TEXT
  5
D87
  8
SIZE
  6
CONTINUOUS
 62
    30
 10
-981.7111639999999
 20
1050.357145857143
 30
0.0
 40
30.0
  1
2215
 50
90.0
 72
     1
 11
-981.7111639999999
 21
1107.500003
 31
0.0
  0
POINT
  5
D88
  8
DEFPOINTS
  6
CONTINUOUS
 62
    30
 10
-315.000006
 20
0.0
 30
0.0
  0
POINT
  5
D89
  8
DEFPOINTS
  6
CONTINUOUS
 62
    30
 10
-39.999999
 20
2214.999881
 30
0.0
  0
POINT
  5
D8A
  8
DEFPOINTS
  6
CONTINUOUS
 62
    30
 10
-971.7111639999999
 20
2214.999881
 30
0.0
  0
LINE
  5
D8B
  8
SIZE
  6
CONTINUOUS
 62
    30
 10
-59.999999
 20
2192.999881
 30
0.0
 11
-884.2111639999999
 21
2192.999881
 31
0.0
  0
LINE
  5
D8C
  8
SIZE
  6
CONTINUOUS
 62
    30
 10
-325.000006
 20
0.0
 30
0.0
 11
-884.2111639999999
 21
0.0
 31
0.0
  0
LINE
  5
D8D
  8
SIZE
  6
CONTINUOUS
 62
    30
 10
-871.7111639999999
 20
2182.999881
 30
0.0
 11
-871.7111639999999
 21
10.0
 31
0.0
  0
CIRCLE
  5
D8E
  8
SIZE
  6
CONTINUOUS
 62
    30
 10
-871.7111639999999
 20
2192.999881
 30
0.0
 40
5.0
  0
LINE
  5
D8F
  8
SIZE
  6
CONTINUOUS
 62
    30
 10
-871.7111639999999
 20
2192.999881
 30
0.0
 11
-871.7111639999999
 21
2182.999881
 31
0.0
  0
CIRCLE
  5
D90
  8
SIZE
  6
CONTINUOUS
 62
    30
 10
-871.7111639999999
 20
0.0
 30
0.0
 40
5.0
  0
LINE
  5
D91
  8
SIZE
  6
CONTINUOUS
 62
    30
 10
-871.7111639999999
 20
0.0
 30
0.0
 11
-871.7111639999999
 21
10.0
 31
0.0
  0
TEXT
  5
D92
  8
SIZE
  6
CONTINUOUS
 62
    30
 10
-881.7111639999999
 20
1039.357145857143
 30
0.0
 40
30.0
  1
2193
 50
90.0
 72
     1
 11
-881.7111639999999
 21
1096.500003
 31
0.0
  0
POINT
  5
D93
  8
DEFPOINTS
  6
CONTINUOUS
 62
    30
 10
-49.999999
 20
2192.999881
 30
0.0
  0
POINT
  5
D94
  8
DEFPOINTS
  6
CONTINUOUS
 62
    30
 10
-315.000006
 20
0.0
 30
0.0
  0
POINT
  5
D95
  8
DEFPOINTS
  6
CONTINUOUS
 62
    30
 10
-871.7111639999999
 20
0.0
 30
0.0
  0
LINE
  5
D96
  8
SIZE
  6
CONTINUOUS
 62
    30
 10
324.999994
 20
0.0
 30
0.0
 11
1073.457538
 21
0.0
 31
0.0
  0
LINE
  5
D97
  8
SIZE
  6
CONTINUOUS
 62
    30
 10
324.999994
 20
2169.999881
 30
0.0
 11
1073.457538
 21
2169.999881
 31
0.0
  0
LINE
  5
D98
  8
SIZE
  6
CONTINUOUS
 62
    30
 10
1060.957538
 20
10.0
 30
0.0
 11
1060.957538
 21
2159.999881
 31
0.0
  0
CIRCLE
  5
D99
  8
SIZE
  6
CONTINUOUS
 62
    30
 10
1060.957538
 20
0.0
 30
0.0
 40
5.0
  0
LINE
  5
D9A
  8
SIZE
  6
CONTINUOUS
 62
    30
 10
1060.957538
 20
0.0
 30
0.0
 11
1060.957538
 21
10.0
 31
0.0
  0
CIRCLE
  5
D9B
  8
SIZE
  6
CONTINUOUS
 62
    30
 10
1060.957538
 20
2169.999881
 30
0.0
 40
5.0
  0
LINE
  5
D9C
  8
SIZE
  6
CONTINUOUS
 62
    30
 10
1060.957538
 20
2169.999881
 30
0.0
 11
1060.957538
 21
2159.999881
 31
0.0
  0
TEXT
  5
D9D
  8
SIZE
  6
CONTINUOUS
 62
    30
 10
1050.957538
 20
1027.857145857143
 30
0.0
 40
30.0
  1
2170
 50
90.0
 72
     1
 11
1050.957538
 21
1085.000003
 31
0.0
  0
POINT
  5
D9E
  8
DEFPOINTS
  6
CONTINUOUS
 62
    30
 10
314.999994
 20
0.0
 30
0.0
  0
POINT
  5
D9F
  8
DEFPOINTS
  6
CONTINUOUS
 62
    30
 10
314.999994
 20
2169.999881
 30
0.0
  0
POINT
  5
DA0
  8
DEFPOINTS
  6
CONTINUOUS
 62
    30
 10
1060.957538
 20
2169.999881
 30
0.0
  0
LINE
  5
DA1
  8
SIZE
  6
CONTINUOUS
 62
    30
 10
324.999994
 20
200.000003
 30
0.0
 11
973.457721
 21
200.000003
 31
0.0
  0
LINE
  5
DA2
  8
SIZE
  6
CONTINUOUS
 62
    30
 10
324.999994
 20
2169.999881
 30
0.0
 11
973.457721
 21
2169.999881
 31
0.0
  0
LINE
  5
DA3
  8
SIZE
  6
CONTINUOUS
 62
    30
 10
960.957721
 20
210.000003
 30
0.0
 11
960.957721
 21
2159.999881
 31
0.0
  0
CIRCLE
  5
DA4
  8
SIZE
  6
CONTINUOUS
 62
    30
 10
960.957721
 20
200.000003
 30
0.0
 40
5.0
  0
LINE
  5
DA5
  8
SIZE
  6
CONTINUOUS
 62
    30
 10
960.957721
 20
200.000003
 30
0.0
 11
960.957721
 21
210.000003
 31
0.0
  0
CIRCLE
  5
DA6
  8
SIZE
  6
CONTINUOUS
 62
    30
 10
960.957721
 20
2169.999881
 30
0.0
 40
5.0
  0
LINE
  5
DA7
  8
SIZE
  6
CONTINUOUS
 62
    30
 10
960.957721
 20
2169.999881
 30
0.0
 11
960.957721
 21
2159.999881
 31
0.0
  0
TEXT
  5
DA8
  8
SIZE
  6
CONTINUOUS
 62
    30
 10
950.957721
 20
1125.714288714286
 30
0.0
 40
30.0
  1
1970
 50
90.0
 72
     1
 11
950.957721
 21
1185.000003
 31
0.0
  0
POINT
  5
DA9
  8
DEFPOINTS
  6
CONTINUOUS
 62
    30
 10
314.999994
 20
200.000003
 30
0.0
  0
POINT
  5
DAA
  8
DEFPOINTS
  6
CONTINUOUS
 62
    30
 10
314.999994
 20
2169.999881
 30
0.0
  0
POINT
  5
DAB
  8
DEFPOINTS
  6
CONTINUOUS
 62
    30
 10
960.957721
 20
2169.999881
 30
0.0
  0
LINE
  5
DAC
  8
SIZE
  6
CONTINUOUS
 62
    30
 10
324.999994
 20
2169.999881
 30
0.0
 11
1073.457538
 21
2169.999881
 31
0.0
  0
LINE
  5
DAD
  8
SIZE
  6
CONTINUOUS
 62
    30
 10
324.999994
 20
2369.999881
 30
0.0
 11
1073.457538
 21
2369.999881
 31
0.0
  0
LINE
  5
DAE
  8
SIZE
  6
CONTINUOUS
 62
    30
 10
1060.957538
 20
2179.999881
 30
0.0
 11
1060.957538
 21
2359.999881
 31
0.0
  0
CIRCLE
  5
DAF
  8
SIZE
  6
CONTINUOUS
 62
    30
 10
1060.957538
 20
2169.999881
 30
0.0
 40
5.0
  0
LINE
  5
DB0
  8
SIZE
  6
CONTINUOUS
 62
    30
 10
1060.957538
 20
2169.999881
 30
0.0
 11
1060.957538
 21
2179.999881
 31
0.0
  0
CIRCLE
  5
DB1
  8
SIZE
  6
CONTINUOUS
 62
    30
 10
1060.957538
 20
2369.999881
 30
0.0
 40
5.0
  0
LINE
  5
DB2
  8
SIZE
  6
CONTINUOUS
 62
    30
 10
1060.957538
 20
2369.999881
 30
0.0
 11
1060.957538
 21
2359.999881
 31
0.0
  0
TEXT
  5
DB3
  8
SIZE
  6
CONTINUOUS
 62
    30
 10
1050.957538
 20
2227.142738142858
 30
0.0
 40
30.0
  1
200
 50
90.0
 72
     1
 11
1050.957538
 21
2269.999881
 31
0.0
  0
POINT
  5
DB4
  8
DEFPOINTS
  6
CONTINUOUS
 62
    30
 10
314.999994
 20
2169.999881
 30
0.0
  0
POINT
  5
DB5
  8
DEFPOINTS
  6
CONTINUOUS
 62
    30
 10
314.999994
 20
2369.999881
 30
0.0
  0
POINT
  5
DB6
  8
DEFPOINTS
  6
CONTINUOUS
 62
    30
 10
1060.957538
 20
2369.999881
 30
0.0
  0
LINE
  5
DB7
  8
SIZE
  6
CONTINUOUS
 62
    30
 10
29.999999
 20
2222.999881
 30
0.0
 11
29.999999
 21
2484.899881
 31
0.0
  0
LINE
  5
DB8
  8
SIZE
  6
CONTINUOUS
 62
    30
 10
-30.000001
 20
2222.999881
 30
0.0
 11
-30.000001
 21
2484.899881
 31
0.0
  0
LINE
  5
DB9
  8
SIZE
  6
CONTINUOUS
 62
    30
 10
19.999999
 20
2472.399881
 30
0.0
 11
-20.000001
 21
2472.399881
 31
0.0
  0
CIRCLE
  5
DBA
  8
SIZE
  6
CONTINUOUS
 62
    30
 10
29.999999
 20
2472.399881
 30
0.0
 40
5.0
  0
LINE
  5
DBB
  8
SIZE
  6
CONTINUOUS
 62
    30
 10
29.999999
 20
2472.399881
 30
0.0
 11
19.999999
 21
2472.399881
 31
0.0
  0
CIRCLE
  5
DBC
  8
SIZE
  6
CONTINUOUS
 62
    30
 10
-30.000001
 20
2472.399881
 30
0.0
 40
5.0
  0
LINE
  5
DBD
  8
SIZE
  6
CONTINUOUS
 62
    30
 10
-30.000001
 20
2472.399881
 30
0.0
 11
-20.000001
 21
2472.399881
 31
0.0
  0
TEXT
  5
DBE
  8
SIZE
  6
CONTINUOUS
 62
    30
 10
-29.28571528571429
 20
2482.399881
 30
0.0
 40
30.0
  1
60
 72
     1
 11
-0.000001
 21
2482.399881
 31
0.0
  0
POINT
  5
DBF
  8
DEFPOINTS
  6
CONTINUOUS
 62
    30
 10
29.999999
 20
2212.999881
 30
0.0
  0
POINT
  5
DC0
  8
DEFPOINTS
  6
CONTINUOUS
 62
    30
 10
-30.000001
 20
2212.999881
 30
0.0
  0
POINT
  5
DC1
  8
DEFPOINTS
  6
CONTINUOUS
 62
    30
 10
-30.000001
 20
2472.399881
 30
0.0
  0
LINE
  5
DC2
  8
SIZE
  6
CONTINUOUS
 62
    30
 10
45.000001
 20
2219.999881
 30
0.0
 11
45.000001
 21
2584.899881
 31
0.0
  0
LINE
  5
DC3
  8
SIZE
  6
CONTINUOUS
 62
    30
 10
-44.999999
 20
2219.999881
 30
0.0
 11
-44.999999
 21
2584.899881
 31
0.0
  0
LINE
  5
DC4
  8
SIZE
  6
CONTINUOUS
 62
    30
 10
35.000001
 20
2572.399881
 30
0.0
 11
-34.999999
 21
2572.399881
 31
0.0
  0
CIRCLE
  5
DC5
  8
SIZE
  6
CONTINUOUS
 62
    30
 10
45.000001
 20
2572.399881
 30
0.0
 40
5.0
  0
LINE
  5
DC6
  8
SIZE
  6
CONTINUOUS
 62
    30
 10
45.000001
 20
2572.399881
 30
0.0
 11
35.000001
 21
2572.399881
 31
0.0
  0
CIRCLE
  5
DC7
  8
SIZE
  6
CONTINUOUS
 62
    30
 10
-44.999999
 20
2572.399881
 30
0.0
 40
5.0
  0
LINE
  5
DC8
  8
SIZE
  6
CONTINUOUS
 62
    30
 10
-44.999999
 20
2572.399881
 30
0.0
 11
-34.999999
 21
2572.399881
 31
0.0
  0
TEXT
  5
DC9
  8
SIZE
  6
CONTINUOUS
 62
    30
 10
-28.57142857142857
 20
2582.399881
 30
0.0
 40
30.0
  1
90
 72
     1
 11
0.0
 21
2582.399881
 31
0.0
  0
POINT
  5
DCA
  8
DEFPOINTS
  6
CONTINUOUS
 62
    30
 10
45.000001
 20
2209.999881
 30
0.0
  0
POINT
  5
DCB
  8
DEFPOINTS
  6
CONTINUOUS
 62
    30
 10
-44.999999
 20
2209.999881
 30
0.0
  0
POINT
  5
DCC
  8
DEFPOINTS
  6
CONTINUOUS
 62
    30
 10
-44.999999
 20
2572.399881
 30
0.0
  0
LINE
  5
DCD
  8
SIZE
  6
CONTINUOUS
 62
    30
 10
314.999994
 20
2379.999881
 30
0.0
 11
314.999994
 21
2734.899881
 31
0.0
  0
LINE
  5
DCE
  8
SIZE
  6
CONTINUOUS
 62
    30
 10
-315.000006
 20
2379.999881
 30
0.0
 11
-315.000006
 21
2734.899881
 31
0.0
  0
LINE
  5
DCF
  8
SIZE
  6
CONTINUOUS
 62
    30
 10
304.999994
 20
2722.399881
 30
0.0
 11
-305.000006
 21
2722.399881
 31
0.0
  0
CIRCLE
  5
DD0
  8
SIZE
  6
CONTINUOUS
 62
    30
 10
314.999994
 20
2722.399881
 30
0.0
 40
5.0
  0
LINE
  5
DD1
  8
SIZE
  6
CONTINUOUS
 62
    30
 10
314.999994
 20
2722.399881
 30
0.0
 11
304.999994
 21
2722.399881
 31
0.0
  0
CIRCLE
  5
DD2
  8
SIZE
  6
CONTINUOUS
 62
    30
 10
-315.000006
 20
2722.399881
 30
0.0
 40
5.0
  0
LINE
  5
DD3
  8
SIZE
  6
CONTINUOUS
 62
    30
 10
-315.000006
 20
2722.399881
 30
0.0
 11
-305.000006
 21
2722.399881
 31
0.0
  0
TEXT
  5
DD4
  8
SIZE
  6
CONTINUOUS
 62
    30
 10
-43.57142857142857
 20
2732.399881
 30
0.0
 40
30.0
  1
630
 72
     1
 11
0.0
 21
2732.399881
 31
0.0
  0
POINT
  5
DD5
  8
DEFPOINTS
  6
CONTINUOUS
 62
    30
 10
314.999994
 20
2369.999881
 30
0.0
  0
POINT
  5
DD6
  8
DEFPOINTS
  6
CONTINUOUS
 62
    30
 10
-315.000006
 20
2369.999881
 30
0.0
  0
POINT
  5
DD7
  8
DEFPOINTS
  6
CONTINUOUS
 62
    30
 10
-315.000006
 20
2722.399881
 30
0.0
  0
LINE
  5
DD8
  8
SIZE
  6
CONTINUOUS
 62
    30
 10
273.999994
 20
2010.000003
 30
0.0
 11
871.457721
 21
2010.000003
 31
0.0
  0
LINE
  5
DD9
  8
SIZE
  6
CONTINUOUS
 62
    30
 10
273.999994
 20
2127.999881
 30
0.0
 11
871.457721
 21
2127.999881
 31
0.0
  0
LINE
  5
DDA
  8
SIZE
  6
CONTINUOUS
 62
    30
 10
858.957721
 20
2020.000003
 30
0.0
 11
858.957721
 21
2117.999881
 31
0.0
  0
CIRCLE
  5
DDB
  8
SIZE
  6
CONTINUOUS
 62
    30
 10
858.957721
 20
2010.000003
 30
0.0
 40
5.0
  0
LINE
  5
DDC
  8
SIZE
  6
CONTINUOUS
 62
    30
 10
858.957721
 20
2010.000003
 30
0.0
 11
858.957721
 21
2020.000003
 31
0.0
  0
CIRCLE
  5
DDD
  8
SIZE
  6
CONTINUOUS
 62
    30
 10
858.957721
 20
2127.999881
 30
0.0
 40
5.0
  0
LINE
  5
DDE
  8
SIZE
  6
CONTINUOUS
 62
    30
 10
858.957721
 20
2127.999881
 30
0.0
 11
858.957721
 21
2117.999881
 31
0.0
  0
TEXT
  5
DDF
  8
SIZE
  6
CONTINUOUS
 62
    30
 10
848.957721
 20
2023.999881
 30
0.0
 40
30.0
  1
118
 50
90.0
 72
     1
 11
848.957721
 21
2068.999881
 31
0.0
  0
POINT
  5
DE0
  8
DEFPOINTS
  6
CONTINUOUS
 62
    30
 10
263.999994
 20
2010.000003
 30
0.0
  0
POINT
  5
DE1
  8
DEFPOINTS
  6
CONTINUOUS
 62
    30
 10
263.999994
 20
2127.999881
 30
0.0
  0
POINT
  5
DE2
  8
DEFPOINTS
  6
CONTINUOUS
 62
    30
 10
858.957721
 20
2127.999881
 30
0.0
  0
LINE
  5
DE3
  8
SIZE
  6
CONTINUOUS
 62
    30
 10
139.999994
 20
2006.000003
 30
0.0
 11
139.999994
 21
1892.115701
 31
0.0
  0
LINE
  5
DE4
  8
SIZE
  6
CONTINUOUS
 62
    30
 10
269.999994
 20
2006.000003
 30
0.0
 11
269.999994
 21
1892.115701
 31
0.0
  0
LINE
  5
DE5
  8
SIZE
  6
CONTINUOUS
 62
    30
 10
149.999994
 20
1904.615701
 30
0.0
 11
259.999994
 21
1904.615701
 31
0.0
  0
CIRCLE
  5
DE6
  8
SIZE
  6
CONTINUOUS
 62
    30
 10
139.999994
 20
1904.615701
 30
0.0
 40
5.0
  0
LINE
  5
DE7
  8
SIZE
  6
CONTINUOUS
 62
    30
 10
139.999994
 20
1904.615701
 30
0.0
 11
149.999994
 21
1904.615701
 31
0.0
  0
CIRCLE
  5
DE8
  8
SIZE
  6
CONTINUOUS
 62
    30
 10
269.999994
 20
1904.615701
 30
0.0
 40
5.0
  0
LINE
  5
DE9
  8
SIZE
  6
CONTINUOUS
 62
    30
 10
269.999994
 20
1904.615701
 30
0.0
 11
259.999994
 21
1904.615701
 31
0.0
  0
TEXT
  5
DEA
  8
SIZE
  6
CONTINUOUS
 62
    30
 10
159.999994
 20
1914.615701
 30
0.0
 40
30.0
  1
130
 72
     1
 11
204.999994
 21
1914.615701
 31
0.0
  0
POINT
  5
DEB
  8
DEFPOINTS
  6
CONTINUOUS
 62
    30
 10
139.999994
 20
2016.000003
 30
0.0
  0
POINT
  5
DEC
  8
DEFPOINTS
  6
CONTINUOUS
 62
    30
 10
269.999994
 20
2016.000003
 30
0.0
  0
POINT
  5
DED
  8
DEFPOINTS
  6
CONTINUOUS
 62
    30
 10
269.999994
 20
1904.615701
 30
0.0
  0
LINE
  5
DEE
  8
SIZE
  6
CONTINUOUS
 62
    30
 10
-123.999999
 20
789.000003
 30
0.0
 11
-123.999999
 21
891.253824
 31
0.0
  0
LINE
  5
DEF
  8
SIZE
  6
CONTINUOUS
 62
    30
 10
-281.000006
 20
789.000003
 30
0.0
 11
-281.000006
 21
891.253824
 31
0.0
  0
LINE
  5
DF0
  8
SIZE
  6
CONTINUOUS
 62
    30
 10
-133.999999
 20
878.753824
 30
0.0
 11
-271.000006
 21
878.753824
 31
0.0
  0
CIRCLE
  5
DF1
  8
SIZE
  6
CONTINUOUS
 62
    30
 10
-123.999999
 20
878.753824
 30
0.0
 40
5.0
  0
LINE
  5
DF2
  8
SIZE
  6
CONTINUOUS
 62
    30
 10
-123.999999
 20
878.753824
 30
0.0
 11
-133.999999
 21
878.753824
 31
0.0
  0
CIRCLE
  5
DF3
  8
SIZE
  6
CONTINUOUS
 62
    30
 10
-281.000006
 20
878.753824
 30
0.0
 40
5.0
  0
LINE
  5
DF4
  8
SIZE
  6
CONTINUOUS
 62
    30
 10
-281.000006
 20
878.753824
 30
0.0
 11
-271.000006
 21
878.753824
 31
0.0
  0
TEXT
  5
DF5
  8
SIZE
  6
CONTINUOUS
 62
    30
 10
-247.500006
 20
888.753824
 30
0.0
 40
30.0
  1
157
 72
     1
 11
-202.500006
 21
888.753824
 31
0.0
  0
POINT
  5
DF6
  8
DEFPOINTS
  6
CONTINUOUS
 62
    30
 10
-123.999999
 20
779.000003
 30
0.0
  0
POINT
  5
DF7
  8
DEFPOINTS
  6
CONTINUOUS
 62
    30
 10
-281.000006
 20
779.000003
 30
0.0
  0
POINT
  5
DF8
  8
DEFPOINTS
  6
CONTINUOUS
 62
    30
 10
-281.000006
 20
878.753824
 30
0.0
  0
LINE
  5
DF9
  8
SIZE
  6
CONTINUOUS
 62
    30
 10
-283.000006
 20
787.000003
 30
0.0
 11
-784.2111639999999
 21
787.000003
 31
0.0
  0
LINE
  5
DFA
  8
SIZE
  6
CONTINUOUS
 62
    30
 10
-283.000006
 20
657.000003
 30
0.0
 11
-784.2111639999999
 21
657.000003
 31
0.0
  0
LINE
  5
DFB
  8
SIZE
  6
CONTINUOUS
 62
    30
 10
-771.7111639999999
 20
777.000003
 30
0.0
 11
-771.7111639999999
 21
667.000003
 31
0.0
  0
CIRCLE
  5
DFC
  8
SIZE
  6
CONTINUOUS
 62
    30
 10
-771.7111639999999
 20
787.000003
 30
0.0
 40
5.0
  0
LINE
  5
DFD
  8
SIZE
  6
CONTINUOUS
 62
    30
 10
-771.7111639999999
 20
787.000003
 30
0.0
 11
-771.7111639999999
 21
777.000003
 31
0.0
  0
CIRCLE
  5
DFE
  8
SIZE
  6
CONTINUOUS
 62
    30
 10
-771.7111639999999
 20
657.000003
 30
0.0
 40
5.0
  0
LINE
  5
DFF
  8
SIZE
  6
CONTINUOUS
 62
    30
 10
-771.7111639999999
 20
657.000003
 30
0.0
 11
-771.7111639999999
 21
667.000003
 31
0.0
  0
TEXT
  5
E00
  8
SIZE
  6
CONTINUOUS
 62
    30
 10
-781.7111639999999
 20
677.000003
 30
0.0
 40
30.0
  1
130
 50
90.0
 72
     1
 11
-781.7111639999999
 21
722.000003
 31
0.0
  0
POINT
  5
E01
  8
DEFPOINTS
  6
CONTINUOUS
 62
    30
 10
-273.000006
 20
787.000003
 30
0.0
  0
POINT
  5
E02
  8
DEFPOINTS
  6
CONTINUOUS
 62
    30
 10
-273.000006
 20
657.000003
 30
0.0
  0
POINT
  5
E03
  8
DEFPOINTS
  6
CONTINUOUS
 62
    30
 10
-771.7111639999999
 20
657.000003
 30
0.0
  0
LINE
  5
E04
  8
SIZE
  6
CONTINUOUS
 62
    30
 10
-320.000006
 20
0.0
 30
0.0
 11
-684.2111639999999
 21
0.0
 31
0.0
  0
LINE
  5
E05
  8
SIZE
  6
CONTINUOUS
 62
    30
 10
-325.000006
 20
400.000003
 30
0.0
 11
-684.2111639999999
 21
400.000003
 31
0.0
  0
LINE
  5
E06
  8
SIZE
  6
CONTINUOUS
 62
    30
 10
-671.7111639999999
 20
10.0
 30
0.0
 11
-671.7111639999999
 21
390.000003
 31
0.0
  0
CIRCLE
  5
E07
  8
SIZE
  6
CONTINUOUS
 62
    30
 10
-671.7111639999999
 20
0.0
 30
0.0
 40
5.0
  0
LINE
  5
E08
  8
SIZE
  6
CONTINUOUS
 62
    30
 10
-671.7111639999999
 20
0.0
 30
0.0
 11
-671.7111639999999
 21
10.0
 31
0.0
  0
CIRCLE
  5
E09
  8
SIZE
  6
CONTINUOUS
 62
    30
 10
-671.7111639999999
 20
400.000003
 30
0.0
 40
5.0
  0
LINE
  5
E0A
  8
SIZE
  6
CONTINUOUS
 62
    30
 10
-671.7111639999999
 20
400.000003
 30
0.0
 11
-671.7111639999999
 21
390.000003
 31
0.0
  0
TEXT
  5
E0B
  8
SIZE
  6
CONTINUOUS
 62
    30
 10
-681.7111639999999
 20
157.1428601428571
 30
0.0
 40
30.0
  1
400
 50
90.0
 72
     1
 11
-681.7111639999999
 21
200.000003
 31
0.0
  0
POINT
  5
E0C
  8
DEFPOINTS
  6
CONTINUOUS
 62
    30
 10
-310.000006
 20
0.0
 30
0.0
  0
POINT
  5
E0D
  8
DEFPOINTS
  6
CONTINUOUS
 62
    30
 10
-315.000006
 20
400.000003
 30
0.0
  0
POINT
  5
E0E
  8
DEFPOINTS
  6
CONTINUOUS
 62
    30
 10
-671.7111639999999
 20
400.000003
 30
0.0
  0
LINE
  5
E0F
  8
SIZE
  6
CONTINUOUS
 62
    30
 10
-320.000006
 20
0.0
 30
0.0
 11
-584.2111639999999
 21
0.0
 31
0.0
  0
LINE
  5
E10
  8
SIZE
  6
CONTINUOUS
 62
    30
 10
-260.000006
 20
320.000003
 30
0.0
 11
-584.2111639999999
 21
320.000003
 31
0.0
  0
LINE
  5
E11
  8
SIZE
  6
CONTINUOUS
 62
    30
 10
-571.7111639999999
 20
10.0
 30
0.0
 11
-571.7111639999999
 21
310.000003
 31
0.0
  0
CIRCLE
  5
E12
  8
SIZE
  6
CONTINUOUS
 62
    30
 10
-571.7111639999999
 20
0.0
 30
0.0
 40
5.0
  0
LINE
  5
E13
  8
SIZE
  6
CONTINUOUS
 62
    30
 10
-571.7111639999999
 20
0.0
 30
0.0
 11
-571.7111639999999
 21
10.0
 31
0.0
  0
CIRCLE
  5
E14
  8
SIZE
  6
CONTINUOUS
 62
    30
 10
-571.7111639999999
 20
320.000003
 30
0.0
 40
5.0
  0
LINE
  5
E15
  8
SIZE
  6
CONTINUOUS
 62
    30
 10
-571.7111639999999
 20
320.000003
 30
0.0
 11
-571.7111639999999
 21
310.000003
 31
0.0
  0
TEXT
  5
E16
  8
SIZE
  6
CONTINUOUS
 62
    30
 10
-581.7111639999999
 20
117.1428601428571
 30
0.0
 40
30.0
  1
320
 50
90.0
 72
     1
 11
-581.7111639999999
 21
160.000003
 31
0.0
  0
POINT
  5
E17
  8
DEFPOINTS
  6
CONTINUOUS
 62
    30
 10
-310.000006
 20
0.0
 30
0.0
  0
POINT
  5
E18
  8
DEFPOINTS
  6
CONTINUOUS
 62
    30
 10
-250.000006
 20
320.000003
 30
0.0
  0
POINT
  5
E19
  8
DEFPOINTS
  6
CONTINUOUS
 62
    30
 10
-571.7111639999999
 20
320.000003
 30
0.0
  0
LINE
  5
E1A
  8
SIZE
  6
CONTINUOUS
 62
    30
 10
-320.000006
 20
0.0
 30
0.0
 11
-484.211225
 21
0.0
 31
0.0
  0
LINE
  5
E1B
  8
SIZE
  6
CONTINUOUS
 62
    30
 10
-218.000006
 20
155.000003
 30
0.0
 11
-484.211225
 21
155.000003
 31
0.0
  0
LINE
  5
E1C
  8
SIZE
  6
CONTINUOUS
 62
    30
 10
-471.711225
 20
10.0
 30
0.0
 11
-471.711225
 21
145.000003
 31
0.0
  0
CIRCLE
  5
E1D
  8
SIZE
  6
CONTINUOUS
 62
    30
 10
-471.711225
 20
0.0
 30
0.0
 40
5.0
  0
LINE
  5
E1E
  8
SIZE
  6
CONTINUOUS
 62
    30
 10
-471.711225
 20
0.0
 30
0.0
 11
-471.711225
 21
10.0
 31
0.0
  0
CIRCLE
  5
E1F
  8
SIZE
  6
CONTINUOUS
 62
    30
 10
-471.711225
 20
155.000003
 30
0.0
 40
5.0
  0
LINE
  5
E20
  8
SIZE
  6
CONTINUOUS
 62
    30
 10
-471.711225
 20
155.000003
 30
0.0
 11
-471.711225
 21
145.000003
 31
0.0
  0
TEXT
  5
E21
  8
SIZE
  6
CONTINUOUS
 62
    30
 10
-481.711225
 20
32.50000300000001
 30
0.0
 40
30.0
  1
155
 50
90.0
 72
     1
 11
-481.711225
 21
77.500003
 31
0.0
  0
POINT
  5
E22
  8
DEFPOINTS
  6
CONTINUOUS
 62
    30
 10
-310.000006
 20
0.0
 30
0.0
  0
POINT
  5
E23
  8
DEFPOINTS
  6
CONTINUOUS
 62
    30
 10
-208.000006
 20
155.000003
 30
0.0
  0
POINT
  5
E24
  8
DEFPOINTS
  6
CONTINUOUS
 62
    30
 10
-471.711225
 20
155.000003
 30
0.0
  0
LINE
  5
E25
  8
SIZE
  6
CONTINUOUS
 62
    30
 10
277.999994
 20
0.0
 30
0.0
 11
473.45769
 21
0.0
 31
0.0
  0
LINE
  5
E26
  8
SIZE
  6
CONTINUOUS
 62
    30
 10
138.02308
 20
172.500003
 30
0.0
 11
473.45769
 21
172.500003
 31
0.0
  0
LINE
  5
E27
  8
SIZE
  6
CONTINUOUS
 62
    30
 10
460.95769
 20
10.0
 30
0.0
 11
460.95769
 21
162.500003
 31
0.0
  0
CIRCLE
  5
E28
  8
SIZE
  6
CONTINUOUS
 62
    30
 10
460.95769
 20
0.0
 30
0.0
 40
5.0
  0
LINE
  5
E29
  8
SIZE
  6
CONTINUOUS
 62
    30
 10
460.95769
 20
0.0
 30
0.0
 11
460.95769
 21
10.0
 31
0.0
  0
CIRCLE
  5
E2A
  8
SIZE
  6
CONTINUOUS
 62
    30
 10
460.95769
 20
172.500003
 30
0.0
 40
5.0
  0
LINE
  5
E2B
  8
SIZE
  6
CONTINUOUS
 62
    30
 10
460.95769
 20
172.500003
 30
0.0
 11
460.95769
 21
162.500003
 31
0.0
  0
TEXT
  5
E2C
  8
SIZE
  6
CONTINUOUS
 62
    30
 10
450.95769
 20
41.25000300000001
 30
0.0
 40
30.0
  1
173
 50
90.0
 72
     1
 11
450.95769
 21
86.250003
 31
0.0
  0
POINT
  5
E2D
  8
DEFPOINTS
  6
CONTINUOUS
 62
    30
 10
267.999994
 20
0.0
 30
0.0
  0
POINT
  5
E2E
  8
DEFPOINTS
  6
CONTINUOUS
 62
    30
 10
128.02308
 20
172.500003
 30
0.0
  0
POINT
  5
E2F
  8
DEFPOINTS
  6
CONTINUOUS
 62
    30
 10
460.95769
 20
172.500003
 30
0.0
  0
LINE
  5
E30
  8
SIZE
  6
CONTINUOUS
 62
    30
 10
319.999994
 20
0.0
 30
0.0
 11
573.457721
 21
0.0
 31
0.0
  0
LINE
  5
E31
  8
SIZE
  6
CONTINUOUS
 62
    30
 10
100.000001
 20
320.000003
 30
0.0
 11
573.457721
 21
320.000003
 31
0.0
  0
LINE
  5
E32
  8
SIZE
  6
CONTINUOUS
 62
    30
 10
560.957721
 20
10.0
 30
0.0
 11
560.957721
 21
310.000003
 31
0.0
  0
CIRCLE
  5
E33
  8
SIZE
  6
CONTINUOUS
 62
    30
 10
560.957721
 20
0.0
 30
0.0
 40
5.0
  0
LINE
  5
E34
  8
SIZE
  6
CONTINUOUS
 62
    30
 10
560.957721
 20
0.0
 30
0.0
 11
560.957721
 21
10.0
 31
0.0
  0
CIRCLE
  5
E35
  8
SIZE
  6
CONTINUOUS
 62
    30
 10
560.957721
 20
320.000003
 30
0.0
 40
5.0
  0
LINE
  5
E36
  8
SIZE
  6
CONTINUOUS
 62
    30
 10
560.957721
 20
320.000003
 30
0.0
 11
560.957721
 21
310.000003
 31
0.0
  0
TEXT
  5
E37
  8
SIZE
  6
CONTINUOUS
 62
    30
 10
550.957721
 20
117.1428601428571
 30
0.0
 40
30.0
  1
320
 50
90.0
 72
     1
 11
550.957721
 21
160.000003
 31
0.0
  0
POINT
  5
E38
  8
DEFPOINTS
  6
CONTINUOUS
 62
    30
 10
309.999994
 20
0.0
 30
0.0
  0
POINT
  5
E39
  8
DEFPOINTS
  6
CONTINUOUS
 62
    30
 10
90.000001
 20
320.000003
 30
0.0
  0
POINT
  5
E3A
  8
DEFPOINTS
  6
CONTINUOUS
 62
    30
 10
560.957721
 20
320.000003
 30
0.0
  0
LINE
  5
E3B
  8
SIZE
  6
CONTINUOUS
 62
    30
 10
324.999994
 20
0.0
 30
0.0
 11
673.457721
 21
0.0
 31
0.0
  0
LINE
  5
E3C
  8
SIZE
  6
CONTINUOUS
 62
    30
 10
189.999994
 20
360.000003
 30
0.0
 11
673.457721
 21
360.000003
 31
0.0
  0
LINE
  5
E3D
  8
SIZE
  6
CONTINUOUS
 62
    30
 10
660.957721
 20
10.0
 30
0.0
 11
660.957721
 21
350.000003
 31
0.0
  0
CIRCLE
  5
E3E
  8
SIZE
  6
CONTINUOUS
 62
    30
 10
660.957721
 20
0.0
 30
0.0
 40
5.0
  0
LINE
  5
E3F
  8
SIZE
  6
CONTINUOUS
 62
    30
 10
660.957721
 20
0.0
 30
0.0
 11
660.957721
 21
10.0
 31
0.0
  0
CIRCLE
  5
E40
  8
SIZE
  6
CONTINUOUS
 62
    30
 10
660.957721
 20
360.000003
 30
0.0
 40
5.0
  0
LINE
  5
E41
  8
SIZE
  6
CONTINUOUS
 62
    30
 10
660.957721
 20
360.000003
 30
0.0
 11
660.957721
 21
350.000003
 31
0.0
  0
TEXT
  5
E42
  8
SIZE
  6
CONTINUOUS
 62
    30
 10
650.957721
 20
116.4310381428571
 30
0.0
 40
30.0
  1
360
 50
90.0
 72
     1
 11
650.957721
 21
159.288181
 31
0.0
  0
POINT
  5
E43
  8
DEFPOINTS
  6
CONTINUOUS
 62
    30
 10
314.999994
 20
0.0
 30
0.0
  0
POINT
  5
E44
  8
DEFPOINTS
  6
CONTINUOUS
 62
    30
 10
179.999994
 20
360.000003
 30
0.0
  0
POINT
  5
E45
  8
DEFPOINTS
  6
CONTINUOUS
 62
    30
 10
660.957721
 20
360.000003
 30
0.0
  0
LINE
  5
E46
  8
SIZE
  6
CONTINUOUS
 62
    30
 10
324.999994
 20
200.000003
 30
0.0
 11
973.457721
 21
200.000003
 31
0.0
  0
LINE
  5
E47
  8
SIZE
  6
CONTINUOUS
 62
    30
 10
319.999994
 20
0.0
 30
0.0
 11
973.457721
 21
0.0
 31
0.0
  0
LINE
  5
E48
  8
SIZE
  6
CONTINUOUS
 62
    30
 10
960.957721
 20
190.000003
 30
0.0
 11
960.957721
 21
10.0
 31
0.0
  0
CIRCLE
  5
E49
  8
SIZE
  6
CONTINUOUS
 62
    30
 10
960.957721
 20
200.000003
 30
0.0
 40
5.0
  0
LINE
  5
E4A
  8
SIZE
  6
CONTINUOUS
 62
    30
 10
960.957721
 20
200.000003
 30
0.0
 11
960.957721
 21
190.000003
 31
0.0
  0
CIRCLE
  5
E4B
  8
SIZE
  6
CONTINUOUS
 62
    30
 10
960.957721
 20
0.0
 30
0.0
 40
5.0
  0
LINE
  5
E4C
  8
SIZE
  6
CONTINUOUS
 62
    30
 10
960.957721
 20
0.0
 30
0.0
 11
960.957721
 21
10.0
 31
0.0
  0
TEXT
  5
E4D
  8
SIZE
  6
CONTINUOUS
 62
    30
 10
950.957721
 20
57.14286014285715
 30
0.0
 40
30.0
  1
200
 50
90.0
 72
     1
 11
950.957721
 21
100.000003
 31
0.0
  0
POINT
  5
E4E
  8
DEFPOINTS
  6
CONTINUOUS
 62
    30
 10
314.999994
 20
200.000003
 30
0.0
  0
POINT
  5
E4F
  8
DEFPOINTS
  6
CONTINUOUS
 62
    30
 10
309.999994
 20
0.0
 30
0.0
  0
POINT
  5
E50
  8
DEFPOINTS
  6
CONTINUOUS
 62
    30
 10
960.957721
 20
0.0
 30
0.0
  0
LINE
  5
E51
  8
SIZE
  6
CONTINUOUS
 62
    30
 10
-248.000006
 20
-30.000001
 30
0.0
 11
-248.000006
 21
-694.160483
 31
0.0
  0
LINE
  5
E52
  8
SIZE
  6
CONTINUOUS
 62
    30
 10
247.999994
 20
-30.000001
 30
0.0
 11
247.999994
 21
-694.160483
 31
0.0
  0
LINE
  5
E53
  8
SIZE
  6
CONTINUOUS
 62
    30
 10
-238.000006
 20
-681.660483
 30
0.0
 11
237.999994
 21
-681.660483
 31
0.0
  0
CIRCLE
  5
E54
  8
SIZE
  6
CONTINUOUS
 62
    30
 10
-248.000006
 20
-681.660483
 30
0.0
 40
5.0
  0
LINE
  5
E55
  8
SIZE
  6
CONTINUOUS
 62
    30
 10
-248.000006
 20
-681.660483
 30
0.0
 11
-238.000006
 21
-681.660483
 31
0.0
  0
CIRCLE
  5
E56
  8
SIZE
  6
CONTINUOUS
 62
    30
 10
247.999994
 20
-681.660483
 30
0.0
 40
5.0
  0
LINE
  5
E57
  8
SIZE
  6
CONTINUOUS
 62
    30
 10
247.999994
 20
-681.660483
 30
0.0
 11
237.999994
 21
-681.660483
 31
0.0
  0
TEXT
  5
E58
  8
SIZE
  6
CONTINUOUS
 62
    30
 10
-40.92711685714286
 20
-671.660483
 30
0.0
 40
30.0
  1
496
 72
     1
 11
1.930026
 21
-671.660483
 31
0.0
  0
POINT
  5
E59
  8
DEFPOINTS
  6
CONTINUOUS
 62
    30
 10
-248.000006
 20
-20.000001
 30
0.0
  0
POINT
  5
E5A
  8
DEFPOINTS
  6
CONTINUOUS
 62
    30
 10
247.999994
 20
-20.000001
 30
0.0
  0
POINT
  5
E5B
  8
DEFPOINTS
  6
CONTINUOUS
 62
    30
 10
247.999994
 20
-681.660483
 30
0.0
  0
LINE
  5
E5C
  8
SIZE
  6
CONTINUOUS
 62
    30
 10
-201.000006
 20
-30.000001
 30
0.0
 11
-201.000006
 21
-794.160483
 31
0.0
  0
LINE
  5
E5D
  8
SIZE
  6
CONTINUOUS
 62
    30
 10
200.999994
 20
-30.000001
 30
0.0
 11
200.999994
 21
-794.160483
 31
0.0
  0
LINE
  5
E5E
  8
SIZE
  6
CONTINUOUS
 62
    30
 10
-191.000006
 20
-781.660483
 30
0.0
 11
190.999994
 21
-781.660483
 31
0.0
  0
CIRCLE
  5
E5F
  8
SIZE
  6
CONTINUOUS
 62
    30
 10
-201.000006
 20
-781.660483
 30
0.0
 40
5.0
  0
LINE
  5
E60
  8
SIZE
  6
CONTINUOUS
 62
    30
 10
-201.000006
 20
-781.660483
 30
0.0
 11
-191.000006
 21
-781.660483
 31
0.0
  0
CIRCLE
  5
E61
  8
SIZE
  6
CONTINUOUS
 62
    30
 10
200.999994
 20
-781.660483
 30
0.0
 40
5.0
  0
LINE
  5
E62
  8
SIZE
  6
CONTINUOUS
 62
    30
 10
200.999994
 20
-781.660483
 30
0.0
 11
190.999994
 21
-781.660483
 31
0.0
  0
TEXT
  5
E63
  8
SIZE
  6
CONTINUOUS
 62
    30
 10
-38.80309185714286
 20
-771.660483
 30
0.0
 40
30.0
  1
402
 72
     1
 11
4.054051
 21
-771.660483
 31
0.0
  0
POINT
  5
E64
  8
DEFPOINTS
  6
CONTINUOUS
 62
    30
 10
-201.000006
 20
-20.000001
 30
0.0
  0
POINT
  5
E65
  8
DEFPOINTS
  6
CONTINUOUS
 62
    30
 10
200.999994
 20
-20.000001
 30
0.0
  0
POINT
  5
E66
  8
DEFPOINTS
  6
CONTINUOUS
 62
    30
 10
200.999994
 20
-781.660483
 30
0.0
  0
LINE
  5
E67
  8
SIZE
  6
CONTINUOUS
 62
    30
 10
-315.000006
 20
190.000003
 30
0.0
 11
-315.000006
 21
-894.160483
 31
0.0
  0
LINE
  5
E68
  8
SIZE
  6
CONTINUOUS
 62
    30
 10
314.999994
 20
190.000003
 30
0.0
 11
314.999994
 21
-894.160483
 31
0.0
  0
LINE
  5
E69
  8
SIZE
  6
CONTINUOUS
 62
    30
 10
-305.000006
 20
-881.660483
 30
0.0
 11
304.999994
 21
-881.660483
 31
0.0
  0
CIRCLE
  5
E6A
  8
SIZE
  6
CONTINUOUS
 62
    30
 10
-315.000006
 20
-881.660483
 30
0.0
 40
5.0
  0
LINE
  5
E6B
  8
SIZE
  6
CONTINUOUS
 62
    30
 10
-315.000006
 20
-881.660483
 30
0.0
 11
-305.000006
 21
-881.660483
 31
0.0
  0
CIRCLE
  5
E6C
  8
SIZE
  6
CONTINUOUS
 62
    30
 10
314.999994
 20
-881.660483
 30
0.0
 40
5.0
  0
LINE
  5
E6D
  8
SIZE
  6
CONTINUOUS
 62
    30
 10
314.999994
 20
-881.660483
 30
0.0
 11
304.999994
 21
-881.660483
 31
0.0
  0
TEXT
  5
E6E
  8
SIZE
  6
CONTINUOUS
 62
    30
 10
-39.51737357142857
 20
-871.660483
 30
0.0
 40
30.0
  1
630
 72
     1
 11
4.054055
 21
-871.660483
 31
0.0
  0
POINT
  5
E6F
  8
DEFPOINTS
  6
CONTINUOUS
 62
    30
 10
-315.000006
 20
200.000003
 30
0.0
  0
POINT
  5
E70
  8
DEFPOINTS
  6
CONTINUOUS
 62
    30
 10
314.999994
 20
200.000003
 30
0.0
  0
POINT
  5
E71
  8
DEFPOINTS
  6
CONTINUOUS
 62
    30
 10
314.999994
 20
-881.660483
 30
0.0
  0
LINE
  5
E72
  8
SIZE
  6
CONTINUOUS
 62
    30
 10
-201.000006
 20
-30.000001
 30
0.0
 11
-201.000006
 21
-794.160483
 31
0.0
  0
LINE
  5
E73
  8
SIZE
  6
CONTINUOUS
 62
    30
 10
-295.000006
 20
-30.000001
 30
0.0
 11
-295.000006
 21
-794.160483
 31
0.0
  0
LINE
  5
E74
  8
SIZE
  6
CONTINUOUS
 62
    30
 10
-211.000006
 20
-781.660483
 30
0.0
 11
-285.000006
 21
-781.660483
 31
0.0
  0
CIRCLE
  5
E75
  8
SIZE
  6
CONTINUOUS
 62
    30
 10
-201.000006
 20
-781.660483
 30
0.0
 40
5.0
  0
LINE
  5
E76
  8
SIZE
  6
CONTINUOUS
 62
    30
 10
-201.000006
 20
-781.660483
 30
0.0
 11
-211.000006
 21
-781.660483
 31
0.0
  0
CIRCLE
  5
E77
  8
SIZE
  6
CONTINUOUS
 62
    30
 10
-295.000006
 20
-781.660483
 30
0.0
 40
5.0
  0
LINE
  5
E78
  8
SIZE
  6
CONTINUOUS
 62
    30
 10
-295.000006
 20
-781.660483
 30
0.0
 11
-285.000006
 21
-781.660483
 31
0.0
  0
TEXT
  5
E79
  8
SIZE
  6
CONTINUOUS
 62
    30
 10
-277.2857202857143
 20
-771.660483
 30
0.0
 40
30.0
  1
94
 72
     1
 11
-248.000006
 21
-771.660483
 31
0.0
  0
POINT
  5
E7A
  8
DEFPOINTS
  6
CONTINUOUS
 62
    30
 10
-201.000006
 20
-20.000001
 30
0.0
  0
POINT
  5
E7B
  8
DEFPOINTS
  6
CONTINUOUS
 62
    30
 10
-295.000006
 20
-20.000001
 30
0.0
  0
POINT
  5
E7C
  8
DEFPOINTS
  6
CONTINUOUS
 62
    30
 10
-295.000006
 20
-781.660483
 30
0.0
  0
LINE
  5
E7D
  8
SIZE
  6
CONTINUOUS
 62
    30
 10
294.999994
 20
-30.000001
 30
0.0
 11
294.999994
 21
-794.160483
 31
0.0
  0
LINE
  5
E7E
  8
SIZE
  6
CONTINUOUS
 62
    30
 10
200.999994
 20
-30.000001
 30
0.0
 11
200.999994
 21
-794.160483
 31
0.0
  0
LINE
  5
E7F
  8
SIZE
  6
CONTINUOUS
 62
    30
 10
284.999994
 20
-781.660483
 30
0.0
 11
210.999994
 21
-781.660483
 31
0.0
  0
CIRCLE
  5
E80
  8
SIZE
  6
CONTINUOUS
 62
    30
 10
294.999994
 20
-781.660483
 30
0.0
 40
5.0
  0
LINE
  5
E81
  8
SIZE
  6
CONTINUOUS
 62
    30
 10
294.999994
 20
-781.660483
 30
0.0
 11
284.999994
 21
-781.660483
 31
0.0
  0
CIRCLE
  5
E82
  8
SIZE
  6
CONTINUOUS
 62
    30
 10
200.999994
 20
-781.660483
 30
0.0
 40
5.0
  0
LINE
  5
E83
  8
SIZE
  6
CONTINUOUS
 62
    30
 10
200.999994
 20
-781.660483
 30
0.0
 11
210.999994
 21
-781.660483
 31
0.0
  0
TEXT
  5
E84
  8
SIZE
  6
CONTINUOUS
 62
    30
 10
218.7142797142857
 20
-771.660483
 30
0.0
 40
30.0
  1
94
 72
     1
 11
247.999994
 21
-771.660483
 31
0.0
  0
POINT
  5
E85
  8
DEFPOINTS
  6
CONTINUOUS
 62
    30
 10
294.999994
 20
-20.000001
 30
0.0
  0
POINT
  5
E86
  8
DEFPOINTS
  6
CONTINUOUS
 62
    30
 10
200.999994
 20
-20.000001
 30
0.0
  0
POINT
  5
E87
  8
DEFPOINTS
  6
CONTINUOUS
 62
    30
 10
200.999994
 20
-781.660483
 30
0.0
  0
LINE
  5
E88
  8
SIZE
  6
CONTINUOUS
 62
    30
 10
324.999994
 20
0.0
 30
0.0
 11
773.457721
 21
0.0
 31
0.0
  0
LINE
  5
E89
  8
SIZE
  6
CONTINUOUS
 62
    30
 10
324.999994
 20
400.000003
 30
0.0
 11
773.457721
 21
400.000003
 31
0.0
  0
LINE
  5
E8A
  8
SIZE
  6
CONTINUOUS
 62
    30
 10
760.957721
 20
10.0
 30
0.0
 11
760.957721
 21
390.000003
 31
0.0
  0
CIRCLE
  5
E8B
  8
SIZE
  6
CONTINUOUS
 62
    30
 10
760.957721
 20
0.0
 30
0.0
 40
5.0
  0
LINE
  5
E8C
  8
SIZE
  6
CONTINUOUS
 62
    30
 10
760.957721
 20
0.0
 30
0.0
 11
760.957721
 21
10.0
 31
0.0
  0
CIRCLE
  5
E8D
  8
SIZE
  6
CONTINUOUS
 62
    30
 10
760.957721
 20
400.000003
 30
0.0
 40
5.0
  0
LINE
  5
E8E
  8
SIZE
  6
CONTINUOUS
 62
    30
 10
760.957721
 20
400.000003
 30
0.0
 11
760.957721
 21
390.000003
 31
0.0
  0
TEXT
  5
E8F
  8
SIZE
  6
CONTINUOUS
 62
    30
 10
750.957721
 20
157.1428601428571
 30
0.0
 40
30.0
  1
400
 50
90.0
 72
     1
 11
750.957721
 21
200.000003
 31
0.0
  0
POINT
  5
E90
  8
DEFPOINTS
  6
CONTINUOUS
 62
    30
 10
314.999994
 20
0.0
 30
0.0
  0
POINT
  5
E91
  8
DEFPOINTS
  6
CONTINUOUS
 62
    30
 10
314.999994
 20
400.000003
 30
0.0
  0
POINT
  5
E92
  8
DEFPOINTS
  6
CONTINUOUS
 62
    30
 10
760.957721
 20
400.000003
 30
0.0
  0
LINE
  5
E93
  8
SIZE
  6
CONTINUOUS
 62
    30
 10
-283.000006
 20
657.000003
 30
0.0
 11
-784.2111639999999
 21
657.000003
 31
0.0
  0
LINE
  5
E94
  8
SIZE
  6
CONTINUOUS
 62
    30
 10
-287.000006
 20
432.000003
 30
0.0
 11
-784.2111639999999
 21
432.000003
 31
0.0
  0
LINE
  5
E95
  8
SIZE
  6
CONTINUOUS
 62
    30
 10
-771.7111639999999
 20
647.000003
 30
0.0
 11
-771.7111639999999
 21
442.000003
 31
0.0
  0
CIRCLE
  5
E96
  8
SIZE
  6
CONTINUOUS
 62
    30
 10
-771.7111639999999
 20
657.000003
 30
0.0
 40
5.0
  0
LINE
  5
E97
  8
SIZE
  6
CONTINUOUS
 62
    30
 10
-771.7111639999999
 20
657.000003
 30
0.0
 11
-771.7111639999999
 21
647.000003
 31
0.0
  0
CIRCLE
  5
E98
  8
SIZE
  6
CONTINUOUS
 62
    30
 10
-771.7111639999999
 20
432.000003
 30
0.0
 40
5.0
  0
LINE
  5
E99
  8
SIZE
  6
CONTINUOUS
 62
    30
 10
-771.7111639999999
 20
432.000003
 30
0.0
 11
-771.7111639999999
 21
442.000003
 31
0.0
  0
TEXT
  5
E9A
  8
SIZE
  6
CONTINUOUS
 62
    30
 10
-781.7111639999999
 20
501.6428601428571
 30
0.0
 40
30.0
  1
225
 50
90.0
 72
     1
 11
-781.7111639999999
 21
544.500003
 31
0.0
  0
POINT
  5
E9B
  8
DEFPOINTS
  6
CONTINUOUS
 62
    30
 10
-273.000006
 20
657.000003
 30
0.0
  0
POINT
  5
E9C
  8
DEFPOINTS
  6
CONTINUOUS
 62
    30
 10
-277.000006
 20
432.000003
 30
0.0
  0
POINT
  5
E9D
  8
DEFPOINTS
  6
CONTINUOUS
 62
    30
 10
-771.7111639999999
 20
432.000003
 30
0.0
  0
LINE
  5
E9E
  8
SIZE
  6
CONTINUOUS
 62
    30
 10
-287.000006
 20
432.000003
 30
0.0
 11
-684.2111639999999
 21
432.000003
 31
0.0
  0
LINE
  5
E9F
  8
SIZE
  6
CONTINUOUS
 62
    30
 10
-287.000006
 20
652.000003
 30
0.0
 11
-684.2111639999999
 21
652.000003
 31
0.0
  0
LINE
  5
EA0
  8
SIZE
  6
CONTINUOUS
 62
    30
 10
-671.7111639999999
 20
442.000003
 30
0.0
 11
-671.7111639999999
 21
642.000003
 31
0.0
  0
CIRCLE
  5
EA1
  8
SIZE
  6
CONTINUOUS
 62
    30
 10
-671.7111639999999
 20
432.000003
 30
0.0
 40
5.0
  0
LINE
  5
EA2
  8
SIZE
  6
CONTINUOUS
 62
    30
 10
-671.7111639999999
 20
432.000003
 30
0.0
 11
-671.7111639999999
 21
442.000003
 31
0.0
  0
CIRCLE
  5
EA3
  8
SIZE
  6
CONTINUOUS
 62
    30
 10
-671.7111639999999
 20
652.000003
 30
0.0
 40
5.0
  0
LINE
  5
EA4
  8
SIZE
  6
CONTINUOUS
 62
    30
 10
-671.7111639999999
 20
652.000003
 30
0.0
 11
-671.7111639999999
 21
642.000003
 31
0.0
  0
TEXT
  5
EA5
  8
SIZE
  6
CONTINUOUS
 62
    30
 10
-681.7111639999999
 20
499.1428601428571
 30
0.0
 40
30.0
  1
220
 50
90.0
 72
     1
 11
-681.7111639999999
 21
542.000003
 31
0.0
  0
POINT
  5
EA6
  8
DEFPOINTS
  6
CONTINUOUS
 62
    30
 10
-277.000006
 20
432.000003
 30
0.0
  0
POINT
  5
EA7
  8
DEFPOINTS
  6
CONTINUOUS
 62
    30
 10
-277.000006
 20
652.000003
 30
0.0
  0
POINT
  5
EA8
  8
DEFPOINTS
  6
CONTINUOUS
 62
    30
 10
-671.7111639999999
 20
652.000003
 30
0.0
  0
LINE
  5
EA9
  8
SIZE
  6
CONTINUOUS
 62
    30
 10
-285.000006
 20
0.0
 30
0.0
 11
-784.2111639999999
 21
0.0
 31
0.0
  0
LINE
  5
EAA
  8
SIZE
  6
CONTINUOUS
 62
    30
 10
-287.000006
 20
432.000003
 30
0.0
 11
-784.2111639999999
 21
432.000003
 31
0.0
  0
LINE
  5
EAB
  8
SIZE
  6
CONTINUOUS
 62
    30
 10
-771.7111639999999
 20
10.0
 30
0.0
 11
-771.7111639999999
 21
422.000003
 31
0.0
  0
CIRCLE
  5
EAC
  8
SIZE
  6
CONTINUOUS
 62
    30
 10
-771.7111639999999
 20
0.0
 30
0.0
 40
5.0
  0
LINE
  5
EAD
  8
SIZE
  6
CONTINUOUS
 62
    30
 10
-771.7111639999999
 20
0.0
 30
0.0
 11
-771.7111639999999
 21
10.0
 31
0.0
  0
CIRCLE
  5
EAE
  8
SIZE
  6
CONTINUOUS
 62
    30
 10
-771.7111639999999
 20
432.000003
 30
0.0
 40
5.0
  0
LINE
  5
EAF
  8
SIZE
  6
CONTINUOUS
 62
    30
 10
-771.7111639999999
 20
432.000003
 30
0.0
 11
-771.7111639999999
 21
422.000003
 31
0.0
  0
TEXT
  5
EB0
  8
SIZE
  6
CONTINUOUS
 62
    30
 10
-781.7111639999999
 20
173.1428601428571
 30
0.0
 40
30.0
  1
432
 50
90.0
 72
     1
 11
-781.7111639999999
 21
216.000003
 31
0.0
  0
POINT
  5
EB1
  8
DEFPOINTS
  6
CONTINUOUS
 62
    30
 10
-275.000006
 20
0.0
 30
0.0
  0
POINT
  5
EB2
  8
DEFPOINTS
  6
CONTINUOUS
 62
    30
 10
-277.000006
 20
432.000003
 30
0.0
  0
POINT
  5
EB3
  8
DEFPOINTS
  6
CONTINUOUS
 62
    30
 10
-771.7111639999999
 20
432.000003
 30
0.0
  0
LINE
  5
EB4
  8
SIZE
  6
CONTINUOUS
 62
    30
 10
-113.999999
 20
450.000003
 30
0.0
 11
-113.999999
 21
555.63804
 31
0.0
  0
LINE
  5
EB5
  8
SIZE
  6
CONTINUOUS
 62
    30
 10
-285.000006
 20
450.000003
 30
0.0
 11
-285.000006
 21
555.63804
 31
0.0
  0
LINE
  5
EB6
  8
SIZE
  6
CONTINUOUS
 62
    30
 10
-123.999999
 20
543.13804
 30
0.0
 11
-275.000006
 21
543.13804
 31
0.0
  0
CIRCLE
  5
EB7
  8
SIZE
  6
CONTINUOUS
 62
    30
 10
-113.999999
 20
543.13804
 30
0.0
 40
5.0
  0
LINE
  5
EB8
  8
SIZE
  6
CONTINUOUS
 62
    30
 10
-113.999999
 20
543.13804
 30
0.0
 11
-123.999999
 21
543.13804
 31
0.0
  0
CIRCLE
  5
EB9
  8
SIZE
  6
CONTINUOUS
 62
    30
 10
-285.000006
 20
543.13804
 30
0.0
 40
5.0
  0
LINE
  5
EBA
  8
SIZE
  6
CONTINUOUS
 62
    30
 10
-285.000006
 20
543.13804
 30
0.0
 11
-275.000006
 21
543.13804
 31
0.0
  0
TEXT
  5
EBB
  8
SIZE
  6
CONTINUOUS
 62
    30
 10
-240.2142917142857
 20
553.13804
 30
0.0
 40
30.0
  1
171
 72
     1
 11
-199.500006
 21
553.13804
 31
0.0
  0
POINT
  5
EBC
  8
DEFPOINTS
  6
CONTINUOUS
 62
    30
 10
-113.999999
 20
440.000003
 30
0.0
  0
POINT
  5
EBD
  8
DEFPOINTS
  6
CONTINUOUS
 62
    30
 10
-285.000006
 20
440.000003
 30
0.0
  0
POINT
  5
EBE
  8
DEFPOINTS
  6
CONTINUOUS
 62
    30
 10
-285.000006
 20
543.13804
 30
0.0
  0
LINE
  5
EBF
  8
NOTE
  6
CONTINUOUS
 10
743.981134
 20
511.000003
 30
0.0
 11
390.531152
 21
511.000003
 31
0.0
  0
LINE
  5
EC0
  8
NOTE
  6
CONTINUOUS
 10
390.531152
 20
511.000003
 30
0.0
 11
254.999994
 21
360.000003
 31
0.0
  0
LINE
  5
EC1
  8
NOTE
  6
CONTINUOUS
 10
254.999994
 20
360.000003
 30
0.0
 11
255.905168
 21
361.783443
 31
0.0
  0
LINE
  5
EC2
  8
NOTE
  6
CONTINUOUS
 10
254.999994
 20
360.000003
 30
0.0
 11
256.675618
 21
361.091921
 31
0.0
  0
TEXT
  5
EC3
  8
NOTE
  6
CONTINUOUS
 10
438.981164
 20
512.000003
 30
0.0
 40
40.0
  1
BHR R1/2(φ21.7)
 50
359.9999889998961
 41
0.515709
  7
STANDARD1
  0
LINE
  5
EC4
  8
NOTE
  6
CONTINUOUS
 10
724.481134
 20
611.000003
 30
0.0
 11
390.531152
 21
611.000003
 31
0.0
  0
LINE
  5
EC5
  8
NOTE
  6
CONTINUOUS
 10
390.531152
 20
611.000003
 30
0.0
 11
159.999994
 21
360.000003
 31
0.0
  0
LINE
  5
EC6
  8
NOTE
  6
CONTINUOUS
 10
159.999994
 20
360.000003
 30
0.0
 11
160.925532
 21
361.772961
 31
0.0
  0
LINE
  5
EC7
  8
NOTE
  6
CONTINUOUS
 10
159.999994
 20
360.000003
 30
0.0
 11
161.688012
 21
361.07266
 31
0.0
  0
TEXT
  5
EC8
  8
NOTE
  6
CONTINUOUS
 10
438.981164
 20
612.000003
 30
0.0
 40
40.0
  1
BH R1/2(φ21.7)
 50
359.9999890330789
 41
0.517754
  7
STANDARD1
  0
LINE
  5
EC9
  8
NOTE
  6
CONTINUOUS
 10
235.0
 20
360.0
 30
0.0
 11
275.0
 21
360.0
 31
0.0
  0
LINE
  5
ECA
  8
NOTE
  6
CONTINUOUS
 10
255.0
 20
340.0
 30
0.0
 11
255.0
 21
380.0
 31
0.0
  0
LINE
  5
ECB
  8
NOTE
  6
CONTINUOUS
 10
-882.287482
 20
-418.999997
 30
0.0
 11
-548.3374699999999
 21
-418.999997
 31
0.0
  0
LINE
  5
ECC
  8
NOTE
  6
CONTINUOUS
 10
-548.3374699999999
 20
-418.999997
 30
0.0
 11
-188.000006
 21
155.000003
 31
0.0
  0
LINE
  5
ECD
  8
NOTE
  6
CONTINUOUS
 10
-188.000006
 20
155.000003
 30
0.0
 11
-188.588727
 21
153.088614
 31
0.0
  0
LINE
  5
ECE
  8
NOTE
  6
CONTINUOUS
 10
-188.000006
 20
155.000003
 30
0.0
 11
-189.465548
 21
153.639052
 31
0.0
  0
TEXT
  5
ECF
  8
NOTE
  6
CONTINUOUS
 10
-882.287482
 20
-417.999997
 30
0.0
 40
39.99999999999999
  1
WD R3/4(φ27.2)
 50
0.0000029575586669
 41
0.5177540000000002
  7
STANDARD1
  0
LINE
  5
ED0
  8
NOTE
  6
CONTINUOUS
 10
639.363214
 20
-416.66467
 30
0.0
 11
480.913202
 21
-416.66467
 31
0.0
  0
LINE
  5
ED1
  8
NOTE
  6
CONTINUOUS
 10
480.913202
 20
-416.66467
 30
0.0
 11
108.02308
 21
172.500003
 31
0.0
  0
LINE
  5
ED2
  8
NOTE
  6
CONTINUOUS
 10
108.02308
 20
172.500003
 30
0.0
 11
109.493626
 21
171.14446
 31
0.0
  0
LINE
  5
ED3
  8
NOTE
  6
CONTINUOUS
 10
108.02308
 20
172.500003
 30
0.0
 11
108.618838
 21
170.590796
 31
0.0
  0
TEXT
  5
ED4
  8
NOTE
  6
CONTINUOUS
 10
529.363214
 20
-415.66467
 30
0.0
 40
40.0
  1
D φ18
 50
359.9999889998961
 41
0.574479
  7
STANDARD1
  0
LINE
  5
ED5
  8
NOTE
  6
CONTINUOUS
 10
-589.748419
 20
2469.999881
 30
0.0
 11
-283.198432
 21
2469.999881
 31
0.0
  0
LINE
  5
ED6
  8
NOTE
  6
CONTINUOUS
 10
-283.198432
 20
2469.999881
 30
0.0
 11
-20.000001
 21
2214.999881
 31
0.0
  0
LINE
  5
ED7
  8
NOTE
  6
CONTINUOUS
 10
-20.000001
 20
2214.999881
 30
0.0
 11
-21.747654
 21
2215.972357
 31
0.0
  0
LINE
  5
ED8
  8
NOTE
  6
CONTINUOUS
 10
-20.000001
 20
2214.999881
 30
0.0
 11
-21.027275
 21
2216.715896
 31
0.0
  0
TEXT
  5
ED9
  8
NOTE
  6
CONTINUOUS
 10
-589.748419
 20
2470.999881
 30
0.0
 40
39.99999999999999
  1
上部振れ止め金具
 50
0.0000029575586669
 41
0.6729170000000001
  7
STANDARD1
  0
TEXT
  5
EDA
  8
NOTE
  6
CONTINUOUS
 10
-205.260321
 20
2670.693485
 30
0.0
 40
39.99999999999999
  1
メンテナンススペース
 50
0.0000029575586669
 41
0.6729170000000001
  7
STANDARD1
  0
LINE
  5
EDB
  8
NOTE
  6
CONTINUOUS
 10
-10.0
 20
2193.0
 30
0.0
 11
-50.0
 21
2193.0
 31
0.0
  0
LINE
  5
EDC
  8
NOTE
  6
CONTINUOUS
 10
-30.0
 20
2173.0
 30
0.0
 11
-30.0
 21
2213.0
 31
0.0
  0
LINE
  5
EDD
  8
NOTE
  6
CONTINUOUS
 10
484.942193
 20
2469.999881
 30
0.0
 11
280.792199
 21
2469.999881
 31
0.0
  0
LINE
  5
EDE
  8
NOTE
  6
CONTINUOUS
 10
280.792199
 20
2469.999881
 30
0.0
 11
29.999999
 21
2192.999881
 31
0.0
  0
LINE
  5
EDF
  8
NOTE
  6
CONTINUOUS
 10
29.999999
 20
2192.999881
 30
0.0
 11
30.912869
 21
2194.779395
 31
0.0
  0
LINE
  5
EE0
  8
NOTE
  6
CONTINUOUS
 10
29.999999
 20
2192.999881
 30
0.0
 11
31.680324
 21
2194.084551
 31
0.0
  0
TEXT
  5
EE1
  8
NOTE
  6
CONTINUOUS
 10
329.242212
 20
2470.999881
 30
0.0
 40
39.99999999999999
  1
AH 2-M10
 50
0.0000029575586669
 41
0.513158
  7
STANDARD1
  0
LINE
  5
EE2
  8
NOTE
  6
CONTINUOUS
 10
10.0
 20
2193.0
 30
0.0
 11
50.0
 21
2193.0
 31
0.0
  0
LINE
  5
EE3
  8
NOTE
  6
CONTINUOUS
 10
30.0
 20
2173.0
 30
0.0
 11
30.0
 21
2213.0
 31
0.0
  0
TEXT
  5
EE4
  8
NOTE
  6
CONTINUOUS
 10
1127.596185
 20
2159.831424
 30
0.0
 40
40.0
  1
メンテナンススペース
 50
90.00000499999999
 41
0.672917
  7
STANDARD1
  0
LINE
  5
EE5
  8
NOTE
  6
CONTINUOUS
 10
268.0
 20
0.0
 30
0.0
 11
228.0
 21
0.0
 31
0.0
  0
LINE
  5
EE6
  8
NOTE
  6
CONTINUOUS
 10
248.0
 20
-20.0
 30
0.0
 11
248.0
 21
20.0
 31
0.0
  0
LINE
  5
EE7
  8
NOTE
  6
CONTINUOUS
 10
20.0
 20
0.0
 30
0.0
 11
-20.0
 21
0.0
 31
0.0
  0
LINE
  5
EE8
  8
NOTE
  6
CONTINUOUS
 10
0.0
 20
-20.0
 30
0.0
 11
0.0
 21
20.0
 31
0.0
  0
LINE
  5
EE9
  8
NOTE
  6
CONTINUOUS
 10
-228.0
 20
0.0
 30
0.0
 11
-268.0
 21
0.0
 31
0.0
  0
LINE
  5
EEA
  8
NOTE
  6
CONTINUOUS
 10
-248.0
 20
-20.0
 30
0.0
 11
-248.0
 21
20.0
 31
0.0
  0
LINE
  5
EEB
  8
NOTE
  6
CONTINUOUS
 10
685.063226
 20
-316.66467
 30
0.0
 11
480.913202
 21
-316.66467
 31
0.0
  0
LINE
  5
EEC
  8
NOTE
  6
CONTINUOUS
 10
480.913202
 20
-316.66467
 30
0.0
 11
247.999994
 21
0.0
 31
0.0
  0
LINE
  5
EED
  8
NOTE
  6
CONTINUOUS
 10
247.999994
 20
0.0
 30
0.0
 11
249.561623
 21
-1.249526
 31
0.0
  0
LINE
  5
EEE
  8
NOTE
  6
CONTINUOUS
 10
247.999994
 20
0.0
 30
0.0
 11
248.727642
 21
-1.862936
 31
0.0
  0
TEXT
  5
EEF
  8
NOTE
  6
CONTINUOUS
 10
529.363214
 20
-315.66467
 30
0.0
 40
39.99999999999999
  1
AH 3-M12
 50
0.0000029575586669
 41
0.513158
  7
STANDARD1
  0
LINE
  5
EF0
  8
NOTE
  6
CONTINUOUS
 10
-188.0
 20
135.0
 30
0.0
 11
-188.0
 21
175.0
 31
0.0
  0
LINE
  5
EF1
  8
NOTE
  6
CONTINUOUS
 10
-168.0
 20
155.0
 30
0.0
 11
-208.0
 21
155.0
 31
0.0
  0
LINE
  5
EF2
  8
NOTE
  6
CONTINUOUS
 10
108.023086
 20
152.5
 30
0.0
 11
108.023086
 21
192.5
 31
0.0
  0
LINE
  5
EF3
  8
NOTE
  6
CONTINUOUS
 10
88.023086
 20
172.5
 30
0.0
 11
128.023086
 21
172.5
 31
0.0
  0
LINE
  5
EF4
  8
NOTE
  6
CONTINUOUS
 10
685.063226
 20
-149.999997
 30
0.0
 11
480.913202
 21
-149.999997
 31
0.0
  0
LINE
  5
EF5
  8
NOTE
  6
CONTINUOUS
 10
480.913202
 20
-149.999997
 30
0.0
 11
294.999994
 21
0.0
 31
0.0
  0
LINE
  5
EF6
  8
NOTE
  6
CONTINUOUS
 10
294.999994
 20
0.0
 30
0.0
 11
296.828536
 21
-0.810206
 31
0.0
  0
LINE
  5
EF7
  8
NOTE
  6
CONTINUOUS
 10
294.999994
 20
0.0
 30
0.0
 11
296.178455
 21
-1.61593
 31
0.0
  0
TEXT
  5
EF8
  8
NOTE
  6
CONTINUOUS
 10
529.363214
 20
-148.999997
 30
0.0
 40
39.99999999999999
  1
AH 4-M12
 50
0.0000029575586669
 41
0.513158
  7
STANDARD1
  0
LINE
  5
EF9
  8
NOTE
  6
CONTINUOUS
 10
295.0
 20
-20.0
 30
0.0
 11
295.0
 21
20.0
 31
0.0
  0
LINE
  5
EFA
  8
NOTE
  6
CONTINUOUS
 10
315.0
 20
0.0
 30
0.0
 11
275.0
 21
0.0
 31
0.0
  0
LINE
  5
EFB
  8
NOTE
  6
CONTINUOUS
 10
181.0
 20
0.0
 30
0.0
 11
221.0
 21
0.0
 31
0.0
  0
LINE
  5
EFC
  8
NOTE
  6
CONTINUOUS
 10
201.0
 20
-20.0
 30
0.0
 11
201.0
 21
20.0
 31
0.0
  0
LINE
  5
EFD
  8
NOTE
  6
CONTINUOUS
 10
-315.0
 20
0.0
 30
0.0
 11
-275.0
 21
0.0
 31
0.0
  0
LINE
  5
EFE
  8
NOTE
  6
CONTINUOUS
 10
-295.0
 20
-20.0
 30
0.0
 11
-295.0
 21
20.0
 31
0.0
  0
LINE
  5
EFF
  8
NOTE
  6
CONTINUOUS
 10
-181.0
 20
0.0
 30
0.0
 11
-221.0
 21
0.0
 31
0.0
  0
LINE
  5
F00
  8
NOTE
  6
CONTINUOUS
 10
-201.0
 20
-20.0
 30
0.0
 11
-201.0
 21
20.0
 31
0.0
  0
TEXT
  5
F01
  8
NOTE
  6
CONTINUOUS
 10
496.307794
 20
-205.118725
 30
0.0
 40
39.99999999999999
  1
（脚固定金具使用時のみ）
 50
0.0000029575586669
 41
0.6729170000000001
  7
STANDARD1
  0
LINE
  5
F02
  8
NOTE
  6
CONTINUOUS
 10
-199.0
 20
400.0
 30
0.0
 11
-159.0
 21
400.0
 31
0.0
  0
LINE
  5
F03
  8
NOTE
  6
CONTINUOUS
 10
-180.0
 20
380.0
 30
0.0
 11
-180.0
 21
420.0
 31
0.0
  0
LINE
  5
F04
  8
NOTE
  6
CONTINUOUS
 10
-294.0
 20
400.0
 30
0.0
 11
-254.0
 21
400.0
 31
0.0
  0
LINE
  5
F05
  8
NOTE
  6
CONTINUOUS
 10
-275.0
 20
380.0
 30
0.0
 11
-275.0
 21
420.0
 31
0.0
  0
LINE
  5
F06
  8
NOTE
  6
CONTINUOUS
 10
-250.0
 20
320.0
 30
0.0
 11
-210.0
 21
320.0
 31
0.0
  0
LINE
  5
F07
  8
NOTE
  6
CONTINUOUS
 10
-230.0
 20
300.0
 30
0.0
 11
-230.0
 21
340.0
 31
0.0
  0
LINE
  5
F08
  8
NOTE
  6
CONTINUOUS
 10
-882.287482
 20
-238.999997
 30
0.0
 11
-548.3374699999999
 21
-238.999997
 31
0.0
  0
LINE
  5
F09
  8
NOTE
  6
CONTINUOUS
 10
-548.3374699999999
 20
-238.999997
 30
0.0
 11
-230.000006
 21
320.000003
 31
0.0
  0
LINE
  5
F0A
  8
NOTE
  6
CONTINUOUS
 10
-230.000006
 20
320.000003
 30
0.0
 11
-230.506189
 21
318.065118
 31
0.0
  0
LINE
  5
F0B
  8
NOTE
  6
CONTINUOUS
 10
-230.000006
 20
320.000003
 30
0.0
 11
-231.405815
 21
318.577435
 31
0.0
  0
TEXT
  5
F0C
  8
NOTE
  6
CONTINUOUS
 10
-882.287482
 20
-238.000012
 30
0.0
 40
39.99999999999999
  1
HW R3/4(φ27.2)
 50
0.0000029575586669
 41
0.5177540000000002
  7
STANDARD1
  0
LINE
  5
F0D
  8
NOTE
  6
CONTINUOUS
 10
-773.521124
 20
-149.999997
 30
0.0
 11
-556.571112
 21
-149.999997
 31
0.0
  0
LINE
  5
F0E
  8
NOTE
  6
CONTINUOUS
 10
-556.571112
 20
-149.999997
 30
0.0
 11
-275.000006
 21
400.000003
 31
0.0
  0
LINE
  5
F0F
  8
NOTE
  6
CONTINUOUS
 10
-275.000006
 20
400.000003
 30
0.0
 11
-275.419587
 21
398.04451
 31
0.0
  0
LINE
  5
F10
  8
NOTE
  6
CONTINUOUS
 10
-275.000006
 20
400.000003
 30
0.0
 11
-276.34112
 21
398.516287
 31
0.0
  0
TEXT
  5
F11
  8
NOTE
  6
CONTINUOUS
 10
-773.521124
 20
-148.999997
 30
0.0
 40
39.99999999999999
  1
CL φ32.5
 50
0.0000029575586669
 41
0.5410260000000001
  7
STANDARD1
  0
LINE
  5
F12
  8
NOTE
  6
CONTINUOUS
 10
-797.5874699999999
 20
-328.999997
 30
0.0
 11
-548.3374699999999
 21
-328.999997
 31
0.0
  0
LINE
  5
F13
  8
NOTE
  6
CONTINUOUS
 10
-548.3374699999999
 20
-328.999997
 30
0.0
 11
-180.000006
 21
400.000003
 31
0.0
  0
LINE
  5
F14
  8
NOTE
  6
CONTINUOUS
 10
-180.000006
 20
400.000003
 30
0.0
 11
-180.409198
 21
398.04231
 31
0.0
  0
LINE
  5
F15
  8
NOTE
  6
CONTINUOUS
 10
-180.000006
 20
400.000003
 30
0.0
 11
-181.333223
 21
398.509187
 31
0.0
  0
TEXT
  5
F16
  8
NOTE
  6
CONTINUOUS
 10
-797.5874699999999
 20
-327.999997
 30
0.0
 40
39.99999999999999
  1
EL φ49×59
 50
0.0000030783246592
 41
0.5586110000000001
  7
STANDARD1
  0
LINE
  5
F17
  8
NOTE
  6
CONTINUOUS
 10
729.481134
 20
700.000003
 30
0.0
 11
395.531152
 21
700.000003
 31
0.0
  0
LINE
  5
F18
  8
NOTE
  6
CONTINUOUS
 10
395.531152
 20
700.000003
 30
0.0
 11
70.000001
 21
320.000003
 31
0.0
  0
LINE
  5
F19
  8
NOTE
  6
CONTINUOUS
 10
70.000001
 20
320.000003
 30
0.0
 11
70.863712
 21
321.803889
 31
0.0
  0
LINE
  5
F1A
  8
NOTE
  6
CONTINUOUS
 10
70.000001
 20
320.000003
 30
0.0
 11
71.64994
 21
321.130358
 31
0.0
  0
TEXT
  5
F1B
  8
NOTE
  6
CONTINUOUS
 10
443.981164
 20
701.000003
 30
0.0
 40
39.99999999999999
  1
CW R3/4(φ27.2)
 50
0.0000029575586669
 41
0.5177540000000002
  7
STANDARD1
  0
LINE
  5
F1C
  8
NOTE
  6
CONTINUOUS
 10
160.0
 20
340.0
 30
0.0
 11
160.0
 21
380.0
 31
0.0
  0
LINE
  5
F1D
  8
NOTE
  6
CONTINUOUS
 10
140.0
 20
360.0
 30
0.0
 11
180.0
 21
360.0
 31
0.0
  0
LINE
  5
F1E
  8
NOTE
  6
CONTINUOUS
 10
50.0
 20
320.0
 30
0.0
 11
90.0
 21
320.0
 31
0.0
  0
LINE
  5
F1F
  8
NOTE
  6
CONTINUOUS
 10
70.0
 20
300.0
 30
0.0
 11
70.0
 21
340.0
 31
0.0
  0
CIRCLE
  5
F20
  8
ARRANGE
  6
CONTINUOUS
 10
0.0
 20
0.0
 30
0.0
 40
15.0
  0
CIRCLE
  5
F21
  8
FIX
  6
CONTINUOUS
 10
-30.0
 20
2193.0
 30
0.0
 40
5.0
  0
CIRCLE
  5
F22
  8
FIX
  6
CONTINUOUS
 10
30.0
 20
2193.0
 30
0.0
 40
5.0
  0
CIRCLE
  5
F23
  8
FIX
  6
CONTINUOUS
 10
248.0
 20
0.0
 30
0.0
 40
6.0
  0
CIRCLE
  5
F24
  8
FIX
  6
CONTINUOUS
 10
0.0
 20
0.0
 30
0.0
 40
6.0
  0
CIRCLE
  5
F25
  8
FIX
  6
CONTINUOUS
 10
-248.0
 20
0.0
 30
0.0
 40
6.0
  0
CIRCLE
  5
F26
  8
FIX
  6
CONTINUOUS
 10
-295.0
 20
0.0
 30
0.0
 40
6.0
  0
CIRCLE
  5
F27
  8
FIX
  6
CONTINUOUS
 10
-201.0
 20
0.0
 30
0.0
 40
6.0
  0
CIRCLE
  5
F28
  8
FIX
  6
CONTINUOUS
 10
201.0
 20
0.0
 30
0.0
 40
6.0
  0
CIRCLE
  5
F29
  8
FIX
  6
CONTINUOUS
 10
248.0
 20
0.0
 30
0.0
 40
6.0
  0
CIRCLE
  5
F2A
  8
FIX
  6
CONTINUOUS
 10
295.0
 20
0.0
 30
0.0
 40
6.0
  0
LINE
  5
F2B
  8
SERVICESPACE
  6
DASHDOT
 10
-315.0
 20
2170.0
 30
0.0
 11
-315.0
 21
2370.0
 31
0.0
  0
LINE
  5
F2C
  8
SERVICESPACE
  6
DASHDOT
 10
-315.0
 20
2170.0
 30
0.0
 11
315.0
 21
2170.0
 31
0.0
  0
LINE
  5
F2D
  8
SERVICESPACE
  6
DASHDOT
 10
315.0
 20
2170.0
 30
0.0
 11
315.0
 21
2370.0
 31
0.0
  0
LINE
  5
F2E
  8
SERVICESPACE
  6
DASHDOT
 10
-315.0
 20
2370.0
 30
0.0
 11
315.0
 21
2370.0
 31
0.0
  0
LINE
  5
F2F
  8
SERVICESPACE
  6
DASHDOT
 10
-315.0
 20
2370.0
 30
0.0
 11
315.0
 21
2170.0
 31
0.0
  0
LINE
  5
F30
  8
SERVICESPACE
  6
DASHDOT
 10
315.0
 20
2370.0
 30
0.0
 11
-315.0
 21
2170.0
 31
0.0
  0
TEXT
  5
F31
  8
ETC
  6
CONTINUOUS
 10
640.4471980000001
 20
2663.996463
 30
0.0
 40
39.99999999999999
  1
TT46W22
 50
0.0000028316468405
 41
0.4875000000000001
  7
STANDARD1
  0
TEXT
  5
F32
  8
ETC
  6
CONTINUOUS
 10
640.4471980000001
 20
2622.496463
 30
0.0
 40
39.99999999999999
  1
電気温水器
 50
0.0000029575586669
 41
0.6729170000000001
  7
STANDARD1
  0
ENDSEC
  0
EOF
