  0
SECTION
  2
HEADER
  9
$ACADVER
  1
AC1009
  9
$DWGCODEPAGE
  3
dos932
  9
$INSBASE
 10
0.0
 20
0.0
 30
0.0
  9
$EXTMIN
 10
-1535.571868
 20
-1081.38894
 30
0.0
  9
$EXTMAX
 10
638.205139
 20
2569.160338
 30
0.0
  9
$LIMMIN
 10
0.0
 20
0.0
  9
$LIMMAX
 10
12.0
 20
9.0
  9
$ORTHOMODE
 70
     0
  9
$REGENMODE
 70
     1
  9
$FILLMODE
 70
     1
  9
$QTEXTMODE
 70
     0
  9
$MIRRTEXT
 70
     1
  9
$DRAGMODE
 70
     2
  9
$LTSCALE
 40
1.0
  9
$OSMODE
 70
    37
  9
$ATTMODE
 70
     1
  9
$TEXTSIZE
 40
2.8
  9
$TRACEWID
 40
0.05
  9
$TEXTSTYLE
  7
STANDARD1
  9
$CLAYER
  8
0
  9
$CELTYPE
  6
CONTINUOUS
  9
$CECOLOR
 62
   256
  9
$DIMSCALE
 40
1.0
  9
$DIMASZ
 40
10.0
  9
$DIMEXO
 40
10.0
  9
$DIMDLI
 40
8.0
  9
$DIMRND
 40
0.0
  9
$DIMDLE
 40
0.0
  9
$DIMEXE
 40
12.5
  9
$DIMTP
 40
0.0
  9
$DIMTM
 40
0.0
  9
$DIMTXT
 40
30.0
  9
$DIMCEN
 40
2.5
  9
$DIMTSZ
 40
0.0
  9
$DIMTOL
 70
     0
  9
$DIMLIM
 70
     0
  9
$DIMTIH
 70
     0
  9
$DIMTOH
 70
     0
  9
$DIMSE1
 70
     0
  9
$DIMSE2
 70
     0
  9
$DIMTAD
 70
     3
  9
$DIMZIN
 70
    12
  9
$DIMBLK
  1

  9
$DIMASO
 70
     1
  9
$DIMSHO
 70
     1
  9
$DIMPOST
  1

  9
$DIMAPOST
  1

  9
$DIMALT
 70
     0
  9
$DIMALTD
 70
     4
  9
$DIMALTF
 40
25.4
  9
$DIMLFAC
 40
1.0
  9
$DIMTOFL
 70
     1
  9
$DIMTVP
 40
0.0
  9
$DIMTIX
 70
     0
  9
$DIMSOXD
 70
     0
  9
$DIMSAH
 70
     1
  9
$DIMBLK1
  1
ORIGIN
  9
$DIMBLK2
  1
ORIGIN
  9
$DIMSTYLE
  2
STANDARD
  9
$DIMCLRD
 70
     0
  9
$DIMCLRE
 70
     0
  9
$DIMCLRT
 70
     0
  9
$DIMTFAC
 40
0.714286
  9
$DIMGAP
 40
10.0
  9
$LUNITS
 70
     2
  9
$LUPREC
 70
     3
  9
$SKETCHINC
 40
0.1
  9
$FILLETRAD
 40
0.0
  9
$AUNITS
 70
     0
  9
$AUPREC
 70
     0
  9
$MENU
  1
acad
  9
$ELEVATION
 40
0.0
  9
$PELEVATION
 40
0.0
  9
$THICKNESS
 40
0.0
  9
$LIMCHECK
 70
     0
  9
$CHAMFERA
 40
0.0
  9
$CHAMFERB
 40
0.0
  9
$SKPOLY
 70
     0
  9
$TDCREATE
 40
2454359.440497685
  9
$TDUPDATE
 40
2457459.559532604
  9
$TDINDWG
 40
0.0
  9
$TDUSRTIMER
 40
0.0
  9
$USRTIMER
 70
     1
  9
$ANGBASE
 50
0.0
  9
$ANGDIR
 70
     0
  9
$PDMODE
 70
     0
  9
$PDSIZE
 40
0.0
  9
$PLINEWID
 40
0.0
  9
$COORDS
 70
     1
  9
$SPLFRAME
 70
     0
  9
$SPLINETYPE
 70
     6
  9
$SPLINESEGS
 70
     8
  9
$ATTDIA
 70
     0
  9
$ATTREQ
 70
     1
  9
$HANDLING
 70
     1
  9
$HANDSEED
  5
BE7
  9
$SURFTAB1
 70
     6
  9
$SURFTAB2
 70
     6
  9
$SURFTYPE
 70
     6
  9
$SURFU
 70
     6
  9
$SURFV
 70
     6
  9
$UCSNAME
  2

  9
$UCSORG
 10
0.0
 20
0.0
 30
0.0
  9
$UCSXDIR
 10
1.0
 20
0.0
 30
0.0
  9
$UCSYDIR
 10
0.0
 20
1.0
 30
0.0
  9
$PUCSNAME
  2

  9
$PUCSORG
 10
0.0
 20
0.0
 30
0.0
  9
$PUCSXDIR
 10
1.0
 20
0.0
 30
0.0
  9
$PUCSYDIR
 10
0.0
 20
1.0
 30
0.0
  9
$USERI1
 70
     0
  9
$USERI2
 70
     0
  9
$USERI3
 70
     0
  9
$USERI4
 70
     0
  9
$USERI5
 70
     0
  9
$USERR1
 40
0.0
  9
$USERR2
 40
0.0
  9
$USERR3
 40
0.0
  9
$USERR4
 40
0.0
  9
$USERR5
 40
0.0
  9
$WORLDVIEW
 70
     1
  9
$SHADEDGE
 70
     3
  9
$SHADEDIF
 70
    70
  9
$TILEMODE
 70
     1
  9
$MAXACTVP
 70
    48
  9
$PLIMCHECK
 70
     0
  9
$PEXTMIN
 10
1.000000000000000E+20
 20
1.000000000000000E+20
 30
1.000000000000000E+20
  9
$PEXTMAX
 10
-1.000000000000000E+20
 20
-1.000000000000000E+20
 30
-1.000000000000000E+20
  9
$PLIMMIN
 10
0.0
 20
0.0
  9
$PLIMMAX
 10
12.0
 20
9.0
  9
$UNITMODE
 70
     0
  9
$VISRETAIN
 70
     1
  9
$PLINEGEN
 70
     0
  9
$PSLTSCALE
 70
     1
  0
ENDSEC
  0
SECTION
  2
TABLES
  0
TABLE
  2
VPORT
 70
     1
  0
VPORT
  2
*ACTIVE
 70
     0
 10
0.0
 20
0.0
 11
1.0
 21
1.0
 12
-448.683365
 22
747.935699
 13
0.0
 23
0.0
 14
1.0
 24
1.0
 15
0.0
 25
0.0
 16
0.0
 26
0.0
 36
1.0
 17
0.0
 27
0.0
 37
0.0
 40
3711.829265
 41
2.745223
 42
50.0
 43
0.0
 44
0.0
 50
0.0
 51
0.0
 71
     0
 72
   100
 73
     1
 74
     1
 75
     0
 76
     0
 77
     0
 78
     0
  0
ENDTAB
  0
TABLE
  2
LTYPE
 70
     4
  0
LTYPE
  2
CONTINUOUS
 70
     0
  3
Solid line
 72
    65
 73
     0
 40
0.0
  0
LTYPE
  2
DASHED
 70
     0
  3
-- -- -- -- -- -- -- -- -- -- -- -- -- -- --
 72
    65
 73
     2
 40
0.75
 49
0.5
 49
-0.25
  0
LTYPE
  2
DASHDOT
 70
     0
  3
__ . __ . __ . __ . __ . __ . __ . __ . __ . __
 72
    65
 73
     4
 40
125.0
 49
80.0
 49
-20.0
 49
5.0
 49
-20.0
  0
LTYPE
  2
DIVIDE
 70
     0
  3
__ . . __ . . __ . . __ . . __ . . __ . . __
 72
    65
 73
     6
 40
1.25
 49
0.5
 49
-0.25
 49
0.0
 49
-0.25
 49
0.0
 49
-0.25
  0
ENDTAB
  0
TABLE
  2
LAYER
 70
    12
  0
LAYER
  2
0
 70
     0
 62
     3
  6
CONTINUOUS
  0
LAYER
  2
OUTLINE
 70
     0
 62
     3
  6
CONTINUOUS
  0
LAYER
  2
DETAIL
 70
     0
 62
     5
  6
CONTINUOUS
  0
LAYER
  2
BASIS
 70
     0
 62
     6
  6
CONTINUOUS
  0
LAYER
  2
SIZE
 70
     0
 62
    30
  6
CONTINUOUS
  0
LAYER
  2
NOTE
 70
     0
 62
     4
  6
CONTINUOUS
  0
LAYER
  2
ARRANGE
 70
     0
 62
     1
  6
CONTINUOUS
  0
LAYER
  2
FIX
 70
     0
 62
    11
  6
CONTINUOUS
  0
LAYER
  2
SERVICESPACE
 70
     0
 62
     2
  6
CONTINUOUS
  0
LAYER
  2
ETC
 70
     0
 62
    61
  6
CONTINUOUS
  0
LAYER
  2
SYMBOLLINE
 70
     0
 62
     7
  6
CONTINUOUS
  0
LAYER
  2
DEFPOINTS
 70
     0
 62
     7
  6
CONTINUOUS
  0
ENDTAB
  0
TABLE
  2
STYLE
 70
     5
  0
STYLE
  2
STANDARD
 70
     0
 40
0.0
 41
1.0
 50
0.0
 71
     0
 42
0.2
  3
txt
  4

  0
STYLE
  2
STANDARD1
 70
     0
 40
0.0
 41
1.0
 50
0.0
 71
     0
 42
2.8
  3
MONOTXT
  4
BIGFONT
  0
STYLE
  2
STANDARD2
 70
     4
 40
0.0
 41
1.0
 50
0.0
 71
     0
 42
2.8
  3
MONOTXT
  4
BIGFONT
  0
STYLE
  2
STANDARD3
 70
     0
 40
0.0
 41
1.0
 50
0.0
 71
     0
 42
2.8
  3
MONOTXT
  4

  0
STYLE
  2
STANDARD4
 70
     4
 40
0.0
 41
1.0
 50
0.0
 71
     0
 42
2.8
  3
MONOTXT
  4

  0
ENDTAB
  0
TABLE
  2
VIEW
 70
     0
  0
ENDTAB
  0
TABLE
  2
UCS
 70
     0
  0
ENDTAB
  0
TABLE
  2
APPID
 70
     1
  0
APPID
  2
ACAD
 70
     0
  0
ENDTAB
  0
TABLE
  2
DIMSTYLE
 70
     1
  0
DIMSTYLE
  2
STANDARD
 70
     0
  3

  4

  5

  6

  7

 40
1.0
 41
0.18
 42
0.0625
 43
0.38
 44
0.18
 45
0.0
 46
0.0
 47
0.0
 48
0.0
140
0.18
141
0.09
142
0.0
143
25.4
144
1.0
145
0.0
146
1.0
147
0.09
 71
     0
 72
     0
 73
     1
 74
     1
 75
     0
 76
     0
 77
     0
 78
     0
170
     0
171
     2
172
     0
173
     0
174
     0
175
     0
176
     0
177
     0
178
     0
  0
ENDTAB
  0
ENDSEC
  0
SECTION
  2
BLOCKS
  0
BLOCK
  8
0
  2
$MODEL_SPACE
 70
     0
 10
0.0
 20
0.0
 30
0.0
  3
$MODEL_SPACE
  1

  0
ENDBLK
  5
BB9
  8
0
  0
BLOCK
 67
     1
  8
0
  2
$PAPER_SPACE
 70
     0
 10
0.0
 20
0.0
 30
0.0
  3
$PAPER_SPACE
  1

  0
ENDBLK
  5
BBB
 67
     1
  8
0
  0
BLOCK
  8
SIZE
  2
*D0
 70
     1
 10
0.0
 20
0.0
 30
0.0
  3
*D0
  1

  0
TEXT
  5
56D
  8
SIZE
  6
CONTINUOUS
 10
-801.583252
 20
503.643793
 30
0.0
 40
2.8
  1
44
 50
0.000003
 41
0.7
  7
STANDARD1
  0
LINE
  5
56E
  8
SIZE
  6
CONTINUOUS
 10
-759.729736
 20
0.459459
 30
0.0
 11
-759.729736
 21
504.643799
 31
0.0
  0
LINE
  5
56F
  8
SIZE
  6
CONTINUOUS
 10
-715.729736
 20
420.459473
 30
0.0
 11
-715.729736
 21
504.643799
 31
0.0
  0
LINE
  5
570
  8
SIZE
  6
CONTINUOUS
 10
-802.983215
 20
502.643799
 30
0.0
 11
-710.729736
 21
502.643799
 31
0.0
  0
CIRCLE
  5
571
  8
SIZE
  6
CONTINUOUS
 10
-759.729736
 20
502.643799
 30
0.0
 40
0.5
  0
CIRCLE
  5
572
  8
SIZE
  6
CONTINUOUS
 10
-759.729736
 20
502.643799
 30
0.0
 40
0.4
  0
CIRCLE
  5
573
  8
SIZE
  6
CONTINUOUS
 10
-759.729736
 20
502.643799
 30
0.0
 40
0.3
  0
CIRCLE
  5
574
  8
SIZE
  6
CONTINUOUS
 10
-759.729736
 20
502.643799
 30
0.0
 40
0.2
  0
CIRCLE
  5
575
  8
SIZE
  6
CONTINUOUS
 10
-759.729736
 20
502.643799
 30
0.0
 40
0.1
  0
CIRCLE
  5
576
  8
SIZE
  6
CONTINUOUS
 10
-715.729736
 20
502.643799
 30
0.0
 40
0.5
  0
CIRCLE
  5
577
  8
SIZE
  6
CONTINUOUS
 10
-715.729736
 20
502.643799
 30
0.0
 40
0.4
  0
CIRCLE
  5
578
  8
SIZE
  6
CONTINUOUS
 10
-715.729736
 20
502.643799
 30
0.0
 40
0.3
  0
CIRCLE
  5
579
  8
SIZE
  6
CONTINUOUS
 10
-715.729736
 20
502.643799
 30
0.0
 40
0.2
  0
CIRCLE
  5
57A
  8
SIZE
  6
CONTINUOUS
 10
-715.729736
 20
502.643799
 30
0.0
 40
0.1
  0
POINT
  5
57B
  8
DEFPOINTS
  6
BYBLOCK
 10
-715.729736
 20
419.459473
 30
0.0
  0
POINT
  5
57C
  8
DEFPOINTS
  6
BYBLOCK
 10
-759.729736
 20
-0.540541
 30
0.0
  0
POINT
  5
57D
  8
DEFPOINTS
  6
BYBLOCK
 10
-759.729736
 20
502.643799
 30
0.0
  0
ENDBLK
  5
57E
  8
SIZE
  0
BLOCK
  8
SIZE
  2
*D1
 70
     1
 10
0.0
 20
0.0
 30
0.0
  3
*D1
  1

  0
TEXT
  5
581
  8
SIZE
  6
CONTINUOUS
 10
-820.539551
 20
603.643823
 30
0.0
 40
2.8
  1
53
 50
0.000003
 41
0.7
  7
STANDARD1
  0
LINE
  5
582
  8
SIZE
  6
CONTINUOUS
 10
-759.729736
 20
0.459459
 30
0.0
 11
-759.729736
 21
604.643799
 31
0.0
  0
LINE
  5
583
  8
SIZE
  6
CONTINUOUS
 10
-706.729736
 20
420.459473
 30
0.0
 11
-706.729736
 21
604.643799
 31
0.0
  0
LINE
  5
584
  8
SIZE
  6
CONTINUOUS
 10
-821.939514
 20
602.643799
 30
0.0
 11
-701.729736
 21
602.643799
 31
0.0
  0
CIRCLE
  5
585
  8
SIZE
  6
CONTINUOUS
 10
-759.729736
 20
602.643799
 30
0.0
 40
0.5
  0
CIRCLE
  5
586
  8
SIZE
  6
CONTINUOUS
 10
-759.729736
 20
602.643799
 30
0.0
 40
0.4
  0
CIRCLE
  5
587
  8
SIZE
  6
CONTINUOUS
 10
-759.729736
 20
602.643799
 30
0.0
 40
0.3
  0
CIRCLE
  5
588
  8
SIZE
  6
CONTINUOUS
 10
-759.729736
 20
602.643799
 30
0.0
 40
0.2
  0
CIRCLE
  5
589
  8
SIZE
  6
CONTINUOUS
 10
-759.729736
 20
602.643799
 30
0.0
 40
0.1
  0
CIRCLE
  5
58A
  8
SIZE
  6
CONTINUOUS
 10
-706.729736
 20
602.643799
 30
0.0
 40
0.5
  0
CIRCLE
  5
58B
  8
SIZE
  6
CONTINUOUS
 10
-706.729736
 20
602.643799
 30
0.0
 40
0.4
  0
CIRCLE
  5
58C
  8
SIZE
  6
CONTINUOUS
 10
-706.729736
 20
602.643799
 30
0.0
 40
0.3
  0
CIRCLE
  5
58D
  8
SIZE
  6
CONTINUOUS
 10
-706.729736
 20
602.643799
 30
0.0
 40
0.2
  0
CIRCLE
  5
58E
  8
SIZE
  6
CONTINUOUS
 10
-706.729736
 20
602.643799
 30
0.0
 40
0.1
  0
POINT
  5
58F
  8
DEFPOINTS
  6
BYBLOCK
 10
-706.729736
 20
419.459473
 30
0.0
  0
POINT
  5
590
  8
DEFPOINTS
  6
BYBLOCK
 10
-759.729736
 20
-0.540541
 30
0.0
  0
POINT
  5
591
  8
DEFPOINTS
  6
BYBLOCK
 10
-759.729736
 20
602.643799
 30
0.0
  0
ENDBLK
  5
592
  8
SIZE
  0
BLOCK
  8
SIZE
  2
*D2
 70
     1
 10
0.0
 20
0.0
 30
0.0
  3
*D2
  1

  0
TEXT
  5
595
  8
SIZE
  6
CONTINUOUS
 10
-897.344543
 20
803.643823
 30
0.0
 40
2.8
  1
190
 50
0.000003
 41
0.7
  7
STANDARD1
  0
LINE
  5
596
  8
SIZE
  6
CONTINUOUS
 10
-759.729736
 20
0.459459
 30
0.0
 11
-759.729736
 21
804.643799
 31
0.0
  0
LINE
  5
597
  8
SIZE
  6
CONTINUOUS
 10
-569.729736
 20
400.459473
 30
0.0
 11
-569.729736
 21
804.643799
 31
0.0
  0
LINE
  5
598
  8
SIZE
  6
CONTINUOUS
 10
-898.744568
 20
802.643799
 30
0.0
 11
-564.729736
 21
802.643799
 31
0.0
  0
CIRCLE
  5
599
  8
SIZE
  6
CONTINUOUS
 10
-759.729736
 20
802.643799
 30
0.0
 40
0.5
  0
CIRCLE
  5
59A
  8
SIZE
  6
CONTINUOUS
 10
-759.729736
 20
802.643799
 30
0.0
 40
0.4
  0
CIRCLE
  5
59B
  8
SIZE
  6
CONTINUOUS
 10
-759.729736
 20
802.643799
 30
0.0
 40
0.3
  0
CIRCLE
  5
59C
  8
SIZE
  6
CONTINUOUS
 10
-759.729736
 20
802.643799
 30
0.0
 40
0.2
  0
CIRCLE
  5
59D
  8
SIZE
  6
CONTINUOUS
 10
-759.729736
 20
802.643799
 30
0.0
 40
0.1
  0
CIRCLE
  5
59E
  8
SIZE
  6
CONTINUOUS
 10
-569.729736
 20
802.643799
 30
0.0
 40
0.5
  0
CIRCLE
  5
59F
  8
SIZE
  6
CONTINUOUS
 10
-569.729736
 20
802.643799
 30
0.0
 40
0.4
  0
CIRCLE
  5
5A0
  8
SIZE
  6
CONTINUOUS
 10
-569.729736
 20
802.643799
 30
0.0
 40
0.3
  0
CIRCLE
  5
5A1
  8
SIZE
  6
CONTINUOUS
 10
-569.729736
 20
802.643799
 30
0.0
 40
0.2
  0
CIRCLE
  5
5A2
  8
SIZE
  6
CONTINUOUS
 10
-569.729736
 20
802.643799
 30
0.0
 40
0.1
  0
POINT
  5
5A3
  8
DEFPOINTS
  6
BYBLOCK
 10
-569.729736
 20
399.459473
 30
0.0
  0
POINT
  5
5A4
  8
DEFPOINTS
  6
BYBLOCK
 10
-759.729736
 20
-0.540541
 30
0.0
  0
POINT
  5
5A5
  8
DEFPOINTS
  6
BYBLOCK
 10
-759.729736
 20
802.643799
 30
0.0
  0
ENDBLK
  5
5A6
  8
SIZE
  0
BLOCK
  8
SIZE
  2
*D3
 70
     1
 10
0.0
 20
0.0
 30
0.0
  3
*D3
  1

  0
TEXT
  5
5A9
  8
SIZE
  6
CONTINUOUS
 10
-39.689712
 20
-870.288916
 30
0.0
 40
2.8
  1
76
 50
0.000003
 41
0.7
  7
STANDARD1
  0
LINE
  5
5AA
  8
SIZE
  6
CONTINUOUS
 10
0.270286
 20
198.459457
 30
0.0
 11
0.270286
 21
-873.28894
 31
0.0
  0
LINE
  5
5AB
  8
SIZE
  6
CONTINUOUS
 10
-75.729713
 20
-21.540541
 30
0.0
 11
-75.729713
 21
-873.28894
 31
0.0
  0
LINE
  5
5AC
  8
SIZE
  6
CONTINUOUS
 10
0.270286
 20
-871.28894
 30
0.0
 11
-75.729713
 21
-871.28894
 31
0.0
  0
CIRCLE
  5
5AD
  8
SIZE
  6
CONTINUOUS
 10
0.270286
 20
-871.28894
 30
0.0
 40
0.5
  0
CIRCLE
  5
5AE
  8
SIZE
  6
CONTINUOUS
 10
0.270286
 20
-871.28894
 30
0.0
 40
0.4
  0
CIRCLE
  5
5AF
  8
SIZE
  6
CONTINUOUS
 10
0.270286
 20
-871.28894
 30
0.0
 40
0.3
  0
CIRCLE
  5
5B0
  8
SIZE
  6
CONTINUOUS
 10
0.270286
 20
-871.28894
 30
0.0
 40
0.2
  0
CIRCLE
  5
5B1
  8
SIZE
  6
CONTINUOUS
 10
0.270286
 20
-871.28894
 30
0.0
 40
0.1
  0
CIRCLE
  5
5B2
  8
SIZE
  6
CONTINUOUS
 10
-75.729713
 20
-871.28894
 30
0.0
 40
0.5
  0
CIRCLE
  5
5B3
  8
SIZE
  6
CONTINUOUS
 10
-75.729713
 20
-871.28894
 30
0.0
 40
0.4
  0
CIRCLE
  5
5B4
  8
SIZE
  6
CONTINUOUS
 10
-75.729713
 20
-871.28894
 30
0.0
 40
0.3
  0
CIRCLE
  5
5B5
  8
SIZE
  6
CONTINUOUS
 10
-75.729713
 20
-871.28894
 30
0.0
 40
0.2
  0
CIRCLE
  5
5B6
  8
SIZE
  6
CONTINUOUS
 10
-75.729713
 20
-871.28894
 30
0.0
 40
0.1
  0
POINT
  5
5B7
  8
DEFPOINTS
  6
BYBLOCK
 10
-75.729713
 20
-20.540541
 30
0.0
  0
POINT
  5
5B8
  8
DEFPOINTS
  6
BYBLOCK
 10
0.270286
 20
199.459457
 30
0.0
  0
POINT
  5
5B9
  8
DEFPOINTS
  6
BYBLOCK
 10
0.270286
 20
-871.28894
 30
0.0
  0
ENDBLK
  5
5BA
  8
SIZE
  0
BLOCK
  8
SIZE
  2
*D4
 70
     1
 10
0.0
 20
0.0
 30
0.0
  3
*D4
  1

  0
TEXT
  5
5BD
  8
SIZE
  6
CONTINUOUS
 10
-58.669712
 20
-970.288916
 30
0.0
 40
2.8
  1
112
 50
0.000003
 41
0.7
  7
STANDARD1
  0
LINE
  5
5BE
  8
SIZE
  6
CONTINUOUS
 10
-111.729713
 20
-21.540541
 30
0.0
 11
-111.729713
 21
-973.28894
 31
0.0
  0
LINE
  5
5BF
  8
SIZE
  6
CONTINUOUS
 10
0.270286
 20
198.459457
 30
0.0
 11
0.270286
 21
-973.28894
 31
0.0
  0
LINE
  5
5C0
  8
SIZE
  6
CONTINUOUS
 10
-111.729713
 20
-971.28894
 30
0.0
 11
0.270286
 21
-971.28894
 31
0.0
  0
CIRCLE
  5
5C1
  8
SIZE
  6
CONTINUOUS
 10
-111.729713
 20
-971.28894
 30
0.0
 40
0.5
  0
CIRCLE
  5
5C2
  8
SIZE
  6
CONTINUOUS
 10
-111.729713
 20
-971.28894
 30
0.0
 40
0.4
  0
CIRCLE
  5
5C3
  8
SIZE
  6
CONTINUOUS
 10
-111.729713
 20
-971.28894
 30
0.0
 40
0.3
  0
CIRCLE
  5
5C4
  8
SIZE
  6
CONTINUOUS
 10
-111.729713
 20
-971.28894
 30
0.0
 40
0.2
  0
CIRCLE
  5
5C5
  8
SIZE
  6
CONTINUOUS
 10
-111.729713
 20
-971.28894
 30
0.0
 40
0.1
  0
CIRCLE
  5
5C6
  8
SIZE
  6
CONTINUOUS
 10
0.270286
 20
-971.28894
 30
0.0
 40
0.5
  0
CIRCLE
  5
5C7
  8
SIZE
  6
CONTINUOUS
 10
0.270286
 20
-971.28894
 30
0.0
 40
0.4
  0
CIRCLE
  5
5C8
  8
SIZE
  6
CONTINUOUS
 10
0.270286
 20
-971.28894
 30
0.0
 40
0.3
  0
CIRCLE
  5
5C9
  8
SIZE
  6
CONTINUOUS
 10
0.270286
 20
-971.28894
 30
0.0
 40
0.2
  0
CIRCLE
  5
5CA
  8
SIZE
  6
CONTINUOUS
 10
0.270286
 20
-971.28894
 30
0.0
 40
0.1
  0
POINT
  5
5CB
  8
DEFPOINTS
  6
BYBLOCK
 10
0.270286
 20
199.459457
 30
0.0
  0
POINT
  5
5CC
  8
DEFPOINTS
  6
BYBLOCK
 10
-111.729713
 20
-20.540541
 30
0.0
  0
POINT
  5
5CD
  8
DEFPOINTS
  6
BYBLOCK
 10
-111.729713
 20
-971.28894
 30
0.0
  0
ENDBLK
  5
5CE
  8
SIZE
  0
BLOCK
  8
SIZE
  2
*D5
 70
     1
 10
0.0
 20
0.0
 30
0.0
  3
*D5
  1

  0
TEXT
  5
5D1
  8
SIZE
  6
CONTINUOUS
 10
-382.669708
 20
-1070.288916
 30
0.0
 40
2.8
  1
760
 50
0.000003
 41
0.7
  7
STANDARD1
  0
LINE
  5
5D2
  8
SIZE
  6
CONTINUOUS
 10
0.270286
 20
198.459457
 30
0.0
 11
0.270286
 21
-1073.28894
 31
0.0
  0
LINE
  5
5D3
  8
SIZE
  6
CONTINUOUS
 10
-759.729736
 20
-1.540541
 30
0.0
 11
-759.729736
 21
-1073.28894
 31
0.0
  0
LINE
  5
5D4
  8
SIZE
  6
CONTINUOUS
 10
0.270286
 20
-1071.28894
 30
0.0
 11
-759.729736
 21
-1071.28894
 31
0.0
  0
CIRCLE
  5
5D5
  8
SIZE
  6
CONTINUOUS
 10
0.270286
 20
-1071.28894
 30
0.0
 40
0.5
  0
CIRCLE
  5
5D6
  8
SIZE
  6
CONTINUOUS
 10
0.270286
 20
-1071.28894
 30
0.0
 40
0.4
  0
CIRCLE
  5
5D7
  8
SIZE
  6
CONTINUOUS
 10
0.270286
 20
-1071.28894
 30
0.0
 40
0.3
  0
CIRCLE
  5
5D8
  8
SIZE
  6
CONTINUOUS
 10
0.270286
 20
-1071.28894
 30
0.0
 40
0.2
  0
CIRCLE
  5
5D9
  8
SIZE
  6
CONTINUOUS
 10
0.270286
 20
-1071.28894
 30
0.0
 40
0.1
  0
CIRCLE
  5
5DA
  8
SIZE
  6
CONTINUOUS
 10
-759.729736
 20
-1071.28894
 30
0.0
 40
0.5
  0
CIRCLE
  5
5DB
  8
SIZE
  6
CONTINUOUS
 10
-759.729736
 20
-1071.28894
 30
0.0
 40
0.4
  0
CIRCLE
  5
5DC
  8
SIZE
  6
CONTINUOUS
 10
-759.729736
 20
-1071.28894
 30
0.0
 40
0.3
  0
CIRCLE
  5
5DD
  8
SIZE
  6
CONTINUOUS
 10
-759.729736
 20
-1071.28894
 30
0.0
 40
0.2
  0
CIRCLE
  5
5DE
  8
SIZE
  6
CONTINUOUS
 10
-759.729736
 20
-1071.28894
 30
0.0
 40
0.1
  0
POINT
  5
5DF
  8
DEFPOINTS
  6
BYBLOCK
 10
-759.729736
 20
-0.540541
 30
0.0
  0
POINT
  5
5E0
  8
DEFPOINTS
  6
BYBLOCK
 10
0.270286
 20
199.459457
 30
0.0
  0
POINT
  5
5E1
  8
DEFPOINTS
  6
BYBLOCK
 10
0.270286
 20
-1071.28894
 30
0.0
  0
ENDBLK
  5
5E2
  8
SIZE
  0
BLOCK
  8
SIZE
  2
*D6
 70
     1
 10
0.0
 20
0.0
 30
0.0
  3
*D6
  1

  0
TEXT
  5
5E5
  8
SIZE
  6
CONTINUOUS
 10
-705.669739
 20
-970.288916
 30
0.0
 40
2.8
  1
114
 50
0.000003
 41
0.7
  7
STANDARD1
  0
LINE
  5
5E6
  8
SIZE
  6
CONTINUOUS
 10
-645.729736
 20
-21.540541
 30
0.0
 11
-645.729736
 21
-973.28894
 31
0.0
  0
LINE
  5
5E7
  8
SIZE
  6
CONTINUOUS
 10
-759.729736
 20
-1.540541
 30
0.0
 11
-759.729736
 21
-973.28894
 31
0.0
  0
LINE
  5
5E8
  8
SIZE
  6
CONTINUOUS
 10
-645.729736
 20
-971.28894
 30
0.0
 11
-759.729736
 21
-971.28894
 31
0.0
  0
CIRCLE
  5
5E9
  8
SIZE
  6
CONTINUOUS
 10
-645.729736
 20
-971.28894
 30
0.0
 40
0.5
  0
CIRCLE
  5
5EA
  8
SIZE
  6
CONTINUOUS
 10
-645.729736
 20
-971.28894
 30
0.0
 40
0.4
  0
CIRCLE
  5
5EB
  8
SIZE
  6
CONTINUOUS
 10
-645.729736
 20
-971.28894
 30
0.0
 40
0.3
  0
CIRCLE
  5
5EC
  8
SIZE
  6
CONTINUOUS
 10
-645.729736
 20
-971.28894
 30
0.0
 40
0.2
  0
CIRCLE
  5
5ED
  8
SIZE
  6
CONTINUOUS
 10
-645.729736
 20
-971.28894
 30
0.0
 40
0.1
  0
CIRCLE
  5
5EE
  8
SIZE
  6
CONTINUOUS
 10
-759.729736
 20
-971.28894
 30
0.0
 40
0.5
  0
CIRCLE
  5
5EF
  8
SIZE
  6
CONTINUOUS
 10
-759.729736
 20
-971.28894
 30
0.0
 40
0.4
  0
CIRCLE
  5
5F0
  8
SIZE
  6
CONTINUOUS
 10
-759.729736
 20
-971.28894
 30
0.0
 40
0.3
  0
CIRCLE
  5
5F1
  8
SIZE
  6
CONTINUOUS
 10
-759.729736
 20
-971.28894
 30
0.0
 40
0.2
  0
CIRCLE
  5
5F2
  8
SIZE
  6
CONTINUOUS
 10
-759.729736
 20
-971.28894
 30
0.0
 40
0.1
  0
POINT
  5
5F3
  8
DEFPOINTS
  6
BYBLOCK
 10
-759.729736
 20
-0.540541
 30
0.0
  0
POINT
  5
5F4
  8
DEFPOINTS
  6
BYBLOCK
 10
-645.729736
 20
-20.540541
 30
0.0
  0
POINT
  5
5F5
  8
DEFPOINTS
  6
BYBLOCK
 10
-645.729736
 20
-971.28894
 30
0.0
  0
ENDBLK
  5
5F6
  8
SIZE
  0
BLOCK
  8
SIZE
  2
*D7
 70
     1
 10
0.0
 20
0.0
 30
0.0
  3
*D7
  1

  0
TEXT
  5
5F9
  8
SIZE
  6
CONTINUOUS
 10
-660.669739
 20
-770.288916
 30
0.0
 40
2.8
  1
204
 50
0.000003
 41
0.7
  7
STANDARD1
  0
LINE
  5
5FA
  8
SIZE
  6
CONTINUOUS
 10
-759.729736
 20
-1.540541
 30
0.0
 11
-759.729736
 21
-773.28894
 31
0.0
  0
LINE
  5
5FB
  8
SIZE
  6
CONTINUOUS
 10
-555.729736
 20
133.459457
 30
0.0
 11
-555.729736
 21
-773.28894
 31
0.0
  0
LINE
  5
5FC
  8
SIZE
  6
CONTINUOUS
 10
-759.729736
 20
-771.28894
 30
0.0
 11
-555.729736
 21
-771.28894
 31
0.0
  0
CIRCLE
  5
5FD
  8
SIZE
  6
CONTINUOUS
 10
-759.729736
 20
-771.28894
 30
0.0
 40
0.5
  0
CIRCLE
  5
5FE
  8
SIZE
  6
CONTINUOUS
 10
-759.729736
 20
-771.28894
 30
0.0
 40
0.4
  0
CIRCLE
  5
5FF
  8
SIZE
  6
CONTINUOUS
 10
-759.729736
 20
-771.28894
 30
0.0
 40
0.3
  0
CIRCLE
  5
600
  8
SIZE
  6
CONTINUOUS
 10
-759.729736
 20
-771.28894
 30
0.0
 40
0.2
  0
CIRCLE
  5
601
  8
SIZE
  6
CONTINUOUS
 10
-759.729736
 20
-771.28894
 30
0.0
 40
0.1
  0
CIRCLE
  5
602
  8
SIZE
  6
CONTINUOUS
 10
-555.729736
 20
-771.28894
 30
0.0
 40
0.5
  0
CIRCLE
  5
603
  8
SIZE
  6
CONTINUOUS
 10
-555.729736
 20
-771.28894
 30
0.0
 40
0.4
  0
CIRCLE
  5
604
  8
SIZE
  6
CONTINUOUS
 10
-555.729736
 20
-771.28894
 30
0.0
 40
0.3
  0
CIRCLE
  5
605
  8
SIZE
  6
CONTINUOUS
 10
-555.729736
 20
-771.28894
 30
0.0
 40
0.2
  0
CIRCLE
  5
606
  8
SIZE
  6
CONTINUOUS
 10
-555.729736
 20
-771.28894
 30
0.0
 40
0.1
  0
POINT
  5
607
  8
DEFPOINTS
  6
BYBLOCK
 10
-555.729736
 20
134.459457
 30
0.0
  0
POINT
  5
608
  8
DEFPOINTS
  6
BYBLOCK
 10
-759.729736
 20
-0.540541
 30
0.0
  0
POINT
  5
609
  8
DEFPOINTS
  6
BYBLOCK
 10
-759.729736
 20
-771.28894
 30
0.0
  0
ENDBLK
  5
60A
  8
SIZE
  0
BLOCK
  8
SIZE
  2
*D8
 70
     1
 10
0.0
 20
0.0
 30
0.0
  3
*D8
  1

  0
TEXT
  5
60D
  8
SIZE
  6
CONTINUOUS
 10
-675.669739
 20
-670.288916
 30
0.0
 40
2.8
  1
174
 50
0.000003
 41
0.7
  7
STANDARD1
  0
LINE
  5
60E
  8
SIZE
  6
CONTINUOUS
 10
-585.729736
 20
150.959457
 30
0.0
 11
-585.729736
 21
-673.28894
 31
0.0
  0
LINE
  5
60F
  8
SIZE
  6
CONTINUOUS
 10
-759.729736
 20
-1.540541
 30
0.0
 11
-759.729736
 21
-673.28894
 31
0.0
  0
LINE
  5
610
  8
SIZE
  6
CONTINUOUS
 10
-585.729736
 20
-671.28894
 30
0.0
 11
-759.729736
 21
-671.28894
 31
0.0
  0
CIRCLE
  5
611
  8
SIZE
  6
CONTINUOUS
 10
-585.729736
 20
-671.28894
 30
0.0
 40
0.5
  0
CIRCLE
  5
612
  8
SIZE
  6
CONTINUOUS
 10
-585.729736
 20
-671.28894
 30
0.0
 40
0.4
  0
CIRCLE
  5
613
  8
SIZE
  6
CONTINUOUS
 10
-585.729736
 20
-671.28894
 30
0.0
 40
0.3
  0
CIRCLE
  5
614
  8
SIZE
  6
CONTINUOUS
 10
-585.729736
 20
-671.28894
 30
0.0
 40
0.2
  0
CIRCLE
  5
615
  8
SIZE
  6
CONTINUOUS
 10
-585.729736
 20
-671.28894
 30
0.0
 40
0.1
  0
CIRCLE
  5
616
  8
SIZE
  6
CONTINUOUS
 10
-759.729736
 20
-671.28894
 30
0.0
 40
0.5
  0
CIRCLE
  5
617
  8
SIZE
  6
CONTINUOUS
 10
-759.729736
 20
-671.28894
 30
0.0
 40
0.4
  0
CIRCLE
  5
618
  8
SIZE
  6
CONTINUOUS
 10
-759.729736
 20
-671.28894
 30
0.0
 40
0.3
  0
CIRCLE
  5
619
  8
SIZE
  6
CONTINUOUS
 10
-759.729736
 20
-671.28894
 30
0.0
 40
0.2
  0
CIRCLE
  5
61A
  8
SIZE
  6
CONTINUOUS
 10
-759.729736
 20
-671.28894
 30
0.0
 40
0.1
  0
POINT
  5
61B
  8
DEFPOINTS
  6
BYBLOCK
 10
-759.729736
 20
-0.540541
 30
0.0
  0
POINT
  5
61C
  8
DEFPOINTS
  6
BYBLOCK
 10
-585.729736
 20
151.959457
 30
0.0
  0
POINT
  5
61D
  8
DEFPOINTS
  6
BYBLOCK
 10
-585.729736
 20
-671.28894
 30
0.0
  0
ENDBLK
  5
61E
  8
SIZE
  0
BLOCK
  8
SIZE
  2
*D9
 70
     1
 10
0.0
 20
0.0
 30
0.0
  3
*D9
  1

  0
TEXT
  5
621
  8
SIZE
  6
CONTINUOUS
 10
-735.689758
 20
-370.288947
 30
0.0
 40
2.8
  1
52
 50
0.000003
 41
0.7
  7
STANDARD1
  0
LINE
  5
622
  8
SIZE
  6
CONTINUOUS
 10
-707.729736
 20
298.459473
 30
0.0
 11
-707.729736
 21
-373.28894
 31
0.0
  0
LINE
  5
623
  8
SIZE
  6
CONTINUOUS
 10
-759.729736
 20
-1.540541
 30
0.0
 11
-759.729736
 21
-373.28894
 31
0.0
  0
LINE
  5
624
  8
SIZE
  6
CONTINUOUS
 10
-707.729736
 20
-371.28894
 30
0.0
 11
-759.729736
 21
-371.28894
 31
0.0
  0
CIRCLE
  5
625
  8
SIZE
  6
CONTINUOUS
 10
-707.729736
 20
-371.28894
 30
0.0
 40
0.5
  0
CIRCLE
  5
626
  8
SIZE
  6
CONTINUOUS
 10
-707.729736
 20
-371.28894
 30
0.0
 40
0.4
  0
CIRCLE
  5
627
  8
SIZE
  6
CONTINUOUS
 10
-707.729736
 20
-371.28894
 30
0.0
 40
0.3
  0
CIRCLE
  5
628
  8
SIZE
  6
CONTINUOUS
 10
-707.729736
 20
-371.28894
 30
0.0
 40
0.2
  0
CIRCLE
  5
629
  8
SIZE
  6
CONTINUOUS
 10
-707.729736
 20
-371.28894
 30
0.0
 40
0.1
  0
CIRCLE
  5
62A
  8
SIZE
  6
CONTINUOUS
 10
-759.729736
 20
-371.28894
 30
0.0
 40
0.5
  0
CIRCLE
  5
62B
  8
SIZE
  6
CONTINUOUS
 10
-759.729736
 20
-371.28894
 30
0.0
 40
0.4
  0
CIRCLE
  5
62C
  8
SIZE
  6
CONTINUOUS
 10
-759.729736
 20
-371.28894
 30
0.0
 40
0.3
  0
CIRCLE
  5
62D
  8
SIZE
  6
CONTINUOUS
 10
-759.729736
 20
-371.28894
 30
0.0
 40
0.2
  0
CIRCLE
  5
62E
  8
SIZE
  6
CONTINUOUS
 10
-759.729736
 20
-371.28894
 30
0.0
 40
0.1
  0
POINT
  5
62F
  8
DEFPOINTS
  6
BYBLOCK
 10
-759.729736
 20
-0.540541
 30
0.0
  0
POINT
  5
630
  8
DEFPOINTS
  6
BYBLOCK
 10
-707.729736
 20
299.459473
 30
0.0
  0
POINT
  5
631
  8
DEFPOINTS
  6
BYBLOCK
 10
-707.729736
 20
-371.28894
 30
0.0
  0
ENDBLK
  5
632
  8
SIZE
  0
BLOCK
  8
SIZE
  2
*D10
 70
     1
 10
0.0
 20
0.0
 30
0.0
  3
*D10
  1

  0
TEXT
  5
635
  8
SIZE
  6
CONTINUOUS
 10
-712.169739
 20
-470.288947
 30
0.0
 40
2.8
  1
101
 50
0.000003
 41
0.7
  7
STANDARD1
  0
LINE
  5
636
  8
SIZE
  6
CONTINUOUS
 10
-658.729736
 20
298.459473
 30
0.0
 11
-658.729736
 21
-473.28894
 31
0.0
  0
LINE
  5
637
  8
SIZE
  6
CONTINUOUS
 10
-759.729736
 20
-1.540541
 30
0.0
 11
-759.729736
 21
-473.28894
 31
0.0
  0
LINE
  5
638
  8
SIZE
  6
CONTINUOUS
 10
-658.729736
 20
-471.28894
 30
0.0
 11
-759.729736
 21
-471.28894
 31
0.0
  0
CIRCLE
  5
639
  8
SIZE
  6
CONTINUOUS
 10
-658.729736
 20
-471.28894
 30
0.0
 40
0.5
  0
CIRCLE
  5
63A
  8
SIZE
  6
CONTINUOUS
 10
-658.729736
 20
-471.28894
 30
0.0
 40
0.4
  0
CIRCLE
  5
63B
  8
SIZE
  6
CONTINUOUS
 10
-658.729736
 20
-471.28894
 30
0.0
 40
0.3
  0
CIRCLE
  5
63C
  8
SIZE
  6
CONTINUOUS
 10
-658.729736
 20
-471.28894
 30
0.0
 40
0.2
  0
CIRCLE
  5
63D
  8
SIZE
  6
CONTINUOUS
 10
-658.729736
 20
-471.28894
 30
0.0
 40
0.1
  0
CIRCLE
  5
63E
  8
SIZE
  6
CONTINUOUS
 10
-759.729736
 20
-471.28894
 30
0.0
 40
0.5
  0
CIRCLE
  5
63F
  8
SIZE
  6
CONTINUOUS
 10
-759.729736
 20
-471.28894
 30
0.0
 40
0.4
  0
CIRCLE
  5
640
  8
SIZE
  6
CONTINUOUS
 10
-759.729736
 20
-471.28894
 30
0.0
 40
0.3
  0
CIRCLE
  5
641
  8
SIZE
  6
CONTINUOUS
 10
-759.729736
 20
-471.28894
 30
0.0
 40
0.2
  0
CIRCLE
  5
642
  8
SIZE
  6
CONTINUOUS
 10
-759.729736
 20
-471.28894
 30
0.0
 40
0.1
  0
POINT
  5
643
  8
DEFPOINTS
  6
BYBLOCK
 10
-759.729736
 20
-0.540541
 30
0.0
  0
POINT
  5
644
  8
DEFPOINTS
  6
BYBLOCK
 10
-658.729736
 20
299.459473
 30
0.0
  0
POINT
  5
645
  8
DEFPOINTS
  6
BYBLOCK
 10
-658.729736
 20
-471.28894
 30
0.0
  0
ENDBLK
  5
646
  8
SIZE
  0
BLOCK
  8
SIZE
  2
*D11
 70
     1
 10
0.0
 20
0.0
 30
0.0
  3
*D11
  1

  0
TEXT
  5
649
  8
SIZE
  6
CONTINUOUS
 10
-737.189758
 20
-270.288947
 30
0.0
 40
2.8
  1
49
 50
0.000003
 41
0.7
  7
STANDARD1
  0
LINE
  5
64A
  8
SIZE
  6
CONTINUOUS
 10
-710.729736
 20
338.459473
 30
0.0
 11
-710.729736
 21
-273.28894
 31
0.0
  0
LINE
  5
64B
  8
SIZE
  6
CONTINUOUS
 10
-759.729736
 20
-1.540541
 30
0.0
 11
-759.729736
 21
-273.28894
 31
0.0
  0
LINE
  5
64C
  8
SIZE
  6
CONTINUOUS
 10
-710.729736
 20
-271.28894
 30
0.0
 11
-759.729736
 21
-271.28894
 31
0.0
  0
CIRCLE
  5
64D
  8
SIZE
  6
CONTINUOUS
 10
-710.729736
 20
-271.28894
 30
0.0
 40
0.5
  0
CIRCLE
  5
64E
  8
SIZE
  6
CONTINUOUS
 10
-710.729736
 20
-271.28894
 30
0.0
 40
0.4
  0
CIRCLE
  5
64F
  8
SIZE
  6
CONTINUOUS
 10
-710.729736
 20
-271.28894
 30
0.0
 40
0.3
  0
CIRCLE
  5
650
  8
SIZE
  6
CONTINUOUS
 10
-710.729736
 20
-271.28894
 30
0.0
 40
0.2
  0
CIRCLE
  5
651
  8
SIZE
  6
CONTINUOUS
 10
-710.729736
 20
-271.28894
 30
0.0
 40
0.1
  0
CIRCLE
  5
652
  8
SIZE
  6
CONTINUOUS
 10
-759.729736
 20
-271.28894
 30
0.0
 40
0.5
  0
CIRCLE
  5
653
  8
SIZE
  6
CONTINUOUS
 10
-759.729736
 20
-271.28894
 30
0.0
 40
0.4
  0
CIRCLE
  5
654
  8
SIZE
  6
CONTINUOUS
 10
-759.729736
 20
-271.28894
 30
0.0
 40
0.3
  0
CIRCLE
  5
655
  8
SIZE
  6
CONTINUOUS
 10
-759.729736
 20
-271.28894
 30
0.0
 40
0.2
  0
CIRCLE
  5
656
  8
SIZE
  6
CONTINUOUS
 10
-759.729736
 20
-271.28894
 30
0.0
 40
0.1
  0
POINT
  5
657
  8
DEFPOINTS
  6
BYBLOCK
 10
-759.729736
 20
-0.540541
 30
0.0
  0
POINT
  5
658
  8
DEFPOINTS
  6
BYBLOCK
 10
-710.729736
 20
339.459473
 30
0.0
  0
POINT
  5
659
  8
DEFPOINTS
  6
BYBLOCK
 10
-710.729736
 20
-271.28894
 30
0.0
  0
ENDBLK
  5
65A
  8
SIZE
  0
BLOCK
  8
SIZE
  2
*D12
 70
     1
 10
0.0
 20
0.0
 30
0.0
  3
*D12
  1

  0
TEXT
  5
65D
  8
SIZE
  6
CONTINUOUS
 10
-1471.102075
 20
1180.539429
 30
0.0
 40
2.8
  1
2370
 50
90.00000499999999
 41
0.7
  7
STANDARD1
  0
LINE
  5
65E
  8
SIZE
  6
CONTINUOUS
 10
-1360.729736
 20
2369.459473
 30
0.0
 11
-1472.102051
 21
2369.459473
 31
0.0
  0
LINE
  5
65F
  8
SIZE
  6
CONTINUOUS
 10
-1360.729736
 20
-0.540541
 30
0.0
 11
-1472.102051
 21
-0.540541
 31
0.0
  0
LINE
  5
660
  8
SIZE
  6
CONTINUOUS
 10
-1470.102051
 20
2369.459473
 30
0.0
 11
-1470.102051
 21
-0.540541
 31
0.0
  0
CIRCLE
  5
661
  8
SIZE
  6
CONTINUOUS
 10
-1470.102051
 20
2369.459473
 30
0.0
 40
0.5
  0
CIRCLE
  5
662
  8
SIZE
  6
CONTINUOUS
 10
-1470.102051
 20
2369.459473
 30
0.0
 40
0.4
  0
CIRCLE
  5
663
  8
SIZE
  6
CONTINUOUS
 10
-1470.102051
 20
2369.459473
 30
0.0
 40
0.3
  0
CIRCLE
  5
664
  8
SIZE
  6
CONTINUOUS
 10
-1470.102051
 20
2369.459473
 30
0.0
 40
0.2
  0
CIRCLE
  5
665
  8
SIZE
  6
CONTINUOUS
 10
-1470.102051
 20
2369.459473
 30
0.0
 40
0.1
  0
CIRCLE
  5
666
  8
SIZE
  6
CONTINUOUS
 10
-1470.102051
 20
-0.540541
 30
0.0
 40
0.5
  0
CIRCLE
  5
667
  8
SIZE
  6
CONTINUOUS
 10
-1470.102051
 20
-0.540541
 30
0.0
 40
0.4
  0
CIRCLE
  5
668
  8
SIZE
  6
CONTINUOUS
 10
-1470.102051
 20
-0.540541
 30
0.0
 40
0.3
  0
CIRCLE
  5
669
  8
SIZE
  6
CONTINUOUS
 10
-1470.102051
 20
-0.540541
 30
0.0
 40
0.2
  0
CIRCLE
  5
66A
  8
SIZE
  6
CONTINUOUS
 10
-1470.102051
 20
-0.540541
 30
0.0
 40
0.1
  0
POINT
  5
66B
  8
DEFPOINTS
  6
BYBLOCK
 10
-1359.729736
 20
-0.540541
 30
0.0
  0
POINT
  5
66C
  8
DEFPOINTS
  6
BYBLOCK
 10
-1359.729736
 20
2369.459473
 30
0.0
  0
POINT
  5
66D
  8
DEFPOINTS
  6
BYBLOCK
 10
-1470.102051
 20
2369.459473
 30
0.0
  0
ENDBLK
  5
66E
  8
SIZE
  0
BLOCK
  8
SIZE
  2
*D13
 70
     1
 10
0.0
 20
0.0
 30
0.0
  3
*D13
  1

  0
TEXT
  5
671
  8
SIZE
  6
CONTINUOUS
 10
249.27027
 20
1080.539429
 30
0.0
 40
2.8
  1
2170
 50
90.00000499999999
 41
0.7
  7
STANDARD1
  0
LINE
  5
672
  8
SIZE
  6
CONTINUOUS
 10
1.270286
 20
2169.459473
 30
0.0
 11
252.270264
 21
2169.459473
 31
0.0
  0
LINE
  5
673
  8
SIZE
  6
CONTINUOUS
 10
-54.729713
 20
-0.540541
 30
0.0
 11
252.270264
 21
-0.540541
 31
0.0
  0
LINE
  5
674
  8
SIZE
  6
CONTINUOUS
 10
250.270264
 20
2169.459473
 30
0.0
 11
250.270264
 21
-0.540541
 31
0.0
  0
CIRCLE
  5
675
  8
SIZE
  6
CONTINUOUS
 10
250.270264
 20
2169.459473
 30
0.0
 40
0.5
  0
CIRCLE
  5
676
  8
SIZE
  6
CONTINUOUS
 10
250.270264
 20
2169.459473
 30
0.0
 40
0.4
  0
CIRCLE
  5
677
  8
SIZE
  6
CONTINUOUS
 10
250.270264
 20
2169.459473
 30
0.0
 40
0.3
  0
CIRCLE
  5
678
  8
SIZE
  6
CONTINUOUS
 10
250.270264
 20
2169.459473
 30
0.0
 40
0.2
  0
CIRCLE
  5
679
  8
SIZE
  6
CONTINUOUS
 10
250.270264
 20
2169.459473
 30
0.0
 40
0.1
  0
CIRCLE
  5
67A
  8
SIZE
  6
CONTINUOUS
 10
250.270264
 20
-0.540541
 30
0.0
 40
0.5
  0
CIRCLE
  5
67B
  8
SIZE
  6
CONTINUOUS
 10
250.270264
 20
-0.540541
 30
0.0
 40
0.4
  0
CIRCLE
  5
67C
  8
SIZE
  6
CONTINUOUS
 10
250.270264
 20
-0.540541
 30
0.0
 40
0.3
  0
CIRCLE
  5
67D
  8
SIZE
  6
CONTINUOUS
 10
250.270264
 20
-0.540541
 30
0.0
 40
0.2
  0
CIRCLE
  5
67E
  8
SIZE
  6
CONTINUOUS
 10
250.270264
 20
-0.540541
 30
0.0
 40
0.1
  0
POINT
  5
67F
  8
DEFPOINTS
  6
BYBLOCK
 10
-55.729713
 20
-0.540541
 30
0.0
  0
POINT
  5
680
  8
DEFPOINTS
  6
BYBLOCK
 10
0.270286
 20
2169.459473
 30
0.0
  0
POINT
  5
681
  8
DEFPOINTS
  6
BYBLOCK
 10
250.270264
 20
2169.459473
 30
0.0
  0
ENDBLK
  5
682
  8
SIZE
  0
BLOCK
  8
SIZE
  2
*D14
 70
     1
 10
0.0
 20
0.0
 30
0.0
  3
*D14
  1

  0
TEXT
  5
685
  8
SIZE
  6
CONTINUOUS
 10
349.27027
 20
1092.039429
 30
0.0
 40
2.8
  1
2193
 50
90.00000499999999
 41
0.7
  7
STANDARD1
  0
LINE
  5
686
  8
SIZE
  6
CONTINUOUS
 10
-54.729713
 20
-0.540541
 30
0.0
 11
352.270264
 21
-0.540541
 31
0.0
  0
LINE
  5
687
  8
SIZE
  6
CONTINUOUS
 10
101.270287
 20
2192.459473
 30
0.0
 11
352.270264
 21
2192.459473
 31
0.0
  0
LINE
  5
688
  8
SIZE
  6
CONTINUOUS
 10
350.270264
 20
-0.540541
 30
0.0
 11
350.270264
 21
2192.459473
 31
0.0
  0
CIRCLE
  5
689
  8
SIZE
  6
CONTINUOUS
 10
350.270264
 20
-0.540541
 30
0.0
 40
0.5
  0
CIRCLE
  5
68A
  8
SIZE
  6
CONTINUOUS
 10
350.270264
 20
-0.540541
 30
0.0
 40
0.4
  0
CIRCLE
  5
68B
  8
SIZE
  6
CONTINUOUS
 10
350.270264
 20
-0.540541
 30
0.0
 40
0.3
  0
CIRCLE
  5
68C
  8
SIZE
  6
CONTINUOUS
 10
350.270264
 20
-0.540541
 30
0.0
 40
0.2
  0
CIRCLE
  5
68D
  8
SIZE
  6
CONTINUOUS
 10
350.270264
 20
-0.540541
 30
0.0
 40
0.1
  0
CIRCLE
  5
68E
  8
SIZE
  6
CONTINUOUS
 10
350.270264
 20
2192.459473
 30
0.0
 40
0.5
  0
CIRCLE
  5
68F
  8
SIZE
  6
CONTINUOUS
 10
350.270264
 20
2192.459473
 30
0.0
 40
0.4
  0
CIRCLE
  5
690
  8
SIZE
  6
CONTINUOUS
 10
350.270264
 20
2192.459473
 30
0.0
 40
0.3
  0
CIRCLE
  5
691
  8
SIZE
  6
CONTINUOUS
 10
350.270264
 20
2192.459473
 30
0.0
 40
0.2
  0
CIRCLE
  5
692
  8
SIZE
  6
CONTINUOUS
 10
350.270264
 20
2192.459473
 30
0.0
 40
0.1
  0
POINT
  5
693
  8
DEFPOINTS
  6
BYBLOCK
 10
100.270287
 20
2192.459473
 30
0.0
  0
POINT
  5
694
  8
DEFPOINTS
  6
BYBLOCK
 10
-55.729713
 20
-0.540541
 30
0.0
  0
POINT
  5
695
  8
DEFPOINTS
  6
BYBLOCK
 10
350.270264
 20
-0.540541
 30
0.0
  0
ENDBLK
  5
696
  8
SIZE
  0
BLOCK
  8
SIZE
  2
*D15
 70
     1
 10
0.0
 20
0.0
 30
0.0
  3
*D15
  1

  0
TEXT
  5
699
  8
SIZE
  6
CONTINUOUS
 10
449.27027
 20
1103.039429
 30
0.0
 40
2.8
  1
2215
 50
90.00000499999999
 41
0.7
  7
STANDARD1
  0
LINE
  5
69A
  8
SIZE
  6
CONTINUOUS
 10
81.270287
 20
2214.459473
 30
0.0
 11
452.270264
 21
2214.459473
 31
0.0
  0
LINE
  5
69B
  8
SIZE
  6
CONTINUOUS
 10
-54.729713
 20
-0.540541
 30
0.0
 11
452.270264
 21
-0.540541
 31
0.0
  0
LINE
  5
69C
  8
SIZE
  6
CONTINUOUS
 10
450.270264
 20
2214.459473
 30
0.0
 11
450.270264
 21
-0.540541
 31
0.0
  0
CIRCLE
  5
69D
  8
SIZE
  6
CONTINUOUS
 10
450.270264
 20
2214.459473
 30
0.0
 40
0.5
  0
CIRCLE
  5
69E
  8
SIZE
  6
CONTINUOUS
 10
450.270264
 20
2214.459473
 30
0.0
 40
0.4
  0
CIRCLE
  5
69F
  8
SIZE
  6
CONTINUOUS
 10
450.270264
 20
2214.459473
 30
0.0
 40
0.3
  0
CIRCLE
  5
6A0
  8
SIZE
  6
CONTINUOUS
 10
450.270264
 20
2214.459473
 30
0.0
 40
0.2
  0
CIRCLE
  5
6A1
  8
SIZE
  6
CONTINUOUS
 10
450.270264
 20
2214.459473
 30
0.0
 40
0.1
  0
CIRCLE
  5
6A2
  8
SIZE
  6
CONTINUOUS
 10
450.270264
 20
-0.540541
 30
0.0
 40
0.5
  0
CIRCLE
  5
6A3
  8
SIZE
  6
CONTINUOUS
 10
450.270264
 20
-0.540541
 30
0.0
 40
0.4
  0
CIRCLE
  5
6A4
  8
SIZE
  6
CONTINUOUS
 10
450.270264
 20
-0.540541
 30
0.0
 40
0.3
  0
CIRCLE
  5
6A5
  8
SIZE
  6
CONTINUOUS
 10
450.270264
 20
-0.540541
 30
0.0
 40
0.2
  0
CIRCLE
  5
6A6
  8
SIZE
  6
CONTINUOUS
 10
450.270264
 20
-0.540541
 30
0.0
 40
0.1
  0
POINT
  5
6A7
  8
DEFPOINTS
  6
BYBLOCK
 10
-55.729713
 20
-0.540541
 30
0.0
  0
POINT
  5
6A8
  8
DEFPOINTS
  6
BYBLOCK
 10
80.270287
 20
2214.459473
 30
0.0
  0
POINT
  5
6A9
  8
DEFPOINTS
  6
BYBLOCK
 10
450.270264
 20
2214.459473
 30
0.0
  0
ENDBLK
  5
6AA
  8
SIZE
  0
BLOCK
  8
SIZE
  2
*D16
 70
     1
 10
0.0
 20
0.0
 30
0.0
  3
*D16
  1

  0
TEXT
  5
6AD
  8
SIZE
  6
CONTINUOUS
 10
-971.101953
 20
82.769455
 30
0.0
 40
2.8
  1
173
 50
90.00000499999999
 41
0.7
  7
STANDARD1
  0
LINE
  5
6AE
  8
SIZE
  6
CONTINUOUS
 10
-606.729736
 20
171.959457
 30
0.0
 11
-972.101929
 21
171.959457
 31
0.0
  0
LINE
  5
6AF
  8
SIZE
  6
CONTINUOUS
 10
-666.729736
 20
-0.540541
 30
0.0
 11
-972.101929
 21
-0.540541
 31
0.0
  0
LINE
  5
6B0
  8
SIZE
  6
CONTINUOUS
 10
-970.101929
 20
171.959457
 30
0.0
 11
-970.101929
 21
-0.540541
 31
0.0
  0
CIRCLE
  5
6B1
  8
SIZE
  6
CONTINUOUS
 10
-970.101929
 20
171.959457
 30
0.0
 40
0.5
  0
CIRCLE
  5
6B2
  8
SIZE
  6
CONTINUOUS
 10
-970.101929
 20
171.959457
 30
0.0
 40
0.4
  0
CIRCLE
  5
6B3
  8
SIZE
  6
CONTINUOUS
 10
-970.101929
 20
171.959457
 30
0.0
 40
0.3
  0
CIRCLE
  5
6B4
  8
SIZE
  6
CONTINUOUS
 10
-970.101929
 20
171.959457
 30
0.0
 40
0.2
  0
CIRCLE
  5
6B5
  8
SIZE
  6
CONTINUOUS
 10
-970.101929
 20
171.959457
 30
0.0
 40
0.1
  0
CIRCLE
  5
6B6
  8
SIZE
  6
CONTINUOUS
 10
-970.101929
 20
-0.540541
 30
0.0
 40
0.5
  0
CIRCLE
  5
6B7
  8
SIZE
  6
CONTINUOUS
 10
-970.101929
 20
-0.540541
 30
0.0
 40
0.4
  0
CIRCLE
  5
6B8
  8
SIZE
  6
CONTINUOUS
 10
-970.101929
 20
-0.540541
 30
0.0
 40
0.3
  0
CIRCLE
  5
6B9
  8
SIZE
  6
CONTINUOUS
 10
-970.101929
 20
-0.540541
 30
0.0
 40
0.2
  0
CIRCLE
  5
6BA
  8
SIZE
  6
CONTINUOUS
 10
-970.101929
 20
-0.540541
 30
0.0
 40
0.1
  0
POINT
  5
6BB
  8
DEFPOINTS
  6
BYBLOCK
 10
-665.729736
 20
-0.540541
 30
0.0
  0
POINT
  5
6BC
  8
DEFPOINTS
  6
BYBLOCK
 10
-605.729736
 20
171.959457
 30
0.0
  0
POINT
  5
6BD
  8
DEFPOINTS
  6
BYBLOCK
 10
-970.101929
 20
171.959457
 30
0.0
  0
ENDBLK
  5
6BE
  8
SIZE
  0
BLOCK
  8
SIZE
  2
*D17
 70
     1
 10
0.0
 20
0.0
 30
0.0
  3
*D17
  1

  0
TEXT
  5
6C1
  8
SIZE
  6
CONTINUOUS
 10
-707.669739
 20
-570.288916
 30
0.0
 40
2.8
  1
110
 50
0.000003
 41
0.7
  7
STANDARD1
  0
LINE
  5
6C2
  8
SIZE
  6
CONTINUOUS
 10
-649.729736
 20
318.459473
 30
0.0
 11
-649.729736
 21
-573.28894
 31
0.0
  0
LINE
  5
6C3
  8
SIZE
  6
CONTINUOUS
 10
-759.729736
 20
-1.540541
 30
0.0
 11
-759.729736
 21
-573.28894
 31
0.0
  0
LINE
  5
6C4
  8
SIZE
  6
CONTINUOUS
 10
-649.729736
 20
-571.28894
 30
0.0
 11
-759.729736
 21
-571.28894
 31
0.0
  0
CIRCLE
  5
6C5
  8
SIZE
  6
CONTINUOUS
 10
-649.729736
 20
-571.28894
 30
0.0
 40
0.5
  0
CIRCLE
  5
6C6
  8
SIZE
  6
CONTINUOUS
 10
-649.729736
 20
-571.28894
 30
0.0
 40
0.4
  0
CIRCLE
  5
6C7
  8
SIZE
  6
CONTINUOUS
 10
-649.729736
 20
-571.28894
 30
0.0
 40
0.3
  0
CIRCLE
  5
6C8
  8
SIZE
  6
CONTINUOUS
 10
-649.729736
 20
-571.28894
 30
0.0
 40
0.2
  0
CIRCLE
  5
6C9
  8
SIZE
  6
CONTINUOUS
 10
-649.729736
 20
-571.28894
 30
0.0
 40
0.1
  0
CIRCLE
  5
6CA
  8
SIZE
  6
CONTINUOUS
 10
-759.729736
 20
-571.28894
 30
0.0
 40
0.5
  0
CIRCLE
  5
6CB
  8
SIZE
  6
CONTINUOUS
 10
-759.729736
 20
-571.28894
 30
0.0
 40
0.4
  0
CIRCLE
  5
6CC
  8
SIZE
  6
CONTINUOUS
 10
-759.729736
 20
-571.28894
 30
0.0
 40
0.3
  0
CIRCLE
  5
6CD
  8
SIZE
  6
CONTINUOUS
 10
-759.729736
 20
-571.28894
 30
0.0
 40
0.2
  0
CIRCLE
  5
6CE
  8
SIZE
  6
CONTINUOUS
 10
-759.729736
 20
-571.28894
 30
0.0
 40
0.1
  0
POINT
  5
6CF
  8
DEFPOINTS
  6
BYBLOCK
 10
-759.729736
 20
-0.540541
 30
0.0
  0
POINT
  5
6D0
  8
DEFPOINTS
  6
BYBLOCK
 10
-649.729736
 20
319.459473
 30
0.0
  0
POINT
  5
6D1
  8
DEFPOINTS
  6
BYBLOCK
 10
-649.729736
 20
-571.28894
 30
0.0
  0
ENDBLK
  5
6D2
  8
SIZE
  0
BLOCK
  8
SIZE
  2
*D18
 70
     1
 10
0.0
 20
0.0
 30
0.0
  3
*D18
  1

  0
TEXT
  5
6D5
  8
SIZE
  6
CONTINUOUS
 10
-1071.102075
 20
156.519455
 30
0.0
 40
2.8
  1
320
 50
90.00000499999999
 41
0.7
  7
STANDARD1
  0
LINE
  5
6D6
  8
SIZE
  6
CONTINUOUS
 10
-728.729736
 20
319.459473
 30
0.0
 11
-1072.102051
 21
319.459473
 31
0.0
  0
LINE
  5
6D7
  8
SIZE
  6
CONTINUOUS
 10
-666.729736
 20
-0.540541
 30
0.0
 11
-1072.102051
 21
-0.540541
 31
0.0
  0
LINE
  5
6D8
  8
SIZE
  6
CONTINUOUS
 10
-1070.102051
 20
319.459473
 30
0.0
 11
-1070.102051
 21
-0.540541
 31
0.0
  0
CIRCLE
  5
6D9
  8
SIZE
  6
CONTINUOUS
 10
-1070.102051
 20
319.459473
 30
0.0
 40
0.5
  0
CIRCLE
  5
6DA
  8
SIZE
  6
CONTINUOUS
 10
-1070.102051
 20
319.459473
 30
0.0
 40
0.4
  0
CIRCLE
  5
6DB
  8
SIZE
  6
CONTINUOUS
 10
-1070.102051
 20
319.459473
 30
0.0
 40
0.3
  0
CIRCLE
  5
6DC
  8
SIZE
  6
CONTINUOUS
 10
-1070.102051
 20
319.459473
 30
0.0
 40
0.2
  0
CIRCLE
  5
6DD
  8
SIZE
  6
CONTINUOUS
 10
-1070.102051
 20
319.459473
 30
0.0
 40
0.1
  0
CIRCLE
  5
6DE
  8
SIZE
  6
CONTINUOUS
 10
-1070.102051
 20
-0.540541
 30
0.0
 40
0.5
  0
CIRCLE
  5
6DF
  8
SIZE
  6
CONTINUOUS
 10
-1070.102051
 20
-0.540541
 30
0.0
 40
0.4
  0
CIRCLE
  5
6E0
  8
SIZE
  6
CONTINUOUS
 10
-1070.102051
 20
-0.540541
 30
0.0
 40
0.3
  0
CIRCLE
  5
6E1
  8
SIZE
  6
CONTINUOUS
 10
-1070.102051
 20
-0.540541
 30
0.0
 40
0.2
  0
CIRCLE
  5
6E2
  8
SIZE
  6
CONTINUOUS
 10
-1070.102051
 20
-0.540541
 30
0.0
 40
0.1
  0
POINT
  5
6E3
  8
DEFPOINTS
  6
BYBLOCK
 10
-665.729736
 20
-0.540541
 30
0.0
  0
POINT
  5
6E4
  8
DEFPOINTS
  6
BYBLOCK
 10
-727.729736
 20
319.459473
 30
0.0
  0
POINT
  5
6E5
  8
DEFPOINTS
  6
BYBLOCK
 10
-1070.102051
 20
319.459473
 30
0.0
  0
ENDBLK
  5
6E6
  8
SIZE
  0
BLOCK
  8
SIZE
  2
*D19
 70
     1
 10
0.0
 20
0.0
 30
0.0
  3
*D19
  1

  0
TEXT
  5
6E9
  8
SIZE
  6
CONTINUOUS
 10
-1171.102075
 20
176.519455
 30
0.0
 40
2.8
  1
360
 50
90.00000499999999
 41
0.7
  7
STANDARD1
  0
LINE
  5
6EA
  8
SIZE
  6
CONTINUOUS
 10
-735.729736
 20
359.459473
 30
0.0
 11
-1172.102051
 21
359.459473
 31
0.0
  0
LINE
  5
6EB
  8
SIZE
  6
CONTINUOUS
 10
-1170.102051
 20
359.459473
 30
0.0
 11
-1170.102051
 21
-0.540541
 31
0.0
  0
CIRCLE
  5
6EC
  8
SIZE
  6
CONTINUOUS
 10
-1170.102051
 20
359.459473
 30
0.0
 40
0.5
  0
CIRCLE
  5
6ED
  8
SIZE
  6
CONTINUOUS
 10
-1170.102051
 20
359.459473
 30
0.0
 40
0.4
  0
CIRCLE
  5
6EE
  8
SIZE
  6
CONTINUOUS
 10
-1170.102051
 20
359.459473
 30
0.0
 40
0.3
  0
CIRCLE
  5
6EF
  8
SIZE
  6
CONTINUOUS
 10
-1170.102051
 20
359.459473
 30
0.0
 40
0.2
  0
CIRCLE
  5
6F0
  8
SIZE
  6
CONTINUOUS
 10
-1170.102051
 20
359.459473
 30
0.0
 40
0.1
  0
CIRCLE
  5
6F1
  8
SIZE
  6
CONTINUOUS
 10
-1170.102051
 20
-0.540541
 30
0.0
 40
0.5
  0
CIRCLE
  5
6F2
  8
SIZE
  6
CONTINUOUS
 10
-1170.102051
 20
-0.540541
 30
0.0
 40
0.4
  0
CIRCLE
  5
6F3
  8
SIZE
  6
CONTINUOUS
 10
-1170.102051
 20
-0.540541
 30
0.0
 40
0.3
  0
CIRCLE
  5
6F4
  8
SIZE
  6
CONTINUOUS
 10
-1170.102051
 20
-0.540541
 30
0.0
 40
0.2
  0
CIRCLE
  5
6F5
  8
SIZE
  6
CONTINUOUS
 10
-1170.102051
 20
-0.540541
 30
0.0
 40
0.1
  0
POINT
  5
6F6
  8
DEFPOINTS
  6
BYBLOCK
 10
-759.729736
 20
-0.540541
 30
0.0
  0
POINT
  5
6F7
  8
DEFPOINTS
  6
BYBLOCK
 10
-734.729736
 20
359.459473
 30
0.0
  0
POINT
  5
6F8
  8
DEFPOINTS
  6
BYBLOCK
 10
-1170.102051
 20
359.459473
 30
0.0
  0
ENDBLK
  5
6F9
  8
SIZE
  0
BLOCK
  8
SIZE
  2
*D20
 70
     1
 10
0.0
 20
0.0
 30
0.0
  3
*D20
  1

  0
TEXT
  5
6FC
  8
SIZE
  6
CONTINUOUS
 10
-436.231805
 20
74.019455
 30
0.0
 40
2.8
  1
155
 50
90.00000499999999
 41
0.7
  7
STANDARD1
  0
LINE
  5
6FD
  8
SIZE
  6
CONTINUOUS
 10
-574.729736
 20
154.459457
 30
0.0
 11
-433.231812
 21
154.459457
 31
0.0
  0
LINE
  5
6FE
  8
SIZE
  6
CONTINUOUS
 10
-664.729736
 20
-0.540541
 30
0.0
 11
-433.231812
 21
-0.540541
 31
0.0
  0
LINE
  5
6FF
  8
SIZE
  6
CONTINUOUS
 10
-435.231812
 20
154.459457
 30
0.0
 11
-435.231812
 21
-0.540541
 31
0.0
  0
CIRCLE
  5
700
  8
SIZE
  6
CONTINUOUS
 10
-435.231812
 20
154.459457
 30
0.0
 40
0.5
  0
CIRCLE
  5
701
  8
SIZE
  6
CONTINUOUS
 10
-435.231812
 20
154.459457
 30
0.0
 40
0.4
  0
CIRCLE
  5
702
  8
SIZE
  6
CONTINUOUS
 10
-435.231812
 20
154.459457
 30
0.0
 40
0.3
  0
CIRCLE
  5
703
  8
SIZE
  6
CONTINUOUS
 10
-435.231812
 20
154.459457
 30
0.0
 40
0.2
  0
CIRCLE
  5
704
  8
SIZE
  6
CONTINUOUS
 10
-435.231812
 20
154.459457
 30
0.0
 40
0.1
  0
CIRCLE
  5
705
  8
SIZE
  6
CONTINUOUS
 10
-435.231812
 20
-0.540541
 30
0.0
 40
0.5
  0
CIRCLE
  5
706
  8
SIZE
  6
CONTINUOUS
 10
-435.231812
 20
-0.540541
 30
0.0
 40
0.4
  0
CIRCLE
  5
707
  8
SIZE
  6
CONTINUOUS
 10
-435.231812
 20
-0.540541
 30
0.0
 40
0.3
  0
CIRCLE
  5
708
  8
SIZE
  6
CONTINUOUS
 10
-435.231812
 20
-0.540541
 30
0.0
 40
0.2
  0
CIRCLE
  5
709
  8
SIZE
  6
CONTINUOUS
 10
-435.231812
 20
-0.540541
 30
0.0
 40
0.1
  0
POINT
  5
70A
  8
DEFPOINTS
  6
BYBLOCK
 10
-665.729736
 20
-0.540541
 30
0.0
  0
POINT
  5
70B
  8
DEFPOINTS
  6
BYBLOCK
 10
-575.729736
 20
154.459457
 30
0.0
  0
POINT
  5
70C
  8
DEFPOINTS
  6
BYBLOCK
 10
-435.231812
 20
154.459457
 30
0.0
  0
ENDBLK
  5
70D
  8
SIZE
  0
BLOCK
  8
SIZE
  2
*D21
 70
     1
 10
0.0
 20
0.0
 30
0.0
  3
*D21
  1

  0
TEXT
  5
710
  8
SIZE
  6
CONTINUOUS
 10
-883.703857
 20
703.643823
 30
0.0
 40
2.8
  1
110
 50
0.000003
 41
0.7
  7
STANDARD1
  0
LINE
  5
711
  8
SIZE
  6
CONTINUOUS
 10
-649.729736
 20
400.459473
 30
0.0
 11
-649.729736
 21
704.643799
 31
0.0
  0
LINE
  5
712
  8
SIZE
  6
CONTINUOUS
 10
-644.729736
 20
702.643799
 30
0.0
 11
-885.103882
 21
702.643799
 31
0.0
  0
CIRCLE
  5
713
  8
SIZE
  6
CONTINUOUS
 10
-649.729736
 20
702.643799
 30
0.0
 40
0.5
  0
CIRCLE
  5
714
  8
SIZE
  6
CONTINUOUS
 10
-649.729736
 20
702.643799
 30
0.0
 40
0.4
  0
CIRCLE
  5
715
  8
SIZE
  6
CONTINUOUS
 10
-649.729736
 20
702.643799
 30
0.0
 40
0.3
  0
CIRCLE
  5
716
  8
SIZE
  6
CONTINUOUS
 10
-649.729736
 20
702.643799
 30
0.0
 40
0.2
  0
CIRCLE
  5
717
  8
SIZE
  6
CONTINUOUS
 10
-649.729736
 20
702.643799
 30
0.0
 40
0.1
  0
CIRCLE
  5
718
  8
SIZE
  6
CONTINUOUS
 10
-759.729736
 20
702.643799
 30
0.0
 40
0.5
  0
CIRCLE
  5
719
  8
SIZE
  6
CONTINUOUS
 10
-759.729736
 20
702.643799
 30
0.0
 40
0.4
  0
CIRCLE
  5
71A
  8
SIZE
  6
CONTINUOUS
 10
-759.729736
 20
702.643799
 30
0.0
 40
0.3
  0
CIRCLE
  5
71B
  8
SIZE
  6
CONTINUOUS
 10
-759.729736
 20
702.643799
 30
0.0
 40
0.2
  0
CIRCLE
  5
71C
  8
SIZE
  6
CONTINUOUS
 10
-759.729736
 20
702.643799
 30
0.0
 40
0.1
  0
POINT
  5
71D
  8
DEFPOINTS
  6
BYBLOCK
 10
-759.729736
 20
-0.540541
 30
0.0
  0
POINT
  5
71E
  8
DEFPOINTS
  6
BYBLOCK
 10
-649.729736
 20
399.459473
 30
0.0
  0
POINT
  5
71F
  8
DEFPOINTS
  6
BYBLOCK
 10
-649.729736
 20
702.643799
 30
0.0
  0
ENDBLK
  5
720
  8
SIZE
  0
BLOCK
  8
SIZE
  2
*D22
 70
     1
 10
0.0
 20
0.0
 30
0.0
  3
*D22
  1

  0
TEXT
  5
723
  8
SIZE
  6
CONTINUOUS
 10
-1271.102075
 20
196.519455
 30
0.0
 40
2.8
  1
400
 50
90.00000499999999
 41
0.7
  7
STANDARD1
  0
LINE
  5
724
  8
SIZE
  6
CONTINUOUS
 10
-754.729736
 20
399.459473
 30
0.0
 11
-1272.102051
 21
399.459473
 31
0.0
  0
LINE
  5
725
  8
SIZE
  6
CONTINUOUS
 10
-1270.102051
 20
399.459473
 30
0.0
 11
-1270.102051
 21
-0.540541
 31
0.0
  0
CIRCLE
  5
726
  8
SIZE
  6
CONTINUOUS
 10
-1270.102051
 20
399.459473
 30
0.0
 40
0.5
  0
CIRCLE
  5
727
  8
SIZE
  6
CONTINUOUS
 10
-1270.102051
 20
399.459473
 30
0.0
 40
0.4
  0
CIRCLE
  5
728
  8
SIZE
  6
CONTINUOUS
 10
-1270.102051
 20
399.459473
 30
0.0
 40
0.3
  0
CIRCLE
  5
729
  8
SIZE
  6
CONTINUOUS
 10
-1270.102051
 20
399.459473
 30
0.0
 40
0.2
  0
CIRCLE
  5
72A
  8
SIZE
  6
CONTINUOUS
 10
-1270.102051
 20
399.459473
 30
0.0
 40
0.1
  0
CIRCLE
  5
72B
  8
SIZE
  6
CONTINUOUS
 10
-1270.102051
 20
-0.540541
 30
0.0
 40
0.5
  0
CIRCLE
  5
72C
  8
SIZE
  6
CONTINUOUS
 10
-1270.102051
 20
-0.540541
 30
0.0
 40
0.4
  0
CIRCLE
  5
72D
  8
SIZE
  6
CONTINUOUS
 10
-1270.102051
 20
-0.540541
 30
0.0
 40
0.3
  0
CIRCLE
  5
72E
  8
SIZE
  6
CONTINUOUS
 10
-1270.102051
 20
-0.540541
 30
0.0
 40
0.2
  0
CIRCLE
  5
72F
  8
SIZE
  6
CONTINUOUS
 10
-1270.102051
 20
-0.540541
 30
0.0
 40
0.1
  0
POINT
  5
730
  8
DEFPOINTS
  6
BYBLOCK
 10
-759.729736
 20
-0.540541
 30
0.0
  0
POINT
  5
731
  8
DEFPOINTS
  6
BYBLOCK
 10
-753.729736
 20
399.459473
 30
0.0
  0
POINT
  5
732
  8
DEFPOINTS
  6
BYBLOCK
 10
-1270.102051
 20
399.459473
 30
0.0
  0
ENDBLK
  5
733
  8
SIZE
  0
BLOCK
  8
SIZE
  2
*D23
 70
     1
 10
0.0
 20
0.0
 30
0.0
  3
*D23
  1

  0
TEXT
  5
736
  8
SIZE
  6
CONTINUOUS
 10
149.27027
 20
96.519455
 30
0.0
 40
2.8
  1
200
 50
90.00000499999999
 41
0.7
  7
STANDARD1
  0
LINE
  5
737
  8
SIZE
  6
CONTINUOUS
 10
-54.729706
 20
-0.540541
 30
0.0
 11
152.270264
 21
-0.540541
 31
0.0
  0
LINE
  5
738
  8
SIZE
  6
CONTINUOUS
 10
1.270279
 20
199.459457
 30
0.0
 11
152.270264
 21
199.459457
 31
0.0
  0
LINE
  5
739
  8
SIZE
  6
CONTINUOUS
 10
150.270264
 20
-0.540541
 30
0.0
 11
150.270264
 21
199.459457
 31
0.0
  0
CIRCLE
  5
73A
  8
SIZE
  6
CONTINUOUS
 10
150.270264
 20
-0.540541
 30
0.0
 40
0.5
  0
CIRCLE
  5
73B
  8
SIZE
  6
CONTINUOUS
 10
150.270264
 20
-0.540541
 30
0.0
 40
0.4
  0
CIRCLE
  5
73C
  8
SIZE
  6
CONTINUOUS
 10
150.270264
 20
-0.540541
 30
0.0
 40
0.3
  0
CIRCLE
  5
73D
  8
SIZE
  6
CONTINUOUS
 10
150.270264
 20
-0.540541
 30
0.0
 40
0.2
  0
CIRCLE
  5
73E
  8
SIZE
  6
CONTINUOUS
 10
150.270264
 20
-0.540541
 30
0.0
 40
0.1
  0
CIRCLE
  5
73F
  8
SIZE
  6
CONTINUOUS
 10
150.270264
 20
199.459457
 30
0.0
 40
0.5
  0
CIRCLE
  5
740
  8
SIZE
  6
CONTINUOUS
 10
150.270264
 20
199.459457
 30
0.0
 40
0.4
  0
CIRCLE
  5
741
  8
SIZE
  6
CONTINUOUS
 10
150.270264
 20
199.459457
 30
0.0
 40
0.3
  0
CIRCLE
  5
742
  8
SIZE
  6
CONTINUOUS
 10
150.270264
 20
199.459457
 30
0.0
 40
0.2
  0
CIRCLE
  5
743
  8
SIZE
  6
CONTINUOUS
 10
150.270264
 20
199.459457
 30
0.0
 40
0.1
  0
POINT
  5
744
  8
DEFPOINTS
  6
BYBLOCK
 10
0.270279
 20
199.459457
 30
0.0
  0
POINT
  5
745
  8
DEFPOINTS
  6
BYBLOCK
 10
-55.729706
 20
-0.540541
 30
0.0
  0
POINT
  5
746
  8
DEFPOINTS
  6
BYBLOCK
 10
150.270264
 20
-0.540541
 30
0.0
  0
ENDBLK
  5
747
  8
SIZE
  0
BLOCK
  8
SIZE
  2
*D24
 70
     1
 10
0.0
 20
0.0
 30
0.0
  3
*D24
  1

  0
TEXT
  5
74A
  8
SIZE
  6
CONTINUOUS
 10
-363.669739
 20
-870.288916
 30
0.0
 40
2.8
  1
570
 50
0.000003
 41
0.7
  7
STANDARD1
  0
LINE
  5
74B
  8
SIZE
  6
CONTINUOUS
 10
-75.729706
 20
-21.540541
 30
0.0
 11
-75.729706
 21
-873.28894
 31
0.0
  0
LINE
  5
74C
  8
SIZE
  6
CONTINUOUS
 10
-645.729736
 20
-21.540541
 30
0.0
 11
-645.729736
 21
-873.28894
 31
0.0
  0
LINE
  5
74D
  8
SIZE
  6
CONTINUOUS
 10
-75.729706
 20
-871.28894
 30
0.0
 11
-645.729736
 21
-871.28894
 31
0.0
  0
CIRCLE
  5
74E
  8
SIZE
  6
CONTINUOUS
 10
-75.729706
 20
-871.28894
 30
0.0
 40
0.5
  0
CIRCLE
  5
74F
  8
SIZE
  6
CONTINUOUS
 10
-75.729706
 20
-871.28894
 30
0.0
 40
0.4
  0
CIRCLE
  5
750
  8
SIZE
  6
CONTINUOUS
 10
-75.729706
 20
-871.28894
 30
0.0
 40
0.3
  0
CIRCLE
  5
751
  8
SIZE
  6
CONTINUOUS
 10
-75.729706
 20
-871.28894
 30
0.0
 40
0.2
  0
CIRCLE
  5
752
  8
SIZE
  6
CONTINUOUS
 10
-75.729706
 20
-871.28894
 30
0.0
 40
0.1
  0
CIRCLE
  5
753
  8
SIZE
  6
CONTINUOUS
 10
-645.729736
 20
-871.28894
 30
0.0
 40
0.5
  0
CIRCLE
  5
754
  8
SIZE
  6
CONTINUOUS
 10
-645.729736
 20
-871.28894
 30
0.0
 40
0.4
  0
CIRCLE
  5
755
  8
SIZE
  6
CONTINUOUS
 10
-645.729736
 20
-871.28894
 30
0.0
 40
0.3
  0
CIRCLE
  5
756
  8
SIZE
  6
CONTINUOUS
 10
-645.729736
 20
-871.28894
 30
0.0
 40
0.2
  0
CIRCLE
  5
757
  8
SIZE
  6
CONTINUOUS
 10
-645.729736
 20
-871.28894
 30
0.0
 40
0.1
  0
POINT
  5
758
  8
DEFPOINTS
  6
BYBLOCK
 10
-645.729736
 20
-20.540541
 30
0.0
  0
POINT
  5
759
  8
DEFPOINTS
  6
BYBLOCK
 10
-75.729706
 20
-20.540541
 30
0.0
  0
POINT
  5
75A
  8
DEFPOINTS
  6
BYBLOCK
 10
-75.729706
 20
-871.28894
 30
0.0
  0
ENDBLK
  5
75B
  8
SIZE
  0
BLOCK
  8
SIZE
  2
*D25
 70
     1
 10
0.0
 20
0.0
 30
0.0
  3
*D25
  1

  0
TEXT
  5
75E
  8
SIZE
  6
CONTINUOUS
 10
-362.045654
 20
-970.288916
 30
0.0
 40
2.8
  1
534
 50
0.000003
 41
0.7
  7
STANDARD1
  0
LINE
  5
75F
  8
SIZE
  6
CONTINUOUS
 10
-111.729706
 20
-21.540541
 30
0.0
 11
-111.729706
 21
-973.28894
 31
0.0
  0
LINE
  5
760
  8
SIZE
  6
CONTINUOUS
 10
-645.729736
 20
-21.540541
 30
0.0
 11
-645.729736
 21
-973.28894
 31
0.0
  0
LINE
  5
761
  8
SIZE
  6
CONTINUOUS
 10
-111.729706
 20
-971.28894
 30
0.0
 11
-645.729736
 21
-971.28894
 31
0.0
  0
CIRCLE
  5
762
  8
SIZE
  6
CONTINUOUS
 10
-111.729706
 20
-971.28894
 30
0.0
 40
0.5
  0
CIRCLE
  5
763
  8
SIZE
  6
CONTINUOUS
 10
-111.729706
 20
-971.28894
 30
0.0
 40
0.4
  0
CIRCLE
  5
764
  8
SIZE
  6
CONTINUOUS
 10
-111.729706
 20
-971.28894
 30
0.0
 40
0.3
  0
CIRCLE
  5
765
  8
SIZE
  6
CONTINUOUS
 10
-111.729706
 20
-971.28894
 30
0.0
 40
0.2
  0
CIRCLE
  5
766
  8
SIZE
  6
CONTINUOUS
 10
-111.729706
 20
-971.28894
 30
0.0
 40
0.1
  0
CIRCLE
  5
767
  8
SIZE
  6
CONTINUOUS
 10
-645.729736
 20
-971.28894
 30
0.0
 40
0.5
  0
CIRCLE
  5
768
  8
SIZE
  6
CONTINUOUS
 10
-645.729736
 20
-971.28894
 30
0.0
 40
0.4
  0
CIRCLE
  5
769
  8
SIZE
  6
CONTINUOUS
 10
-645.729736
 20
-971.28894
 30
0.0
 40
0.3
  0
CIRCLE
  5
76A
  8
SIZE
  6
CONTINUOUS
 10
-645.729736
 20
-971.28894
 30
0.0
 40
0.2
  0
CIRCLE
  5
76B
  8
SIZE
  6
CONTINUOUS
 10
-645.729736
 20
-971.28894
 30
0.0
 40
0.1
  0
POINT
  5
76C
  8
DEFPOINTS
  6
BYBLOCK
 10
-645.729736
 20
-20.540541
 30
0.0
  0
POINT
  5
76D
  8
DEFPOINTS
  6
BYBLOCK
 10
-111.729706
 20
-20.540541
 30
0.0
  0
POINT
  5
76E
  8
DEFPOINTS
  6
BYBLOCK
 10
-111.729706
 20
-971.28894
 30
0.0
  0
ENDBLK
  5
76F
  8
SIZE
  0
BLOCK
  8
SIZE
  2
*D26
 70
     1
 10
0.0
 20
0.0
 30
0.0
  3
*D26
  1

  0
TEXT
  5
772
  8
SIZE
  6
CONTINUOUS
 10
155.003952
 20
2520.459375
 30
0.0
 40
2.8
  1
最大
 50
0.000003
 41
0.583333
  7
STANDARD1
  0
TEXT
  5
773
  8
SIZE
  6
CONTINUOUS
 10
158.92395
 20
2520.459375
 30
0.0
 40
2.8
  1
80
 50
0.000003
 41
0.7
  7
STANDARD1
  0
LINE
  5
774
  8
SIZE
  6
CONTINUOUS
 10
80.270279
 20
2215.459473
 30
0.0
 11
80.270279
 21
2521.459473
 31
0.0
  0
LINE
  5
775
  8
SIZE
  6
CONTINUOUS
 10
0.270279
 20
2370.459473
 30
0.0
 11
0.270279
 21
2521.459473
 31
0.0
  0
LINE
  5
776
  8
SIZE
  6
CONTINUOUS
 10
164.243958
 20
2519.459473
 30
0.0
 11
-4.729721
 21
2519.459473
 31
0.0
  0
CIRCLE
  5
777
  8
SIZE
  6
CONTINUOUS
 10
80.270279
 20
2519.459473
 30
0.0
 40
0.5
  0
CIRCLE
  5
778
  8
SIZE
  6
CONTINUOUS
 10
80.270279
 20
2519.459473
 30
0.0
 40
0.4
  0
CIRCLE
  5
779
  8
SIZE
  6
CONTINUOUS
 10
80.270279
 20
2519.459473
 30
0.0
 40
0.3
  0
CIRCLE
  5
77A
  8
SIZE
  6
CONTINUOUS
 10
80.270279
 20
2519.459473
 30
0.0
 40
0.2
  0
CIRCLE
  5
77B
  8
SIZE
  6
CONTINUOUS
 10
80.270279
 20
2519.459473
 30
0.0
 40
0.1
  0
CIRCLE
  5
77C
  8
SIZE
  6
CONTINUOUS
 10
0.270279
 20
2519.459473
 30
0.0
 40
0.5
  0
CIRCLE
  5
77D
  8
SIZE
  6
CONTINUOUS
 10
0.270279
 20
2519.459473
 30
0.0
 40
0.4
  0
CIRCLE
  5
77E
  8
SIZE
  6
CONTINUOUS
 10
0.270279
 20
2519.459473
 30
0.0
 40
0.3
  0
CIRCLE
  5
77F
  8
SIZE
  6
CONTINUOUS
 10
0.270279
 20
2519.459473
 30
0.0
 40
0.2
  0
CIRCLE
  5
780
  8
SIZE
  6
CONTINUOUS
 10
0.270279
 20
2519.459473
 30
0.0
 40
0.1
  0
POINT
  5
781
  8
DEFPOINTS
  6
BYBLOCK
 10
0.270279
 20
2369.459473
 30
0.0
  0
POINT
  5
782
  8
DEFPOINTS
  6
BYBLOCK
 10
80.270279
 20
2214.459473
 30
0.0
  0
POINT
  5
783
  8
DEFPOINTS
  6
BYBLOCK
 10
80.270279
 20
2519.459473
 30
0.0
  0
ENDBLK
  5
784
  8
SIZE
  0
BLOCK
  8
SIZE
  2
*D27
 70
     1
 10
0.0
 20
0.0
 30
0.0
  3
*D27
  1

  0
TEXT
  5
787
  8
SIZE
  6
CONTINUOUS
 10
-382.669739
 20
2520.459375
 30
0.0
 40
2.8
  1
760
 50
0.000003
 41
0.7
  7
STANDARD1
  0
LINE
  5
788
  8
SIZE
  6
CONTINUOUS
 10
0.270279
 20
2370.459473
 30
0.0
 11
0.270279
 21
2521.459473
 31
0.0
  0
LINE
  5
789
  8
SIZE
  6
CONTINUOUS
 10
-759.729736
 20
2370.459473
 30
0.0
 11
-759.729736
 21
2521.459473
 31
0.0
  0
LINE
  5
78A
  8
SIZE
  6
CONTINUOUS
 10
0.270279
 20
2519.459473
 30
0.0
 11
-759.729736
 21
2519.459473
 31
0.0
  0
CIRCLE
  5
78B
  8
SIZE
  6
CONTINUOUS
 10
0.270279
 20
2519.459473
 30
0.0
 40
0.5
  0
CIRCLE
  5
78C
  8
SIZE
  6
CONTINUOUS
 10
0.270279
 20
2519.459473
 30
0.0
 40
0.4
  0
CIRCLE
  5
78D
  8
SIZE
  6
CONTINUOUS
 10
0.270279
 20
2519.459473
 30
0.0
 40
0.3
  0
CIRCLE
  5
78E
  8
SIZE
  6
CONTINUOUS
 10
0.270279
 20
2519.459473
 30
0.0
 40
0.2
  0
CIRCLE
  5
78F
  8
SIZE
  6
CONTINUOUS
 10
0.270279
 20
2519.459473
 30
0.0
 40
0.1
  0
CIRCLE
  5
790
  8
SIZE
  6
CONTINUOUS
 10
-759.729736
 20
2519.459473
 30
0.0
 40
0.5
  0
CIRCLE
  5
791
  8
SIZE
  6
CONTINUOUS
 10
-759.729736
 20
2519.459473
 30
0.0
 40
0.4
  0
CIRCLE
  5
792
  8
SIZE
  6
CONTINUOUS
 10
-759.729736
 20
2519.459473
 30
0.0
 40
0.3
  0
CIRCLE
  5
793
  8
SIZE
  6
CONTINUOUS
 10
-759.729736
 20
2519.459473
 30
0.0
 40
0.2
  0
CIRCLE
  5
794
  8
SIZE
  6
CONTINUOUS
 10
-759.729736
 20
2519.459473
 30
0.0
 40
0.1
  0
POINT
  5
795
  8
DEFPOINTS
  6
BYBLOCK
 10
-759.729736
 20
2369.459473
 30
0.0
  0
POINT
  5
796
  8
DEFPOINTS
  6
BYBLOCK
 10
0.270279
 20
2369.459473
 30
0.0
  0
POINT
  5
797
  8
DEFPOINTS
  6
BYBLOCK
 10
0.270279
 20
2519.459473
 30
0.0
  0
ENDBLK
  5
798
  8
SIZE
  0
BLOCK
  8
SIZE
  2
*D28
 70
     1
 10
0.0
 20
0.0
 30
0.0
  3
*D28
  1

  0
TEXT
  5
79B
  8
SIZE
  6
CONTINUOUS
 10
-1062.669678
 20
2520.459375
 30
0.0
 40
2.8
  1
600
 50
0.000003
 41
0.7
  7
STANDARD1
  0
LINE
  5
79C
  8
SIZE
  6
CONTINUOUS
 10
-1359.729736
 20
2370.459473
 30
0.0
 11
-1359.729736
 21
2521.459473
 31
0.0
  0
LINE
  5
79D
  8
SIZE
  6
CONTINUOUS
 10
-759.729736
 20
2370.459473
 30
0.0
 11
-759.729736
 21
2521.459473
 31
0.0
  0
LINE
  5
79E
  8
SIZE
  6
CONTINUOUS
 10
-1359.729736
 20
2519.459473
 30
0.0
 11
-759.729736
 21
2519.459473
 31
0.0
  0
CIRCLE
  5
79F
  8
SIZE
  6
CONTINUOUS
 10
-1359.729736
 20
2519.459473
 30
0.0
 40
0.5
  0
CIRCLE
  5
7A0
  8
SIZE
  6
CONTINUOUS
 10
-1359.729736
 20
2519.459473
 30
0.0
 40
0.4
  0
CIRCLE
  5
7A1
  8
SIZE
  6
CONTINUOUS
 10
-1359.729736
 20
2519.459473
 30
0.0
 40
0.3
  0
CIRCLE
  5
7A2
  8
SIZE
  6
CONTINUOUS
 10
-1359.729736
 20
2519.459473
 30
0.0
 40
0.2
  0
CIRCLE
  5
7A3
  8
SIZE
  6
CONTINUOUS
 10
-1359.729736
 20
2519.459473
 30
0.0
 40
0.1
  0
CIRCLE
  5
7A4
  8
SIZE
  6
CONTINUOUS
 10
-759.729736
 20
2519.459473
 30
0.0
 40
0.5
  0
CIRCLE
  5
7A5
  8
SIZE
  6
CONTINUOUS
 10
-759.729736
 20
2519.459473
 30
0.0
 40
0.4
  0
CIRCLE
  5
7A6
  8
SIZE
  6
CONTINUOUS
 10
-759.729736
 20
2519.459473
 30
0.0
 40
0.3
  0
CIRCLE
  5
7A7
  8
SIZE
  6
CONTINUOUS
 10
-759.729736
 20
2519.459473
 30
0.0
 40
0.2
  0
CIRCLE
  5
7A8
  8
SIZE
  6
CONTINUOUS
 10
-759.729736
 20
2519.459473
 30
0.0
 40
0.1
  0
POINT
  5
7A9
  8
DEFPOINTS
  6
BYBLOCK
 10
-759.729736
 20
2369.459473
 30
0.0
  0
POINT
  5
7AA
  8
DEFPOINTS
  6
BYBLOCK
 10
-1359.729736
 20
2369.459473
 30
0.0
  0
POINT
  5
7AB
  8
DEFPOINTS
  6
BYBLOCK
 10
-1359.729736
 20
2519.459473
 30
0.0
  0
ENDBLK
  5
7AC
  8
SIZE
  0
BLOCK
  8
SIZE
  2
*D29
 70
     1
 10
0.0
 20
0.0
 30
0.0
  3
*D29
  1

  0
TEXT
  5
7AF
  8
SIZE
  6
CONTINUOUS
 10
249.27027
 20
2266.519531
 30
0.0
 40
2.8
  1
200
 50
90.00000499999999
 41
0.7
  7
STANDARD1
  0
LINE
  5
7B0
  8
SIZE
  6
CONTINUOUS
 10
1.270279
 20
2169.459473
 30
0.0
 11
252.270264
 21
2169.459473
 31
0.0
  0
LINE
  5
7B1
  8
SIZE
  6
CONTINUOUS
 10
1.270279
 20
2369.459473
 30
0.0
 11
252.270264
 21
2369.459473
 31
0.0
  0
LINE
  5
7B2
  8
SIZE
  6
CONTINUOUS
 10
250.270264
 20
2169.459473
 30
0.0
 11
250.270264
 21
2369.459473
 31
0.0
  0
CIRCLE
  5
7B3
  8
SIZE
  6
CONTINUOUS
 10
250.270264
 20
2169.459473
 30
0.0
 40
0.5
  0
CIRCLE
  5
7B4
  8
SIZE
  6
CONTINUOUS
 10
250.270264
 20
2169.459473
 30
0.0
 40
0.4
  0
CIRCLE
  5
7B5
  8
SIZE
  6
CONTINUOUS
 10
250.270264
 20
2169.459473
 30
0.0
 40
0.3
  0
CIRCLE
  5
7B6
  8
SIZE
  6
CONTINUOUS
 10
250.270264
 20
2169.459473
 30
0.0
 40
0.2
  0
CIRCLE
  5
7B7
  8
SIZE
  6
CONTINUOUS
 10
250.270264
 20
2169.459473
 30
0.0
 40
0.1
  0
CIRCLE
  5
7B8
  8
SIZE
  6
CONTINUOUS
 10
250.270264
 20
2369.459473
 30
0.0
 40
0.5
  0
CIRCLE
  5
7B9
  8
SIZE
  6
CONTINUOUS
 10
250.270264
 20
2369.459473
 30
0.0
 40
0.4
  0
CIRCLE
  5
7BA
  8
SIZE
  6
CONTINUOUS
 10
250.270264
 20
2369.459473
 30
0.0
 40
0.3
  0
CIRCLE
  5
7BB
  8
SIZE
  6
CONTINUOUS
 10
250.270264
 20
2369.459473
 30
0.0
 40
0.2
  0
CIRCLE
  5
7BC
  8
SIZE
  6
CONTINUOUS
 10
250.270264
 20
2369.459473
 30
0.0
 40
0.1
  0
POINT
  5
7BD
  8
DEFPOINTS
  6
BYBLOCK
 10
0.270279
 20
2369.459473
 30
0.0
  0
POINT
  5
7BE
  8
DEFPOINTS
  6
BYBLOCK
 10
0.270279
 20
2169.459473
 30
0.0
  0
POINT
  5
7BF
  8
DEFPOINTS
  6
BYBLOCK
 10
250.270264
 20
2169.459473
 30
0.0
  0
ENDBLK
  5
7C0
  8
SIZE
  0
BLOCK
  8
0
  2
_ORIGIN
 70
     0
 10
0.0
 20
0.0
 30
0.0
  3
_ORIGIN
  1

  0
CIRCLE
  5
7C3
  8
0
  6
BYBLOCK
 62
     0
 10
0.0
 20
0.0
 30
0.0
 40
0.5
  0
LINE
  5
7C4
  8
0
  6
BYBLOCK
 62
     0
 10
0.0
 20
0.0
 30
0.0
 11
-1.0
 21
0.0
 31
0.0
  0
ENDBLK
  5
7C5
  8
0
  0
BLOCK
  8
0
  2
*D31
 70
     1
 10
0.0
 20
0.0
 30
0.0
  3
*D31
  1

  0
LINE
  5
7C8
  8
0
  6
BYBLOCK
 62
     0
 10
10.270279
 20
2369.459473
 30
0.0
 11
260.370264
 21
2369.459473
 31
0.0
  0
LINE
  5
7C9
  8
0
  6
BYBLOCK
 62
     0
 10
10.270279
 20
2169.459473
 30
0.0
 11
260.370264
 21
2169.459473
 31
0.0
  0
LINE
  5
7CA
  8
0
  6
BYBLOCK
 62
     0
 10
247.870264
 20
2359.459473
 30
0.0
 11
247.870264
 21
2179.459473
 31
0.0
  0
INSERT
  5
7CB
  8
0
  6
BYBLOCK
 62
     0
  2
_ORIGIN
 10
247.870264
 20
2369.459473
 30
0.0
 41
10.0
 42
10.0
 43
10.0
 50
90.0
  0
INSERT
  5
7CC
  8
0
  6
BYBLOCK
 62
     0
  2
_ORIGIN
 10
247.870264
 20
2169.459473
 30
0.0
 41
10.0
 42
10.0
 43
10.0
 50
270.0
  0
TEXT
  5
7CD
  8
0
  6
BYBLOCK
 62
     0
 10
237.870264
 20
2229.559473
 30
0.0
 40
30.0
  1
200
 50
90.0
 72
     1
 11
237.870264
 21
2269.459473
 31
0.0
  0
POINT
  5
7CE
  8
DEFPOINTS
  6
BYBLOCK
 62
     0
 10
0.270279
 20
2369.459473
 30
0.0
  0
POINT
  5
7CF
  8
DEFPOINTS
  6
BYBLOCK
 62
     0
 10
0.270279
 20
2169.459473
 30
0.0
  0
POINT
  5
7D0
  8
DEFPOINTS
  6
BYBLOCK
 62
     0
 10
247.870264
 20
2169.459473
 30
0.0
  0
ENDBLK
  5
7D1
  8
0
  0
BLOCK
  8
0
  2
*D32
 70
     1
 10
0.0
 20
0.0
 30
0.0
  3
*D32
  1

  0
LINE
  5
7D4
  8
0
  6
BYBLOCK
 62
     0
 10
-759.729736
 20
2379.459473
 30
0.0
 11
-759.729736
 21
2534.359473
 31
0.0
  0
LINE
  5
7D5
  8
0
  6
BYBLOCK
 62
     0
 10
-1359.729736
 20
2379.459473
 30
0.0
 11
-1359.729736
 21
2534.359473
 31
0.0
  0
LINE
  5
7D6
  8
0
  6
BYBLOCK
 62
     0
 10
-769.729736
 20
2521.859473
 30
0.0
 11
-1349.729736
 21
2521.859473
 31
0.0
  0
INSERT
  5
7D7
  8
0
  6
BYBLOCK
 62
     0
  2
_ORIGIN
 10
-759.729736
 20
2521.859473
 30
0.0
 41
10.0
 42
10.0
 43
10.0
  0
INSERT
  5
7D8
  8
0
  6
BYBLOCK
 62
     0
  2
_ORIGIN
 10
-1359.729736
 20
2521.859473
 30
0.0
 41
10.0
 42
10.0
 43
10.0
 50
180.0
  0
TEXT
  5
7D9
  8
0
  6
BYBLOCK
 62
     0
 10
-1099.629736
 20
2531.859473
 30
0.0
 40
30.0
  1
600
 72
     1
 11
-1059.729736
 21
2531.859473
 31
0.0
  0
POINT
  5
7DA
  8
DEFPOINTS
  6
BYBLOCK
 62
     0
 10
-759.729736
 20
2369.459473
 30
0.0
  0
POINT
  5
7DB
  8
DEFPOINTS
  6
BYBLOCK
 62
     0
 10
-1359.729736
 20
2369.459473
 30
0.0
  0
POINT
  5
7DC
  8
DEFPOINTS
  6
BYBLOCK
 62
     0
 10
-1359.729736
 20
2521.859473
 30
0.0
  0
ENDBLK
  5
7DD
  8
0
  0
BLOCK
  8
0
  2
*D33
 70
     1
 10
0.0
 20
0.0
 30
0.0
  3
*D33
  1

  0
LINE
  5
7E0
  8
0
  6
BYBLOCK
 62
     0
 10
-759.729736
 20
2379.459473
 30
0.0
 11
-759.729736
 21
2534.359473
 31
0.0
  0
LINE
  5
7E1
  8
0
  6
BYBLOCK
 62
     0
 10
0.270279
 20
2379.459473
 30
0.0
 11
0.270279
 21
2534.359473
 31
0.0
  0
LINE
  5
7E2
  8
0
  6
BYBLOCK
 62
     0
 10
-749.729736
 20
2521.859473
 30
0.0
 11
-9.729721
 21
2521.859473
 31
0.0
  0
INSERT
  5
7E3
  8
0
  6
BYBLOCK
 62
     0
  2
_ORIGIN
 10
-759.729736
 20
2521.859473
 30
0.0
 41
10.0
 42
10.0
 43
10.0
 50
180.0
  0
INSERT
  5
7E4
  8
0
  6
BYBLOCK
 62
     0
  2
_ORIGIN
 10
0.270279
 20
2521.859473
 30
0.0
 41
10.0
 42
10.0
 43
10.0
  0
TEXT
  5
7E5
  8
0
  6
BYBLOCK
 62
     0
 10
-422.179736
 20
2531.859473
 30
0.0
 40
30.0
  1
760
 72
     1
 11
-379.729736
 21
2531.859473
 31
0.0
  0
POINT
  5
7E6
  8
DEFPOINTS
  6
BYBLOCK
 62
     0
 10
-759.729736
 20
2369.459473
 30
0.0
  0
POINT
  5
7E7
  8
DEFPOINTS
  6
BYBLOCK
 62
     0
 10
0.270279
 20
2369.459473
 30
0.0
  0
POINT
  5
7E8
  8
DEFPOINTS
  6
BYBLOCK
 62
     0
 10
0.270279
 20
2521.859473
 30
0.0
  0
ENDBLK
  5
7E9
  8
0
  0
BLOCK
  8
0
  2
*D34
 70
     1
 10
0.0
 20
0.0
 30
0.0
  3
*D34
  1

  0
LINE
  5
7EC
  8
0
  6
BYBLOCK
 62
     0
 10
0.270279
 20
2379.459473
 30
0.0
 11
0.270279
 21
2534.359473
 31
0.0
  0
LINE
  5
7ED
  8
0
  6
BYBLOCK
 62
     0
 10
80.270279
 20
2224.459473
 30
0.0
 11
80.270279
 21
2534.359473
 31
0.0
  0
LINE
  5
7EE
  8
0
  6
BYBLOCK
 62
     0
 10
10.270279
 20
2521.859473
 30
0.0
 11
70.270279
 21
2521.859473
 31
0.0
  0
LINE
  5
7EF
  8
0
  6
BYBLOCK
 62
     0
 10
80.270279
 20
2521.859473
 30
0.0
 11
191.42395
 21
2521.859473
 31
0.0
  0
INSERT
  5
7F0
  8
0
  6
BYBLOCK
 62
     0
  2
_ORIGIN
 10
0.270279
 20
2521.859473
 30
0.0
 41
10.0
 42
10.0
 43
10.0
 50
180.0
  0
INSERT
  5
7F1
  8
0
  6
BYBLOCK
 62
     0
  2
_ORIGIN
 10
80.270279
 20
2521.859473
 30
0.0
 41
10.0
 42
10.0
 43
10.0
  0
TEXT
  5
7F2
  8
0
  6
BYBLOCK
 62
     0
 10
131.47395
 20
2531.859473
 30
0.0
 40
30.0
  1
80
 72
     1
 11
158.92395
 21
2531.859473
 31
0.0
  0
POINT
  5
7F3
  8
DEFPOINTS
  6
BYBLOCK
 62
     0
 10
0.270279
 20
2369.459473
 30
0.0
  0
POINT
  5
7F4
  8
DEFPOINTS
  6
BYBLOCK
 62
     0
 10
80.270279
 20
2214.459473
 30
0.0
  0
POINT
  5
7F5
  8
DEFPOINTS
  6
BYBLOCK
 62
     0
 10
80.270279
 20
2521.859473
 30
0.0
  0
ENDBLK
  5
7F6
  8
0
  0
BLOCK
  8
0
  2
*D35
 70
     1
 10
0.0
 20
0.0
 30
0.0
  3
*D35
  1

  0
LINE
  5
7F9
  8
0
  6
BYBLOCK
 62
     0
 10
-645.729736
 20
-30.540541
 30
0.0
 11
-645.729736
 21
-981.38894
 31
0.0
  0
LINE
  5
7FA
  8
0
  6
BYBLOCK
 62
     0
 10
-111.729706
 20
-30.540541
 30
0.0
 11
-111.729706
 21
-981.38894
 31
0.0
  0
LINE
  5
7FB
  8
0
  6
BYBLOCK
 62
     0
 10
-635.729736
 20
-968.88894
 30
0.0
 11
-121.729706
 21
-968.88894
 31
0.0
  0
INSERT
  5
7FC
  8
0
  6
BYBLOCK
 62
     0
  2
_ORIGIN
 10
-645.729736
 20
-968.88894
 30
0.0
 41
10.0
 42
10.0
 43
10.0
 50
180.0
  0
INSERT
  5
7FD
  8
0
  6
BYBLOCK
 62
     0
  2
_ORIGIN
 10
-111.729706
 20
-968.88894
 30
0.0
 41
10.0
 42
10.0
 43
10.0
  0
TEXT
  5
7FE
  8
0
  6
BYBLOCK
 62
     0
 10
-404.105652
 20
-958.88894
 30
0.0
 40
30.0
  1
534
 72
     1
 11
-359.105652
 21
-958.88894
 31
0.0
  0
POINT
  5
7FF
  8
DEFPOINTS
  6
BYBLOCK
 62
     0
 10
-645.729736
 20
-20.540541
 30
0.0
  0
POINT
  5
800
  8
DEFPOINTS
  6
BYBLOCK
 62
     0
 10
-111.729706
 20
-20.540541
 30
0.0
  0
POINT
  5
801
  8
DEFPOINTS
  6
BYBLOCK
 62
     0
 10
-111.729706
 20
-968.88894
 30
0.0
  0
ENDBLK
  5
802
  8
0
  0
BLOCK
  8
0
  2
*D36
 70
     1
 10
0.0
 20
0.0
 30
0.0
  3
*D36
  1

  0
LINE
  5
805
  8
0
  6
BYBLOCK
 62
     0
 10
-645.729736
 20
-30.540541
 30
0.0
 11
-645.729736
 21
-881.38894
 31
0.0
  0
LINE
  5
806
  8
0
  6
BYBLOCK
 62
     0
 10
-75.729706
 20
-30.540541
 30
0.0
 11
-75.729706
 21
-881.38894
 31
0.0
  0
LINE
  5
807
  8
0
  6
BYBLOCK
 62
     0
 10
-635.729736
 20
-868.88894
 30
0.0
 11
-85.729706
 21
-868.88894
 31
0.0
  0
INSERT
  5
808
  8
0
  6
BYBLOCK
 62
     0
  2
_ORIGIN
 10
-645.729736
 20
-868.88894
 30
0.0
 41
10.0
 42
10.0
 43
10.0
 50
180.0
  0
INSERT
  5
809
  8
0
  6
BYBLOCK
 62
     0
  2
_ORIGIN
 10
-75.729706
 20
-868.88894
 30
0.0
 41
10.0
 42
10.0
 43
10.0
  0
TEXT
  5
80A
  8
0
  6
BYBLOCK
 62
     0
 10
-403.179736
 20
-858.88894
 30
0.0
 40
30.0
  1
570
 72
     1
 11
-360.729736
 21
-858.88894
 31
0.0
  0
POINT
  5
80B
  8
DEFPOINTS
  6
BYBLOCK
 62
     0
 10
-645.729736
 20
-20.540541
 30
0.0
  0
POINT
  5
80C
  8
DEFPOINTS
  6
BYBLOCK
 62
     0
 10
-75.729706
 20
-20.540541
 30
0.0
  0
POINT
  5
80D
  8
DEFPOINTS
  6
BYBLOCK
 62
     0
 10
-75.729706
 20
-868.88894
 30
0.0
  0
ENDBLK
  5
80E
  8
0
  0
BLOCK
  8
0
  2
*D37
 70
     1
 10
0.0
 20
0.0
 30
0.0
  3
*D37
  1

  0
LINE
  5
811
  8
0
  6
BYBLOCK
 62
     0
 10
10.270279
 20
199.459457
 30
0.0
 11
160.370264
 21
199.459457
 31
0.0
  0
LINE
  5
812
  8
0
  6
BYBLOCK
 62
     0
 10
-45.729706
 20
-0.540541
 30
0.0
 11
160.370264
 21
-0.540541
 31
0.0
  0
LINE
  5
813
  8
0
  6
BYBLOCK
 62
     0
 10
147.870264
 20
189.459457
 30
0.0
 11
147.870264
 21
9.459459
 31
0.0
  0
INSERT
  5
814
  8
0
  6
BYBLOCK
 62
     0
  2
_ORIGIN
 10
147.870264
 20
199.459457
 30
0.0
 41
10.0
 42
10.0
 43
10.0
 50
90.0
  0
INSERT
  5
815
  8
0
  6
BYBLOCK
 62
     0
  2
_ORIGIN
 10
147.870264
 20
-0.540541
 30
0.0
 41
10.0
 42
10.0
 43
10.0
 50
270.0
  0
TEXT
  5
816
  8
0
  6
BYBLOCK
 62
     0
 10
137.870264
 20
59.559457
 30
0.0
 40
30.0
  1
200
 50
90.0
 72
     1
 11
137.870264
 21
99.459457
 31
0.0
  0
POINT
  5
817
  8
DEFPOINTS
  6
BYBLOCK
 62
     0
 10
0.270279
 20
199.459457
 30
0.0
  0
POINT
  5
818
  8
DEFPOINTS
  6
BYBLOCK
 62
     0
 10
-55.729706
 20
-0.540541
 30
0.0
  0
POINT
  5
819
  8
DEFPOINTS
  6
BYBLOCK
 62
     0
 10
147.870264
 20
-0.540541
 30
0.0
  0
ENDBLK
  5
81A
  8
0
  0
BLOCK
  8
0
  2
*D38
 70
     1
 10
0.0
 20
0.0
 30
0.0
  3
*D38
  1

  0
LINE
  5
81D
  8
0
  6
BYBLOCK
 62
     0
 10
-769.729736
 20
-0.540541
 30
0.0
 11
-1285.002051
 21
-0.540541
 31
0.0
  0
LINE
  5
81E
  8
0
  6
BYBLOCK
 62
     0
 10
-763.729736
 20
399.459473
 30
0.0
 11
-1285.002051
 21
399.459473
 31
0.0
  0
LINE
  5
81F
  8
0
  6
BYBLOCK
 62
     0
 10
-1272.502051
 20
9.459459
 30
0.0
 11
-1272.502051
 21
389.459473
 31
0.0
  0
INSERT
  5
820
  8
0
  6
BYBLOCK
 62
     0
  2
_ORIGIN
 10
-1272.502051
 20
-0.540541
 30
0.0
 41
10.0
 42
10.0
 43
10.0
 50
270.0
  0
INSERT
  5
821
  8
0
  6
BYBLOCK
 62
     0
  2
_ORIGIN
 10
-1272.502051
 20
399.459473
 30
0.0
 41
10.0
 42
10.0
 43
10.0
 50
90.0
  0
TEXT
  5
822
  8
0
  6
BYBLOCK
 62
     0
 10
-1282.502051
 20
159.559457
 30
0.0
 40
30.0
  1
400
 50
90.0
 72
     1
 11
-1282.502051
 21
199.459457
 31
0.0
  0
POINT
  5
823
  8
DEFPOINTS
  6
BYBLOCK
 62
     0
 10
-759.729736
 20
-0.540541
 30
0.0
  0
POINT
  5
824
  8
DEFPOINTS
  6
BYBLOCK
 62
     0
 10
-753.729736
 20
399.459473
 30
0.0
  0
POINT
  5
825
  8
DEFPOINTS
  6
BYBLOCK
 62
     0
 10
-1272.502051
 20
399.459473
 30
0.0
  0
ENDBLK
  5
826
  8
0
  0
BLOCK
  8
0
  2
*D39
 70
     1
 10
0.0
 20
0.0
 30
0.0
  3
*D39
  1

  0
LINE
  5
829
  8
0
  6
BYBLOCK
 62
     0
 10
-759.729736
 20
9.459459
 30
0.0
 11
-759.729736
 21
717.543799
 31
0.0
  0
LINE
  5
82A
  8
0
  6
BYBLOCK
 62
     0
 10
-649.729736
 20
409.459473
 30
0.0
 11
-649.729736
 21
717.543799
 31
0.0
  0
LINE
  5
82B
  8
0
  6
BYBLOCK
 62
     0
 10
-659.729736
 20
705.043799
 30
0.0
 11
-749.729736
 21
705.043799
 31
0.0
  0
LINE
  5
82C
  8
0
  6
BYBLOCK
 62
     0
 10
-759.729736
 20
705.043799
 30
0.0
 11
-918.263858
 21
705.043799
 31
0.0
  0
INSERT
  5
82D
  8
0
  6
BYBLOCK
 62
     0
  2
_ORIGIN
 10
-649.729736
 20
705.043799
 30
0.0
 41
10.0
 42
10.0
 43
10.0
  0
INSERT
  5
82E
  8
0
  6
BYBLOCK
 62
     0
  2
_ORIGIN
 10
-759.729736
 20
705.043799
 30
0.0
 41
10.0
 42
10.0
 43
10.0
 50
180.0
  0
TEXT
  5
82F
  8
0
  6
BYBLOCK
 62
     0
 10
-912.713858
 20
715.043799
 30
0.0
 40
30.0
  1
110
 72
     1
 11
-880.763858
 21
715.043799
 31
0.0
  0
POINT
  5
830
  8
DEFPOINTS
  6
BYBLOCK
 62
     0
 10
-759.729736
 20
-0.540541
 30
0.0
  0
POINT
  5
831
  8
DEFPOINTS
  6
BYBLOCK
 62
     0
 10
-649.729736
 20
399.459473
 30
0.0
  0
POINT
  5
832
  8
DEFPOINTS
  6
BYBLOCK
 62
     0
 10
-649.729736
 20
705.043799
 30
0.0
  0
ENDBLK
  5
833
  8
0
  0
BLOCK
  8
0
  2
*D40
 70
     1
 10
0.0
 20
0.0
 30
0.0
  3
*D40
  1

  0
LINE
  5
836
  8
0
  6
BYBLOCK
 62
     0
 10
-655.729736
 20
-0.540541
 30
0.0
 11
-425.131811
 21
-0.540541
 31
0.0
  0
LINE
  5
837
  8
0
  6
BYBLOCK
 62
     0
 10
-565.729736
 20
154.459457
 30
0.0
 11
-425.131811
 21
154.459457
 31
0.0
  0
LINE
  5
838
  8
0
  6
BYBLOCK
 62
     0
 10
-437.631811
 20
9.459459
 30
0.0
 11
-437.631811
 21
144.459457
 31
0.0
  0
INSERT
  5
839
  8
0
  6
BYBLOCK
 62
     0
  2
_ORIGIN
 10
-437.631811
 20
-0.540541
 30
0.0
 41
10.0
 42
10.0
 43
10.0
 50
270.0
  0
INSERT
  5
83A
  8
0
  6
BYBLOCK
 62
     0
  2
_ORIGIN
 10
-437.631811
 20
154.459457
 30
0.0
 41
10.0
 42
10.0
 43
10.0
 50
90.0
  0
TEXT
  5
83B
  8
0
  6
BYBLOCK
 62
     0
 10
-447.631811
 20
37.209457
 30
0.0
 40
30.0
  1
155
 50
90.0
 72
     1
 11
-447.631811
 21
76.959457
 31
0.0
  0
POINT
  5
83C
  8
DEFPOINTS
  6
BYBLOCK
 62
     0
 10
-665.729736
 20
-0.540541
 30
0.0
  0
POINT
  5
83D
  8
DEFPOINTS
  6
BYBLOCK
 62
     0
 10
-575.729736
 20
154.459457
 30
0.0
  0
POINT
  5
83E
  8
DEFPOINTS
  6
BYBLOCK
 62
     0
 10
-437.631811
 20
154.459457
 30
0.0
  0
ENDBLK
  5
83F
  8
0
  0
BLOCK
  8
0
  2
*D41
 70
     1
 10
0.0
 20
0.0
 30
0.0
  3
*D41
  1

  0
LINE
  5
842
  8
0
  6
BYBLOCK
 62
     0
 10
-769.729736
 20
-0.540541
 30
0.0
 11
-1185.002051
 21
-0.540541
 31
0.0
  0
LINE
  5
843
  8
0
  6
BYBLOCK
 62
     0
 10
-744.729736
 20
359.459473
 30
0.0
 11
-1185.002051
 21
359.459473
 31
0.0
  0
LINE
  5
844
  8
0
  6
BYBLOCK
 62
     0
 10
-1172.502051
 20
9.459459
 30
0.0
 11
-1172.502051
 21
349.459473
 31
0.0
  0
INSERT
  5
845
  8
0
  6
BYBLOCK
 62
     0
  2
_ORIGIN
 10
-1172.502051
 20
-0.540541
 30
0.0
 41
10.0
 42
10.0
 43
10.0
 50
270.0
  0
INSERT
  5
846
  8
0
  6
BYBLOCK
 62
     0
  2
_ORIGIN
 10
-1172.502051
 20
359.459473
 30
0.0
 41
10.0
 42
10.0
 43
10.0
 50
90.0
  0
TEXT
  5
847
  8
0
  6
BYBLOCK
 62
     0
 10
-1182.502051
 20
137.009457
 30
0.0
 40
30.0
  1
360
 50
90.0
 72
     1
 11
-1182.502051
 21
179.459457
 31
0.0
  0
POINT
  5
848
  8
DEFPOINTS
  6
BYBLOCK
 62
     0
 10
-759.729736
 20
-0.540541
 30
0.0
  0
POINT
  5
849
  8
DEFPOINTS
  6
BYBLOCK
 62
     0
 10
-734.729736
 20
359.459473
 30
0.0
  0
POINT
  5
84A
  8
DEFPOINTS
  6
BYBLOCK
 62
     0
 10
-1172.502051
 20
359.459473
 30
0.0
  0
ENDBLK
  5
84B
  8
0
  0
BLOCK
  8
0
  2
*D42
 70
     1
 10
0.0
 20
0.0
 30
0.0
  3
*D42
  1

  0
LINE
  5
84E
  8
0
  6
BYBLOCK
 62
     0
 10
-675.729736
 20
-0.540541
 30
0.0
 11
-1085.002051
 21
-0.540541
 31
0.0
  0
LINE
  5
84F
  8
0
  6
BYBLOCK
 62
     0
 10
-737.729736
 20
319.459473
 30
0.0
 11
-1085.002051
 21
319.459473
 31
0.0
  0
LINE
  5
850
  8
0
  6
BYBLOCK
 62
     0
 10
-1072.502051
 20
9.459459
 30
0.0
 11
-1072.502051
 21
309.459473
 31
0.0
  0
INSERT
  5
851
  8
0
  6
BYBLOCK
 62
     0
  2
_ORIGIN
 10
-1072.502051
 20
-0.540541
 30
0.0
 41
10.0
 42
10.0
 43
10.0
 50
270.0
  0
INSERT
  5
852
  8
0
  6
BYBLOCK
 62
     0
  2
_ORIGIN
 10
-1072.502051
 20
319.459473
 30
0.0
 41
10.0
 42
10.0
 43
10.0
 50
90.0
  0
TEXT
  5
853
  8
0
  6
BYBLOCK
 62
     0
 10
-1082.502051
 20
117.009457
 30
0.0
 40
30.0
  1
320
 50
90.0
 72
     1
 11
-1082.502051
 21
159.459457
 31
0.0
  0
POINT
  5
854
  8
DEFPOINTS
  6
BYBLOCK
 62
     0
 10
-665.729736
 20
-0.540541
 30
0.0
  0
POINT
  5
855
  8
DEFPOINTS
  6
BYBLOCK
 62
     0
 10
-727.729736
 20
319.459473
 30
0.0
  0
POINT
  5
856
  8
DEFPOINTS
  6
BYBLOCK
 62
     0
 10
-1072.502051
 20
319.459473
 30
0.0
  0
ENDBLK
  5
857
  8
0
  0
BLOCK
  8
0
  2
*D43
 70
     1
 10
0.0
 20
0.0
 30
0.0
  3
*D43
  1

  0
LINE
  5
85A
  8
0
  6
BYBLOCK
 62
     0
 10
-759.729736
 20
-10.540541
 30
0.0
 11
-759.729736
 21
-581.38894
 31
0.0
  0
LINE
  5
85B
  8
0
  6
BYBLOCK
 62
     0
 10
-649.729736
 20
309.459473
 30
0.0
 11
-649.729736
 21
-581.38894
 31
0.0
  0
LINE
  5
85C
  8
0
  6
BYBLOCK
 62
     0
 10
-749.729736
 20
-568.88894
 30
0.0
 11
-659.729736
 21
-568.88894
 31
0.0
  0
INSERT
  5
85D
  8
0
  6
BYBLOCK
 62
     0
  2
_ORIGIN
 10
-759.729736
 20
-568.88894
 30
0.0
 41
10.0
 42
10.0
 43
10.0
 50
180.0
  0
INSERT
  5
85E
  8
0
  6
BYBLOCK
 62
     0
  2
_ORIGIN
 10
-649.729736
 20
-568.88894
 30
0.0
 41
10.0
 42
10.0
 43
10.0
  0
TEXT
  5
85F
  8
0
  6
BYBLOCK
 62
     0
 10
-736.679736
 20
-558.88894
 30
0.0
 40
30.0
  1
110
 72
     1
 11
-704.729736
 21
-558.88894
 31
0.0
  0
POINT
  5
860
  8
DEFPOINTS
  6
BYBLOCK
 62
     0
 10
-759.729736
 20
-0.540541
 30
0.0
  0
POINT
  5
861
  8
DEFPOINTS
  6
BYBLOCK
 62
     0
 10
-649.729736
 20
319.459473
 30
0.0
  0
POINT
  5
862
  8
DEFPOINTS
  6
BYBLOCK
 62
     0
 10
-649.729736
 20
-568.88894
 30
0.0
  0
ENDBLK
  5
863
  8
0
  0
BLOCK
  8
0
  2
*D44
 70
     1
 10
0.0
 20
0.0
 30
0.0
  3
*D44
  1

  0
LINE
  5
866
  8
0
  6
BYBLOCK
 62
     0
 10
-675.729736
 20
-0.540541
 30
0.0
 11
-985.001929
 21
-0.540541
 31
0.0
  0
LINE
  5
867
  8
0
  6
BYBLOCK
 62
     0
 10
-615.729736
 20
171.959457
 30
0.0
 11
-985.001929
 21
171.959457
 31
0.0
  0
LINE
  5
868
  8
0
  6
BYBLOCK
 62
     0
 10
-972.501929
 20
9.459459
 30
0.0
 11
-972.501929
 21
161.959457
 31
0.0
  0
INSERT
  5
869
  8
0
  6
BYBLOCK
 62
     0
  2
_ORIGIN
 10
-972.501929
 20
-0.540541
 30
0.0
 41
10.0
 42
10.0
 43
10.0
 50
270.0
  0
INSERT
  5
86A
  8
0
  6
BYBLOCK
 62
     0
  2
_ORIGIN
 10
-972.501929
 20
171.959457
 30
0.0
 41
10.0
 42
10.0
 43
10.0
 50
90.0
  0
TEXT
  5
86B
  8
0
  6
BYBLOCK
 62
     0
 10
-982.501929
 20
45.959457
 30
0.0
 40
30.0
  1
173
 50
90.0
 72
     1
 11
-982.501929
 21
85.709457
 31
0.0
  0
POINT
  5
86C
  8
DEFPOINTS
  6
BYBLOCK
 62
     0
 10
-665.729736
 20
-0.540541
 30
0.0
  0
POINT
  5
86D
  8
DEFPOINTS
  6
BYBLOCK
 62
     0
 10
-605.729736
 20
171.959457
 30
0.0
  0
POINT
  5
86E
  8
DEFPOINTS
  6
BYBLOCK
 62
     0
 10
-972.501929
 20
171.959457
 30
0.0
  0
ENDBLK
  5
86F
  8
0
  0
BLOCK
  8
0
  2
*D45
 70
     1
 10
0.0
 20
0.0
 30
0.0
  3
*D45
  1

  0
LINE
  5
872
  8
0
  6
BYBLOCK
 62
     0
 10
-45.729713
 20
-0.540541
 30
0.0
 11
460.370264
 21
-0.540541
 31
0.0
  0
LINE
  5
873
  8
0
  6
BYBLOCK
 62
     0
 10
90.270287
 20
2214.459473
 30
0.0
 11
460.370264
 21
2214.459473
 31
0.0
  0
LINE
  5
874
  8
0
  6
BYBLOCK
 62
     0
 10
447.870264
 20
9.459459
 30
0.0
 11
447.870264
 21
2204.459473
 31
0.0
  0
INSERT
  5
875
  8
0
  6
BYBLOCK
 62
     0
  2
_ORIGIN
 10
447.870264
 20
-0.540541
 30
0.0
 41
10.0
 42
10.0
 43
10.0
 50
270.0
  0
INSERT
  5
876
  8
0
  6
BYBLOCK
 62
     0
  2
_ORIGIN
 10
447.870264
 20
2214.459473
 30
0.0
 41
10.0
 42
10.0
 43
10.0
 50
90.0
  0
TEXT
  5
877
  8
0
  6
BYBLOCK
 62
     0
 10
437.870264
 20
1052.209473
 30
0.0
 40
30.0
  1
2215
 50
90.0
 72
     1
 11
437.870264
 21
1106.959473
 31
0.0
  0
POINT
  5
878
  8
DEFPOINTS
  6
BYBLOCK
 62
     0
 10
-55.729713
 20
-0.540541
 30
0.0
  0
POINT
  5
879
  8
DEFPOINTS
  6
BYBLOCK
 62
     0
 10
80.270287
 20
2214.459473
 30
0.0
  0
POINT
  5
87A
  8
DEFPOINTS
  6
BYBLOCK
 62
     0
 10
447.870264
 20
2214.459473
 30
0.0
  0
ENDBLK
  5
87B
  8
0
  0
BLOCK
  8
0
  2
*D46
 70
     1
 10
0.0
 20
0.0
 30
0.0
  3
*D46
  1

  0
LINE
  5
87E
  8
0
  6
BYBLOCK
 62
     0
 10
110.270287
 20
2192.459473
 30
0.0
 11
360.370264
 21
2192.459473
 31
0.0
  0
LINE
  5
87F
  8
0
  6
BYBLOCK
 62
     0
 10
-45.729713
 20
-0.540541
 30
0.0
 11
360.370264
 21
-0.540541
 31
0.0
  0
LINE
  5
880
  8
0
  6
BYBLOCK
 62
     0
 10
347.870264
 20
2182.459473
 30
0.0
 11
347.870264
 21
9.459459
 31
0.0
  0
INSERT
  5
881
  8
0
  6
BYBLOCK
 62
     0
  2
_ORIGIN
 10
347.870264
 20
2192.459473
 30
0.0
 41
10.0
 42
10.0
 43
10.0
 50
90.0
  0
INSERT
  5
882
  8
0
  6
BYBLOCK
 62
     0
  2
_ORIGIN
 10
347.870264
 20
-0.540541
 30
0.0
 41
10.0
 42
10.0
 43
10.0
 50
270.0
  0
TEXT
  5
883
  8
0
  6
BYBLOCK
 62
     0
 10
337.870264
 20
1041.209473
 30
0.0
 40
30.0
  1
2193
 50
90.0
 72
     1
 11
337.870264
 21
1095.959473
 31
0.0
  0
POINT
  5
884
  8
DEFPOINTS
  6
BYBLOCK
 62
     0
 10
100.270287
 20
2192.459473
 30
0.0
  0
POINT
  5
885
  8
DEFPOINTS
  6
BYBLOCK
 62
     0
 10
-55.729713
 20
-0.540541
 30
0.0
  0
POINT
  5
886
  8
DEFPOINTS
  6
BYBLOCK
 62
     0
 10
347.870264
 20
-0.540541
 30
0.0
  0
ENDBLK
  5
887
  8
0
  0
BLOCK
  8
0
  2
*D47
 70
     1
 10
0.0
 20
0.0
 30
0.0
  3
*D47
  1

  0
LINE
  5
88A
  8
0
  6
BYBLOCK
 62
     0
 10
-45.729713
 20
-0.540541
 30
0.0
 11
260.370264
 21
-0.540541
 31
0.0
  0
LINE
  5
88B
  8
0
  6
BYBLOCK
 62
     0
 10
10.270286
 20
2169.459473
 30
0.0
 11
260.370264
 21
2169.459473
 31
0.0
  0
LINE
  5
88C
  8
0
  6
BYBLOCK
 62
     0
 10
247.870264
 20
9.459459
 30
0.0
 11
247.870264
 21
2159.459473
 31
0.0
  0
INSERT
  5
88D
  8
0
  6
BYBLOCK
 62
     0
  2
_ORIGIN
 10
247.870264
 20
-0.540541
 30
0.0
 41
10.0
 42
10.0
 43
10.0
 50
270.0
  0
INSERT
  5
88E
  8
0
  6
BYBLOCK
 62
     0
  2
_ORIGIN
 10
247.870264
 20
2169.459473
 30
0.0
 41
10.0
 42
10.0
 43
10.0
 50
90.0
  0
TEXT
  5
88F
  8
0
  6
BYBLOCK
 62
     0
 10
237.870264
 20
1032.259473
 30
0.0
 40
30.0
  1
2170
 50
90.0
 72
     1
 11
237.870264
 21
1084.459473
 31
0.0
  0
POINT
  5
890
  8
DEFPOINTS
  6
BYBLOCK
 62
     0
 10
-55.729713
 20
-0.540541
 30
0.0
  0
POINT
  5
891
  8
DEFPOINTS
  6
BYBLOCK
 62
     0
 10
0.270286
 20
2169.459473
 30
0.0
  0
POINT
  5
892
  8
DEFPOINTS
  6
BYBLOCK
 62
     0
 10
247.870264
 20
2169.459473
 30
0.0
  0
ENDBLK
  5
893
  8
0
  0
BLOCK
  8
0
  2
*D48
 70
     1
 10
0.0
 20
0.0
 30
0.0
  3
*D48
  1

  0
LINE
  5
896
  8
0
  6
BYBLOCK
 62
     0
 10
-1369.729736
 20
-0.540541
 30
0.0
 11
-1485.002051
 21
-0.540541
 31
0.0
  0
LINE
  5
897
  8
0
  6
BYBLOCK
 62
     0
 10
-1369.729736
 20
2369.459473
 30
0.0
 11
-1485.002051
 21
2369.459473
 31
0.0
  0
LINE
  5
898
  8
0
  6
BYBLOCK
 62
     0
 10
-1472.502051
 20
9.459459
 30
0.0
 11
-1472.502051
 21
2359.459473
 31
0.0
  0
INSERT
  5
899
  8
0
  6
BYBLOCK
 62
     0
  2
_ORIGIN
 10
-1472.502051
 20
-0.540541
 30
0.0
 41
10.0
 42
10.0
 43
10.0
 50
270.0
  0
INSERT
  5
89A
  8
0
  6
BYBLOCK
 62
     0
  2
_ORIGIN
 10
-1472.502051
 20
2369.459473
 30
0.0
 41
10.0
 42
10.0
 43
10.0
 50
90.0
  0
TEXT
  5
89B
  8
0
  6
BYBLOCK
 62
     0
 10
-1482.502051
 20
1127.009473
 30
0.0
 40
30.0
  1
2370
 50
90.0
 72
     1
 11
-1482.502051
 21
1184.459473
 31
0.0
  0
POINT
  5
89C
  8
DEFPOINTS
  6
BYBLOCK
 62
     0
 10
-1359.729736
 20
-0.540541
 30
0.0
  0
POINT
  5
89D
  8
DEFPOINTS
  6
BYBLOCK
 62
     0
 10
-1359.729736
 20
2369.459473
 30
0.0
  0
POINT
  5
89E
  8
DEFPOINTS
  6
BYBLOCK
 62
     0
 10
-1472.502051
 20
2369.459473
 30
0.0
  0
ENDBLK
  5
89F
  8
0
  0
BLOCK
  8
0
  2
*D49
 70
     1
 10
0.0
 20
0.0
 30
0.0
  3
*D49
  1

  0
LINE
  5
8A2
  8
0
  6
BYBLOCK
 62
     0
 10
-759.729736
 20
-10.540541
 30
0.0
 11
-759.729736
 21
-281.38894
 31
0.0
  0
LINE
  5
8A3
  8
0
  6
BYBLOCK
 62
     0
 10
-710.729736
 20
329.459473
 30
0.0
 11
-710.729736
 21
-281.38894
 31
0.0
  0
LINE
  5
8A4
  8
0
  6
BYBLOCK
 62
     0
 10
-749.729736
 20
-268.88894
 30
0.0
 11
-720.729736
 21
-268.88894
 31
0.0
  0
INSERT
  5
8A5
  8
0
  6
BYBLOCK
 62
     0
  2
_ORIGIN
 10
-759.729736
 20
-268.88894
 30
0.0
 41
10.0
 42
10.0
 43
10.0
 50
180.0
  0
INSERT
  5
8A6
  8
0
  6
BYBLOCK
 62
     0
  2
_ORIGIN
 10
-710.729736
 20
-268.88894
 30
0.0
 41
10.0
 42
10.0
 43
10.0
  0
TEXT
  5
8A7
  8
0
  6
BYBLOCK
 62
     0
 10
-765.229736
 20
-258.88894
 30
0.0
 40
30.0
  1
49
 72
     1
 11
-735.229736
 21
-258.88894
 31
0.0
  0
POINT
  5
8A8
  8
DEFPOINTS
  6
BYBLOCK
 62
     0
 10
-759.729736
 20
-0.540541
 30
0.0
  0
POINT
  5
8A9
  8
DEFPOINTS
  6
BYBLOCK
 62
     0
 10
-710.729736
 20
339.459473
 30
0.0
  0
POINT
  5
8AA
  8
DEFPOINTS
  6
BYBLOCK
 62
     0
 10
-710.729736
 20
-268.88894
 30
0.0
  0
ENDBLK
  5
8AB
  8
0
  0
BLOCK
  8
0
  2
*D50
 70
     1
 10
0.0
 20
0.0
 30
0.0
  3
*D50
  1

  0
LINE
  5
8AE
  8
0
  6
BYBLOCK
 62
     0
 10
-759.729736
 20
-10.540541
 30
0.0
 11
-759.729736
 21
-481.38894
 31
0.0
  0
LINE
  5
8AF
  8
0
  6
BYBLOCK
 62
     0
 10
-658.729736
 20
289.459473
 30
0.0
 11
-658.729736
 21
-481.38894
 31
0.0
  0
LINE
  5
8B0
  8
0
  6
BYBLOCK
 62
     0
 10
-749.729736
 20
-468.88894
 30
0.0
 11
-668.729736
 21
-468.88894
 31
0.0
  0
INSERT
  5
8B1
  8
0
  6
BYBLOCK
 62
     0
  2
_ORIGIN
 10
-759.729736
 20
-468.88894
 30
0.0
 41
10.0
 42
10.0
 43
10.0
 50
180.0
  0
INSERT
  5
8B2
  8
0
  6
BYBLOCK
 62
     0
  2
_ORIGIN
 10
-658.729736
 20
-468.88894
 30
0.0
 41
10.0
 42
10.0
 43
10.0
  0
TEXT
  5
8B3
  8
0
  6
BYBLOCK
 62
     0
 10
-741.179736
 20
-458.88894
 30
0.0
 40
30.0
  1
101
 72
     1
 11
-709.229736
 21
-458.88894
 31
0.0
  0
POINT
  5
8B4
  8
DEFPOINTS
  6
BYBLOCK
 62
     0
 10
-759.729736
 20
-0.540541
 30
0.0
  0
POINT
  5
8B5
  8
DEFPOINTS
  6
BYBLOCK
 62
     0
 10
-658.729736
 20
299.459473
 30
0.0
  0
POINT
  5
8B6
  8
DEFPOINTS
  6
BYBLOCK
 62
     0
 10
-658.729736
 20
-468.88894
 30
0.0
  0
ENDBLK
  5
8B7
  8
0
  0
BLOCK
  8
0
  2
*D51
 70
     1
 10
0.0
 20
0.0
 30
0.0
  3
*D51
  1

  0
LINE
  5
8BA
  8
0
  6
BYBLOCK
 62
     0
 10
-759.729736
 20
-10.540541
 30
0.0
 11
-759.729736
 21
-381.38894
 31
0.0
  0
LINE
  5
8BB
  8
0
  6
BYBLOCK
 62
     0
 10
-707.729736
 20
289.459473
 30
0.0
 11
-707.729736
 21
-381.38894
 31
0.0
  0
LINE
  5
8BC
  8
0
  6
BYBLOCK
 62
     0
 10
-749.729736
 20
-368.88894
 30
0.0
 11
-717.729736
 21
-368.88894
 31
0.0
  0
INSERT
  5
8BD
  8
0
  6
BYBLOCK
 62
     0
  2
_ORIGIN
 10
-759.729736
 20
-368.88894
 30
0.0
 41
10.0
 42
10.0
 43
10.0
 50
180.0
  0
INSERT
  5
8BE
  8
0
  6
BYBLOCK
 62
     0
  2
_ORIGIN
 10
-707.729736
 20
-368.88894
 30
0.0
 41
10.0
 42
10.0
 43
10.0
  0
TEXT
  5
8BF
  8
0
  6
BYBLOCK
 62
     0
 10
-763.729736
 20
-358.88894
 30
0.0
 40
30.0
  1
52
 72
     1
 11
-733.729736
 21
-358.88894
 31
0.0
  0
POINT
  5
8C0
  8
DEFPOINTS
  6
BYBLOCK
 62
     0
 10
-759.729736
 20
-0.540541
 30
0.0
  0
POINT
  5
8C1
  8
DEFPOINTS
  6
BYBLOCK
 62
     0
 10
-707.729736
 20
299.459473
 30
0.0
  0
POINT
  5
8C2
  8
DEFPOINTS
  6
BYBLOCK
 62
     0
 10
-707.729736
 20
-368.88894
 30
0.0
  0
ENDBLK
  5
8C3
  8
0
  0
BLOCK
  8
0
  2
*D52
 70
     1
 10
0.0
 20
0.0
 30
0.0
  3
*D52
  1

  0
LINE
  5
8C6
  8
0
  6
BYBLOCK
 62
     0
 10
-759.729736
 20
-10.540541
 30
0.0
 11
-759.729736
 21
-681.38894
 31
0.0
  0
LINE
  5
8C7
  8
0
  6
BYBLOCK
 62
     0
 10
-585.729736
 20
141.959457
 30
0.0
 11
-585.729736
 21
-681.38894
 31
0.0
  0
LINE
  5
8C8
  8
0
  6
BYBLOCK
 62
     0
 10
-749.729736
 20
-668.88894
 30
0.0
 11
-595.729736
 21
-668.88894
 31
0.0
  0
INSERT
  5
8C9
  8
0
  6
BYBLOCK
 62
     0
  2
_ORIGIN
 10
-759.729736
 20
-668.88894
 30
0.0
 41
10.0
 42
10.0
 43
10.0
 50
180.0
  0
INSERT
  5
8CA
  8
0
  6
BYBLOCK
 62
     0
  2
_ORIGIN
 10
-585.729736
 20
-668.88894
 30
0.0
 41
10.0
 42
10.0
 43
10.0
  0
TEXT
  5
8CB
  8
0
  6
BYBLOCK
 62
     0
 10
-712.479736
 20
-658.88894
 30
0.0
 40
30.0
  1
174
 72
     1
 11
-672.729736
 21
-658.88894
 31
0.0
  0
POINT
  5
8CC
  8
DEFPOINTS
  6
BYBLOCK
 62
     0
 10
-759.729736
 20
-0.540541
 30
0.0
  0
POINT
  5
8CD
  8
DEFPOINTS
  6
BYBLOCK
 62
     0
 10
-585.729736
 20
151.959457
 30
0.0
  0
POINT
  5
8CE
  8
DEFPOINTS
  6
BYBLOCK
 62
     0
 10
-585.729736
 20
-668.88894
 30
0.0
  0
ENDBLK
  5
8CF
  8
0
  0
BLOCK
  8
0
  2
*D53
 70
     1
 10
0.0
 20
0.0
 30
0.0
  3
*D53
  1

  0
LINE
  5
8D2
  8
0
  6
BYBLOCK
 62
     0
 10
-555.729736
 20
124.459457
 30
0.0
 11
-555.729736
 21
-781.38894
 31
0.0
  0
LINE
  5
8D3
  8
0
  6
BYBLOCK
 62
     0
 10
-759.729736
 20
-10.540541
 30
0.0
 11
-759.729736
 21
-781.38894
 31
0.0
  0
LINE
  5
8D4
  8
0
  6
BYBLOCK
 62
     0
 10
-565.729736
 20
-768.88894
 30
0.0
 11
-749.729736
 21
-768.88894
 31
0.0
  0
INSERT
  5
8D5
  8
0
  6
BYBLOCK
 62
     0
  2
_ORIGIN
 10
-555.729736
 20
-768.88894
 30
0.0
 41
10.0
 42
10.0
 43
10.0
  0
INSERT
  5
8D6
  8
0
  6
BYBLOCK
 62
     0
  2
_ORIGIN
 10
-759.729736
 20
-768.88894
 30
0.0
 41
10.0
 42
10.0
 43
10.0
 50
180.0
  0
TEXT
  5
8D7
  8
0
  6
BYBLOCK
 62
     0
 10
-700.179736
 20
-758.88894
 30
0.0
 40
30.0
  1
204
 72
     1
 11
-657.729736
 21
-758.88894
 31
0.0
  0
POINT
  5
8D8
  8
DEFPOINTS
  6
BYBLOCK
 62
     0
 10
-555.729736
 20
134.459457
 30
0.0
  0
POINT
  5
8D9
  8
DEFPOINTS
  6
BYBLOCK
 62
     0
 10
-759.729736
 20
-0.540541
 30
0.0
  0
POINT
  5
8DA
  8
DEFPOINTS
  6
BYBLOCK
 62
     0
 10
-759.729736
 20
-768.88894
 30
0.0
  0
ENDBLK
  5
8DB
  8
0
  0
BLOCK
  8
0
  2
*D54
 70
     1
 10
0.0
 20
0.0
 30
0.0
  3
*D54
  1

  0
LINE
  5
8DE
  8
0
  6
BYBLOCK
 62
     0
 10
-759.729736
 20
-10.540541
 30
0.0
 11
-759.729736
 21
-981.38894
 31
0.0
  0
LINE
  5
8DF
  8
0
  6
BYBLOCK
 62
     0
 10
-645.729736
 20
-30.540541
 30
0.0
 11
-645.729736
 21
-981.38894
 31
0.0
  0
LINE
  5
8E0
  8
0
  6
BYBLOCK
 62
     0
 10
-749.729736
 20
-968.88894
 30
0.0
 11
-655.729736
 21
-968.88894
 31
0.0
  0
INSERT
  5
8E1
  8
0
  6
BYBLOCK
 62
     0
  2
_ORIGIN
 10
-759.729736
 20
-968.88894
 30
0.0
 41
10.0
 42
10.0
 43
10.0
 50
180.0
  0
INSERT
  5
8E2
  8
0
  6
BYBLOCK
 62
     0
  2
_ORIGIN
 10
-645.729736
 20
-968.88894
 30
0.0
 41
10.0
 42
10.0
 43
10.0
  0
TEXT
  5
8E3
  8
0
  6
BYBLOCK
 62
     0
 10
-737.229736
 20
-958.88894
 30
0.0
 40
30.0
  1
114
 72
     1
 11
-702.729736
 21
-958.88894
 31
0.0
  0
POINT
  5
8E4
  8
DEFPOINTS
  6
BYBLOCK
 62
     0
 10
-759.729736
 20
-0.540541
 30
0.0
  0
POINT
  5
8E5
  8
DEFPOINTS
  6
BYBLOCK
 62
     0
 10
-645.729736
 20
-20.540541
 30
0.0
  0
POINT
  5
8E6
  8
DEFPOINTS
  6
BYBLOCK
 62
     0
 10
-645.729736
 20
-968.88894
 30
0.0
  0
ENDBLK
  5
8E7
  8
0
  0
BLOCK
  8
0
  2
*D55
 70
     1
 10
0.0
 20
0.0
 30
0.0
  3
*D55
  1

  0
LINE
  5
8EA
  8
0
  6
BYBLOCK
 62
     0
 10
-759.729736
 20
-10.540541
 30
0.0
 11
-759.729736
 21
-1081.38894
 31
0.0
  0
LINE
  5
8EB
  8
0
  6
BYBLOCK
 62
     0
 10
0.270286
 20
189.459457
 30
0.0
 11
0.270286
 21
-1081.38894
 31
0.0
  0
LINE
  5
8EC
  8
0
  6
BYBLOCK
 62
     0
 10
-749.729736
 20
-1068.88894
 30
0.0
 11
-9.729714
 21
-1068.88894
 31
0.0
  0
INSERT
  5
8ED
  8
0
  6
BYBLOCK
 62
     0
  2
_ORIGIN
 10
-759.729736
 20
-1068.88894
 30
0.0
 41
10.0
 42
10.0
 43
10.0
 50
180.0
  0
INSERT
  5
8EE
  8
0
  6
BYBLOCK
 62
     0
  2
_ORIGIN
 10
0.270286
 20
-1068.88894
 30
0.0
 41
10.0
 42
10.0
 43
10.0
  0
TEXT
  5
8EF
  8
0
  6
BYBLOCK
 62
     0
 10
-422.179706
 20
-1058.88894
 30
0.0
 40
30.0
  1
760
 72
     1
 11
-379.729706
 21
-1058.88894
 31
0.0
  0
POINT
  5
8F0
  8
DEFPOINTS
  6
BYBLOCK
 62
     0
 10
-759.729736
 20
-0.540541
 30
0.0
  0
POINT
  5
8F1
  8
DEFPOINTS
  6
BYBLOCK
 62
     0
 10
0.270286
 20
199.459457
 30
0.0
  0
POINT
  5
8F2
  8
DEFPOINTS
  6
BYBLOCK
 62
     0
 10
0.270286
 20
-1068.88894
 30
0.0
  0
ENDBLK
  5
8F3
  8
0
  0
BLOCK
  8
0
  2
*D56
 70
     1
 10
0.0
 20
0.0
 30
0.0
  3
*D56
  1

  0
LINE
  5
8F6
  8
0
  6
BYBLOCK
 62
     0
 10
0.270286
 20
189.459457
 30
0.0
 11
0.270286
 21
-981.38894
 31
0.0
  0
LINE
  5
8F7
  8
0
  6
BYBLOCK
 62
     0
 10
-111.729713
 20
-30.540541
 30
0.0
 11
-111.729713
 21
-981.38894
 31
0.0
  0
LINE
  5
8F8
  8
0
  6
BYBLOCK
 62
     0
 10
-9.729714
 20
-968.88894
 30
0.0
 11
-101.729713
 21
-968.88894
 31
0.0
  0
INSERT
  5
8F9
  8
0
  6
BYBLOCK
 62
     0
  2
_ORIGIN
 10
0.270286
 20
-968.88894
 30
0.0
 41
10.0
 42
10.0
 43
10.0
  0
INSERT
  5
8FA
  8
0
  6
BYBLOCK
 62
     0
  2
_ORIGIN
 10
-111.729713
 20
-968.88894
 30
0.0
 41
10.0
 42
10.0
 43
10.0
 50
180.0
  0
TEXT
  5
8FB
  8
0
  6
BYBLOCK
 62
     0
 10
-90.229714
 20
-958.88894
 30
0.0
 40
30.0
  1
112
 72
     1
 11
-55.729714
 21
-958.88894
 31
0.0
  0
POINT
  5
8FC
  8
DEFPOINTS
  6
BYBLOCK
 62
     0
 10
0.270286
 20
199.459457
 30
0.0
  0
POINT
  5
8FD
  8
DEFPOINTS
  6
BYBLOCK
 62
     0
 10
-111.729713
 20
-20.540541
 30
0.0
  0
POINT
  5
8FE
  8
DEFPOINTS
  6
BYBLOCK
 62
     0
 10
-111.729713
 20
-968.88894
 30
0.0
  0
ENDBLK
  5
8FF
  8
0
  0
BLOCK
  8
0
  2
*D57
 70
     1
 10
0.0
 20
0.0
 30
0.0
  3
*D57
  1

  0
LINE
  5
902
  8
0
  6
BYBLOCK
 62
     0
 10
-75.729713
 20
-30.540541
 30
0.0
 11
-75.729713
 21
-881.38894
 31
0.0
  0
LINE
  5
903
  8
0
  6
BYBLOCK
 62
     0
 10
0.270286
 20
189.459457
 30
0.0
 11
0.270286
 21
-881.38894
 31
0.0
  0
LINE
  5
904
  8
0
  6
BYBLOCK
 62
     0
 10
-65.729713
 20
-868.88894
 30
0.0
 11
-9.729714
 21
-868.88894
 31
0.0
  0
INSERT
  5
905
  8
0
  6
BYBLOCK
 62
     0
  2
_ORIGIN
 10
-75.729713
 20
-868.88894
 30
0.0
 41
10.0
 42
10.0
 43
10.0
 50
180.0
  0
INSERT
  5
906
  8
0
  6
BYBLOCK
 62
     0
  2
_ORIGIN
 10
0.270286
 20
-868.88894
 30
0.0
 41
10.0
 42
10.0
 43
10.0
  0
TEXT
  5
907
  8
0
  6
BYBLOCK
 62
     0
 10
-67.729714
 20
-858.88894
 30
0.0
 40
30.0
  1
76
 72
     1
 11
-37.729714
 21
-858.88894
 31
0.0
  0
POINT
  5
908
  8
DEFPOINTS
  6
BYBLOCK
 62
     0
 10
-75.729713
 20
-20.540541
 30
0.0
  0
POINT
  5
909
  8
DEFPOINTS
  6
BYBLOCK
 62
     0
 10
0.270286
 20
199.459457
 30
0.0
  0
POINT
  5
90A
  8
DEFPOINTS
  6
BYBLOCK
 62
     0
 10
0.270286
 20
-868.88894
 30
0.0
  0
ENDBLK
  5
90B
  8
0
  0
BLOCK
  8
0
  2
*D58
 70
     1
 10
0.0
 20
0.0
 30
0.0
  3
*D58
  1

  0
LINE
  5
90E
  8
0
  6
BYBLOCK
 62
     0
 10
-569.729736
 20
409.459473
 30
0.0
 11
-569.729736
 21
817.543799
 31
0.0
  0
LINE
  5
90F
  8
0
  6
BYBLOCK
 62
     0
 10
-759.729736
 20
9.459459
 30
0.0
 11
-759.729736
 21
817.543799
 31
0.0
  0
LINE
  5
910
  8
0
  6
BYBLOCK
 62
     0
 10
-579.729736
 20
805.043799
 30
0.0
 11
-749.729736
 21
805.043799
 31
0.0
  0
LINE
  5
911
  8
0
  6
BYBLOCK
 62
     0
 10
-759.729736
 20
805.043799
 30
0.0
 11
-936.904541
 21
805.043799
 31
0.0
  0
INSERT
  5
912
  8
0
  6
BYBLOCK
 62
     0
  2
_ORIGIN
 10
-569.729736
 20
805.043799
 30
0.0
 41
10.0
 42
10.0
 43
10.0
  0
INSERT
  5
913
  8
0
  6
BYBLOCK
 62
     0
  2
_ORIGIN
 10
-759.729736
 20
805.043799
 30
0.0
 41
10.0
 42
10.0
 43
10.0
 50
180.0
  0
TEXT
  5
914
  8
0
  6
BYBLOCK
 62
     0
 10
-931.604541
 20
815.043799
 30
0.0
 40
30.0
  1
190
 72
     1
 11
-894.404541
 21
815.043799
 31
0.0
  0
POINT
  5
915
  8
DEFPOINTS
  6
BYBLOCK
 62
     0
 10
-569.729736
 20
399.459473
 30
0.0
  0
POINT
  5
916
  8
DEFPOINTS
  6
BYBLOCK
 62
     0
 10
-759.729736
 20
-0.540541
 30
0.0
  0
POINT
  5
917
  8
DEFPOINTS
  6
BYBLOCK
 62
     0
 10
-759.729736
 20
805.043799
 30
0.0
  0
ENDBLK
  5
918
  8
0
  0
BLOCK
  8
0
  2
*D59
 70
     1
 10
0.0
 20
0.0
 30
0.0
  3
*D59
  1

  0
LINE
  5
91B
  8
0
  6
BYBLOCK
 62
     0
 10
-706.729736
 20
429.459473
 30
0.0
 11
-706.729736
 21
617.543799
 31
0.0
  0
LINE
  5
91C
  8
0
  6
BYBLOCK
 62
     0
 10
-759.729736
 20
9.459459
 30
0.0
 11
-759.729736
 21
617.543799
 31
0.0
  0
LINE
  5
91D
  8
0
  6
BYBLOCK
 62
     0
 10
-716.729736
 20
605.043799
 30
0.0
 11
-749.729736
 21
605.043799
 31
0.0
  0
LINE
  5
91E
  8
0
  6
BYBLOCK
 62
     0
 10
-759.729736
 20
605.043799
 30
0.0
 11
-853.579529
 21
605.043799
 31
0.0
  0
INSERT
  5
91F
  8
0
  6
BYBLOCK
 62
     0
  2
_ORIGIN
 10
-706.729736
 20
605.043799
 30
0.0
 41
10.0
 42
10.0
 43
10.0
  0
INSERT
  5
920
  8
0
  6
BYBLOCK
 62
     0
  2
_ORIGIN
 10
-759.729736
 20
605.043799
 30
0.0
 41
10.0
 42
10.0
 43
10.0
 50
180.0
  0
TEXT
  5
921
  8
0
  6
BYBLOCK
 62
     0
 10
-848.579529
 20
615.043799
 30
0.0
 40
30.0
  1
53
 72
     1
 11
-818.579529
 21
615.043799
 31
0.0
  0
POINT
  5
922
  8
DEFPOINTS
  6
BYBLOCK
 62
     0
 10
-706.729736
 20
419.459473
 30
0.0
  0
POINT
  5
923
  8
DEFPOINTS
  6
BYBLOCK
 62
     0
 10
-759.729736
 20
-0.540541
 30
0.0
  0
POINT
  5
924
  8
DEFPOINTS
  6
BYBLOCK
 62
     0
 10
-759.729736
 20
605.043799
 30
0.0
  0
ENDBLK
  5
925
  8
0
  0
BLOCK
  8
0
  2
*D60
 70
     1
 10
0.0
 20
0.0
 30
0.0
  3
*D60
  1

  0
LINE
  5
928
  8
0
  6
BYBLOCK
 62
     0
 10
-715.729736
 20
429.459473
 30
0.0
 11
-715.729736
 21
517.543799
 31
0.0
  0
LINE
  5
929
  8
0
  6
BYBLOCK
 62
     0
 10
-759.729736
 20
9.459459
 30
0.0
 11
-759.729736
 21
517.543799
 31
0.0
  0
LINE
  5
92A
  8
0
  6
BYBLOCK
 62
     0
 10
-725.729736
 20
505.043799
 30
0.0
 11
-749.729736
 21
505.043799
 31
0.0
  0
LINE
  5
92B
  8
0
  6
BYBLOCK
 62
     0
 10
-759.729736
 20
505.043799
 30
0.0
 11
-839.729736
 21
505.043799
 31
0.0
  0
INSERT
  5
92C
  8
0
  6
BYBLOCK
 62
     0
  2
_ORIGIN
 10
-715.729736
 20
505.043799
 30
0.0
 41
10.0
 42
10.0
 43
10.0
  0
INSERT
  5
92D
  8
0
  6
BYBLOCK
 62
     0
  2
_ORIGIN
 10
-759.729736
 20
505.043799
 30
0.0
 41
10.0
 42
10.0
 43
10.0
 50
180.0
  0
TEXT
  5
92E
  8
0
  6
BYBLOCK
 62
     0
 10
-834.729736
 20
515.043799
 30
0.0
 40
30.0
  1
44
 72
     1
 11
-804.729736
 21
515.043799
 31
0.0
  0
POINT
  5
92F
  8
DEFPOINTS
  6
BYBLOCK
 62
     0
 10
-715.729736
 20
419.459473
 30
0.0
  0
POINT
  5
930
  8
DEFPOINTS
  6
BYBLOCK
 62
     0
 10
-759.729736
 20
-0.540541
 30
0.0
  0
POINT
  5
931
  8
DEFPOINTS
  6
BYBLOCK
 62
     0
 10
-759.729736
 20
505.043799
 30
0.0
  0
ENDBLK
  5
932
  8
0
  0
ENDSEC
  0
SECTION
  2
ENTITIES
  0
LINE
  5
933
  8
OUTLINE
  6
CONTINUOUS
 10
-570.5264820000001
 20
200.0
 30
0.0
 11
-570.5264820000001
 21
184.0
 31
0.0
  0
LINE
  5
934
  8
OUTLINE
  6
CONTINUOUS
 10
-570.5264820000001
 20
180.0
 30
0.0
 11
-570.5264820000001
 21
20.0
 31
0.0
  0
LINE
  5
935
  8
OUTLINE
  6
CONTINUOUS
 10
-570.5264820000001
 20
184.0
 30
0.0
 11
-570.5264820000001
 21
180.0
 31
0.0
  0
LINE
  5
936
  8
OUTLINE
  6
CONTINUOUS
 10
-570.5264820000001
 20
168.0
 30
0.0
 11
-570.5264820000001
 21
20.0
 31
0.0
  0
LINE
  5
937
  8
OUTLINE
  6
CONTINUOUS
 10
-650.0
 20
360.0
 30
0.0
 11
-650.0
 21
400.0
 31
0.0
  0
LINE
  5
938
  8
OUTLINE
  6
CONTINUOUS
 10
-650.0
 20
200.0
 30
0.0
 11
-650.0
 21
360.0
 31
0.0
  0
LINE
  5
939
  8
OUTLINE
  6
CONTINUOUS
 10
-570.0
 20
360.0
 30
0.0
 11
-570.0
 21
400.0
 31
0.0
  0
LINE
  5
93A
  8
OUTLINE
  6
CONTINUOUS
 10
0.0
 20
2170.0
 30
0.0
 11
0.0
 21
200.0
 31
0.0
  0
LINE
  5
93B
  8
OUTLINE
  6
CONTINUOUS
 10
-760.0
 20
2170.0
 30
0.0
 11
-760.0
 21
2144.0
 31
0.0
  0
LINE
  5
93C
  8
OUTLINE
  6
CONTINUOUS
 10
-760.0
 20
2170.0
 30
0.0
 11
0.0
 21
2170.0
 31
0.0
  0
LINE
  5
93D
  8
OUTLINE
  6
CONTINUOUS
 10
-760.0
 20
2144.0
 30
0.0
 11
-754.0
 21
2144.0
 31
0.0
  0
LINE
  5
93E
  8
OUTLINE
  6
CONTINUOUS
 10
-754.0
 20
400.0
 30
0.0
 11
-754.0
 21
2144.0
 31
0.0
  0
LINE
  5
93F
  8
OUTLINE
  6
CONTINUOUS
 10
-650.0
 20
200.0
 30
0.0
 11
0.0
 21
200.0
 31
0.0
  0
LINE
  5
940
  8
OUTLINE
  6
CONTINUOUS
 10
-140.499683
 20
200.0
 30
0.0
 11
-140.499683
 21
20.0
 31
0.0
  0
LINE
  5
941
  8
OUTLINE
  6
CONTINUOUS
 10
-200.499683
 20
20.0
 30
0.0
 11
-200.499683
 21
200.0
 31
0.0
  0
LINE
  5
942
  8
OUTLINE
  6
CONTINUOUS
 10
-200.499683
 20
20.0
 30
0.0
 11
-226.0
 21
20.0
 31
0.0
  0
LINE
  5
943
  8
OUTLINE
  6
CONTINUOUS
 10
-112.0
 20
20.0
 30
0.0
 11
-140.499683
 21
20.0
 31
0.0
  0
LINE
  5
944
  8
OUTLINE
  6
CONTINUOUS
 10
-96.0
 20
0.0
 30
0.0
 11
-236.0
 21
0.0
 31
0.0
  0
LINE
  5
945
  8
OUTLINE
  6
CONTINUOUS
 10
-236.0
 20
10.0
 30
0.0
 11
-236.0
 21
0.0
 31
0.0
  0
ARC
  5
946
  8
OUTLINE
  6
CONTINUOUS
 10
-226.0
 20
10.0
 30
0.0
 40
10.0
 50
90.0
 51
180.0
  0
ARC
  5
947
  8
OUTLINE
  6
CONTINUOUS
 10
-112.0
 20
10.0
 30
0.0
 40
10.0
 50
0.0
 51
90.0
  0
LINE
  5
948
  8
OUTLINE
  6
CONTINUOUS
 10
-96.0
 20
0.0
 30
0.0
 11
-96.0
 21
3.2
 31
0.0
  0
LINE
  5
949
  8
OUTLINE
  6
CONTINUOUS
 10
-96.0
 20
3.2
 30
0.0
 11
-101.874683
 21
3.2
 31
0.0
  0
LINE
  5
94A
  8
OUTLINE
  6
CONTINUOUS
 10
-102.0
 20
0.0
 30
0.0
 11
-102.0
 21
10.0
 31
0.0
  0
LINE
  5
94B
  8
OUTLINE
  6
CONTINUOUS
 10
-630.499683
 20
20.0
 30
0.0
 11
-630.499683
 21
200.0
 31
0.0
  0
LINE
  5
94C
  8
OUTLINE
  6
CONTINUOUS
 10
-630.499683
 20
20.0
 30
0.0
 11
-656.0
 21
20.0
 31
0.0
  0
LINE
  5
94D
  8
OUTLINE
  6
CONTINUOUS
 10
-526.0
 20
0.0
 30
0.0
 11
-666.0
 21
0.0
 31
0.0
  0
LINE
  5
94E
  8
OUTLINE
  6
CONTINUOUS
 10
-666.0
 20
10.0
 30
0.0
 11
-666.0
 21
0.0
 31
0.0
  0
ARC
  5
94F
  8
OUTLINE
  6
CONTINUOUS
 10
-656.0
 20
10.0
 30
0.0
 40
10.0
 50
90.0
 51
180.0
  0
LINE
  5
950
  8
OUTLINE
  6
CONTINUOUS
 10
-542.0
 20
20.0
 30
0.0
 11
-570.499683
 21
20.0
 31
0.0
  0
ARC
  5
951
  8
OUTLINE
  6
CONTINUOUS
 10
-542.0
 20
10.0
 30
0.0
 40
10.0
 50
0.0
 51
90.0
  0
LINE
  5
952
  8
OUTLINE
  6
CONTINUOUS
 10
-526.0
 20
0.0
 30
0.0
 11
-526.0
 21
3.2
 31
0.0
  0
LINE
  5
953
  8
OUTLINE
  6
CONTINUOUS
 10
-526.0
 20
3.2
 30
0.0
 11
-531.874683
 21
3.2
 31
0.0
  0
LINE
  5
954
  8
OUTLINE
  6
CONTINUOUS
 10
-532.0
 20
0.0
 30
0.0
 11
-532.0
 21
10.0
 31
0.0
  0
LINE
  5
955
  8
OUTLINE
  6
CONTINUOUS
 10
-570.0
 20
200.0
 30
0.0
 11
-570.0
 21
360.0
 31
0.0
  0
LINE
  5
956
  8
OUTLINE
  6
CONTINUOUS
 10
-754.0
 20
400.0
 30
0.0
 11
-570.0
 21
400.0
 31
0.0
  0
LINE
  5
957
  8
DETAIL
  6
CONTINUOUS
 10
-570.5264820000001
 20
139.281299
 30
0.0
 11
-570.5264820000001
 21
139.0
 31
0.0
  0
LINE
  5
958
  8
DETAIL
  6
CONTINUOUS
 10
-570.5264820000001
 20
139.0
 30
0.0
 11
-570.5264820000001
 21
20.0
 31
0.0
  0
LINE
  5
959
  8
DETAIL
  6
CONTINUOUS
 10
-568.0
 20
155.0
 30
0.0
 11
-543.3125
 21
155.0
 31
0.0
  0
LINE
  5
95A
  8
DETAIL
  6
CONTINUOUS
 10
-568.0
 20
168.0
 30
0.0
 11
-568.0
 21
180.0
 31
0.0
  0
LINE
  5
95B
  8
DETAIL
  6
CONTINUOUS
 10
-568.0
 20
168.0
 30
0.0
 11
-565.58906
 21
168.0
 31
0.0
  0
LINE
  5
95C
  8
DETAIL
  6
CONTINUOUS
 10
-568.0
 20
180.0
 30
0.0
 11
-568.0
 21
184.0
 31
0.0
  0
LINE
  5
95D
  8
DETAIL
  6
CONTINUOUS
 10
-568.0
 20
180.0
 30
0.0
 11
-565.5890880000001
 21
180.0
 31
0.0
  0
LINE
  5
95E
  8
DETAIL
  6
CONTINUOUS
 10
-568.0
 20
184.0
 30
0.0
 11
-568.0
 21
188.5
 31
0.0
  0
LINE
  5
95F
  8
DETAIL
  6
CONTINUOUS
 10
-572.0
 20
139.0
 30
0.0
 11
-600.0
 21
139.0
 31
0.0
  0
LINE
  5
960
  8
DETAIL
  6
CONTINUOUS
 10
-612.499683
 20
192.0
 30
0.0
 11
-562.0
 21
192.0
 31
0.0
  0
LINE
  5
961
  8
DETAIL
  6
CONTINUOUS
 10
-562.0
 20
192.0
 30
0.0
 11
-555.0
 21
192.0
 31
0.0
  0
LINE
  5
962
  8
DETAIL
  6
CONTINUOUS
 10
-555.0
 20
192.0
 30
0.0
 11
-554.5
 21
192.0
 31
0.0
  0
LINE
  5
963
  8
DETAIL
  6
CONTINUOUS
 10
-612.499683
 20
188.5
 30
0.0
 11
-562.0
 21
188.5
 31
0.0
  0
LINE
  5
964
  8
DETAIL
  6
CONTINUOUS
 10
-650.0
 20
200.0
 30
0.0
 11
-650.0
 21
320.0
 31
0.0
  0
LINE
  5
965
  8
DETAIL
  6
CONTINUOUS
 10
-562.0
 20
188.5
 30
0.0
 11
-554.5
 21
188.5
 31
0.0
  0
LINE
  5
966
  8
DETAIL
  6
CONTINUOUS
 10
-532.0
 20
184.0
 30
0.0
 11
-568.0
 21
184.0
 31
0.0
  0
LINE
  5
967
  8
DETAIL
  6
CONTINUOUS
 10
-532.0
 20
200.0
 30
0.0
 11
-532.0
 21
184.0
 31
0.0
  0
LINE
  5
968
  8
DETAIL
  6
CONTINUOUS
 10
-536.0
 20
180.0
 30
0.0
 11
-532.0
 21
184.0
 31
0.0
  0
LINE
  5
969
  8
DETAIL
  6
CONTINUOUS
 10
-538.216946
 20
180.0
 30
0.0
 11
-538.216946
 21
168.0
 31
0.0
  0
LINE
  5
96A
  8
DETAIL
  6
CONTINUOUS
 10
-543.3125
 20
155.0
 30
0.0
 11
-542.5
 21
168.0
 31
0.0
  0
ARC
  5
96B
  8
DETAIL
  6
CONTINUOUS
 10
-759.0
 20
1995.0
 30
0.0
 40
5.0
 50
180.0
 51
270.0
  0
ARC
  5
96C
  8
DETAIL
  6
CONTINUOUS
 10
-759.0
 20
2103.0
 30
0.0
 40
5.0
 50
90.0
 51
180.0
  0
ARC
  5
96D
  8
DETAIL
  6
CONTINUOUS
 10
-756.5
 20
662.0
 30
0.0
 40
5.0
 50
180.0
 51
270.0
  0
ARC
  5
96E
  8
DETAIL
  6
CONTINUOUS
 10
-756.5
 20
782.0
 30
0.0
 40
5.0
 50
90.0
 51
180.0
  0
LINE
  5
96F
  8
DETAIL
  6
CONTINUOUS
 10
-756.5
 20
787.0
 30
0.0
 11
-754.0
 21
787.0
 31
0.0
  0
LINE
  5
970
  8
DETAIL
  6
CONTINUOUS
 10
-62.0
 20
2171.2
 30
0.0
 11
-62.0
 21
2170.0
 31
0.0
  0
LINE
  5
971
  8
DETAIL
  6
CONTINUOUS
 10
-62.0
 20
2171.2
 30
0.0
 11
78.8
 21
2171.2
 31
0.0
  0
LINE
  5
972
  8
DETAIL
  6
CONTINUOUS
 10
-62.0
 20
2170.0
 30
0.0
 11
80.0
 21
2170.0
 31
0.0
  0
LINE
  5
973
  8
DETAIL
  6
CONTINUOUS
 10
78.8
 20
2215.0
 30
0.0
 11
80.0
 21
2215.0
 31
0.0
  0
LINE
  5
974
  8
DETAIL
  6
CONTINUOUS
 10
78.8
 20
2171.2
 30
0.0
 11
78.8
 21
2215.0
 31
0.0
  0
LINE
  5
975
  8
DETAIL
  6
CONTINUOUS
 10
80.0
 20
2170.0
 30
0.0
 11
80.0
 21
2215.0
 31
0.0
  0
LINE
  5
976
  8
DETAIL
  6
CONTINUOUS
 10
-756.5
 20
657.0
 30
0.0
 11
-754.0
 21
657.0
 31
0.0
  0
LINE
  5
977
  8
DETAIL
  6
CONTINUOUS
 10
-769.0
 20
681.5
 30
0.0
 11
-761.5
 21
681.5
 31
0.0
  0
LINE
  5
978
  8
DETAIL
  6
CONTINUOUS
 10
-769.0
 20
665.5
 30
0.0
 11
-761.5
 21
665.5
 31
0.0
  0
LINE
  5
979
  8
DETAIL
  6
CONTINUOUS
 10
-769.0
 20
665.5
 30
0.0
 11
-769.0
 21
681.5
 31
0.0
  0
LINE
  5
97A
  8
DETAIL
  6
CONTINUOUS
 10
-761.5
 20
662.0
 30
0.0
 11
-761.5
 21
782.0
 31
0.0
  0
LINE
  5
97B
  8
DETAIL
  6
CONTINUOUS
 10
-56.0
 20
18.0
 30
0.0
 11
-56.0
 21
0.0
 31
0.0
  0
LINE
  5
97C
  8
DETAIL
  6
CONTINUOUS
 10
-96.0
 20
6.0
 30
0.0
 11
-96.0
 21
0.0
 31
0.0
  0
LINE
  5
97D
  8
DETAIL
  6
CONTINUOUS
 10
-126.0
 20
18.0
 30
0.0
 11
-126.0
 21
10.0
 31
0.0
  0
LINE
  5
97E
  8
DETAIL
  6
CONTINUOUS
 10
-96.0
 20
0.0
 30
0.0
 11
-56.0
 21
0.0
 31
0.0
  0
LINE
  5
97F
  8
DETAIL
  6
CONTINUOUS
 10
-126.0
 20
18.0
 30
0.0
 11
-56.0
 21
18.0
 31
0.0
  0
LINE
  5
980
  8
DETAIL
  6
CONTINUOUS
 10
-126.0
 20
10.0
 30
0.0
 11
-96.0
 21
6.0
 31
0.0
  0
LINE
  5
981
  8
DETAIL
  6
CONTINUOUS
 10
-760.0
 20
2144.0
 30
0.0
 11
0.0
 21
2144.0
 31
0.0
  0
LINE
  5
982
  8
DETAIL
  6
CONTINUOUS
 10
-724.0
 20
400.0
 30
0.0
 11
-724.0
 21
2144.0
 31
0.0
  0
LINE
  5
983
  8
DETAIL
  6
CONTINUOUS
 10
-96.0
 20
3.2
 30
0.0
 11
-56.0
 21
3.2
 31
0.0
  0
LINE
  5
984
  8
DETAIL
  6
CONTINUOUS
 10
-532.0
 20
0.0
 30
0.0
 11
-532.0
 21
10.0
 31
0.0
  0
LINE
  5
985
  8
DETAIL
  6
CONTINUOUS
 10
-526.0
 20
3.2
 30
0.0
 11
-531.874683
 21
3.2
 31
0.0
  0
LINE
  5
986
  8
DETAIL
  6
CONTINUOUS
 10
-526.0
 20
0.0
 30
0.0
 11
-526.0
 21
3.2
 31
0.0
  0
ARC
  5
987
  8
DETAIL
  6
CONTINUOUS
 10
-542.0
 20
10.0
 30
0.0
 40
10.0
 50
0.0
 51
90.0
  0
LINE
  5
988
  8
DETAIL
  6
CONTINUOUS
 10
-542.0
 20
20.0
 30
0.0
 11
-570.499683
 21
20.0
 31
0.0
  0
ARC
  5
989
  8
DETAIL
  6
CONTINUOUS
 10
-656.0
 20
10.0
 30
0.0
 40
10.0
 50
90.0
 51
180.0
  0
LINE
  5
98A
  8
DETAIL
  6
CONTINUOUS
 10
-666.0
 20
10.0
 30
0.0
 11
-666.0
 21
0.0
 31
0.0
  0
LINE
  5
98B
  8
DETAIL
  6
CONTINUOUS
 10
-526.0
 20
0.0
 30
0.0
 11
-666.0
 21
0.0
 31
0.0
  0
LINE
  5
98C
  8
DETAIL
  6
CONTINUOUS
 10
-630.499683
 20
20.0
 30
0.0
 11
-656.0
 21
20.0
 31
0.0
  0
LINE
  5
98D
  8
DETAIL
  6
CONTINUOUS
 10
-630.499683
 20
20.0
 30
0.0
 11
-630.499683
 21
200.0
 31
0.0
  0
LINE
  5
98E
  8
DETAIL
  6
CONTINUOUS
 10
-102.0
 20
0.0
 30
0.0
 11
-102.0
 21
10.0
 31
0.0
  0
LINE
  5
98F
  8
DETAIL
  6
CONTINUOUS
 10
-96.0
 20
3.2
 30
0.0
 11
-101.874683
 21
3.2
 31
0.0
  0
LINE
  5
990
  8
DETAIL
  6
CONTINUOUS
 10
-96.0
 20
0.0
 30
0.0
 11
-96.0
 21
3.2
 31
0.0
  0
ARC
  5
991
  8
DETAIL
  6
CONTINUOUS
 10
-112.0
 20
10.0
 30
0.0
 40
10.0
 50
0.0
 51
90.0
  0
ARC
  5
992
  8
DETAIL
  6
CONTINUOUS
 10
-226.0
 20
10.0
 30
0.0
 40
10.0
 50
90.0
 51
180.0
  0
LINE
  5
993
  8
DETAIL
  6
CONTINUOUS
 10
-236.0
 20
10.0
 30
0.0
 11
-236.0
 21
0.0
 31
0.0
  0
LINE
  5
994
  8
DETAIL
  6
CONTINUOUS
 10
-96.0
 20
0.0
 30
0.0
 11
-236.0
 21
0.0
 31
0.0
  0
LINE
  5
995
  8
DETAIL
  6
CONTINUOUS
 10
-112.0
 20
20.0
 30
0.0
 11
-140.499683
 21
20.0
 31
0.0
  0
LINE
  5
996
  8
DETAIL
  6
CONTINUOUS
 10
-200.499683
 20
20.0
 30
0.0
 11
-226.0
 21
20.0
 31
0.0
  0
LINE
  5
997
  8
DETAIL
  6
CONTINUOUS
 10
-200.499683
 20
20.0
 30
0.0
 11
-200.499683
 21
200.0
 31
0.0
  0
LINE
  5
998
  8
DETAIL
  6
CONTINUOUS
 10
-140.499683
 20
200.0
 30
0.0
 11
-140.499683
 21
20.0
 31
0.0
  0
LINE
  5
999
  8
DETAIL
  6
CONTINUOUS
 10
-650.0
 20
200.0
 30
0.0
 11
0.0
 21
200.0
 31
0.0
  0
LINE
  5
99A
  8
DETAIL
  6
CONTINUOUS
 10
-754.0
 20
400.0
 30
0.0
 11
-754.0
 21
2144.0
 31
0.0
  0
LINE
  5
99B
  8
DETAIL
  6
CONTINUOUS
 10
-760.0
 20
2170.0
 30
0.0
 11
0.0
 21
2170.0
 31
0.0
  0
LINE
  5
99C
  8
DETAIL
  6
CONTINUOUS
 10
-760.0
 20
2170.0
 30
0.0
 11
-760.0
 21
2144.0
 31
0.0
  0
LINE
  5
99D
  8
DETAIL
  6
CONTINUOUS
 10
0.0
 20
2170.0
 30
0.0
 11
0.0
 21
200.0
 31
0.0
  0
LINE
  5
99E
  8
DETAIL
  6
CONTINUOUS
 10
-96.0
 20
3.2
 30
0.0
 11
-56.0
 21
3.2
 31
0.0
  0
LINE
  5
99F
  8
DETAIL
  6
CONTINUOUS
 10
-126.0
 20
10.0
 30
0.0
 11
-96.0
 21
6.0
 31
0.0
  0
LINE
  5
9A0
  8
DETAIL
  6
CONTINUOUS
 10
-126.0
 20
18.0
 30
0.0
 11
-56.0
 21
18.0
 31
0.0
  0
LINE
  5
9A1
  8
DETAIL
  6
CONTINUOUS
 10
-96.0
 20
0.0
 30
0.0
 11
-56.0
 21
0.0
 31
0.0
  0
LINE
  5
9A2
  8
DETAIL
  6
CONTINUOUS
 10
-126.0
 20
18.0
 30
0.0
 11
-126.0
 21
10.0
 31
0.0
  0
LINE
  5
9A3
  8
DETAIL
  6
CONTINUOUS
 10
-96.0
 20
6.0
 30
0.0
 11
-96.0
 21
0.0
 31
0.0
  0
LINE
  5
9A4
  8
DETAIL
  6
CONTINUOUS
 10
-56.0
 20
18.0
 30
0.0
 11
-56.0
 21
0.0
 31
0.0
  0
LINE
  5
9A5
  8
DETAIL
  6
CONTINUOUS
 10
-764.0
 20
1995.0
 30
0.0
 11
-764.0
 21
2103.0
 31
0.0
  0
LINE
  5
9A6
  8
DETAIL
  6
CONTINUOUS
 10
-754.0
 20
1990.0
 30
0.0
 11
-759.0
 21
1990.0
 31
0.0
  0
LINE
  5
9A7
  8
DETAIL
  6
CONTINUOUS
 10
-754.0
 20
2108.0
 30
0.0
 11
-759.0
 21
2108.0
 31
0.0
  0
LINE
  5
9A8
  8
DETAIL
  6
CONTINUOUS
 10
80.0
 20
2170.0
 30
0.0
 11
80.0
 21
2215.0
 31
0.0
  0
LINE
  5
9A9
  8
DETAIL
  6
CONTINUOUS
 10
78.8
 20
2171.2
 30
0.0
 11
78.8
 21
2215.0
 31
0.0
  0
LINE
  5
9AA
  8
DETAIL
  6
CONTINUOUS
 10
78.8
 20
2215.0
 30
0.0
 11
80.0
 21
2215.0
 31
0.0
  0
LINE
  5
9AB
  8
DETAIL
  6
CONTINUOUS
 10
-62.0
 20
2170.0
 30
0.0
 11
80.0
 21
2170.0
 31
0.0
  0
LINE
  5
9AC
  8
DETAIL
  6
CONTINUOUS
 10
-62.0
 20
2171.2
 30
0.0
 11
78.8
 21
2171.2
 31
0.0
  0
LINE
  5
9AD
  8
DETAIL
  6
CONTINUOUS
 10
-62.0
 20
2171.2
 30
0.0
 11
-62.0
 21
2170.0
 31
0.0
  0
LINE
  5
9AE
  8
DETAIL
  6
CONTINUOUS
 10
-570.0
 20
200.0
 30
0.0
 11
-570.0
 21
400.0
 31
0.0
  0
LINE
  5
9AF
  8
DETAIL
  6
CONTINUOUS
 10
-754.0
 20
400.0
 30
0.0
 11
-570.0
 21
400.0
 31
0.0
  0
LINE
  5
9B0
  8
DETAIL
  6
CONTINUOUS
 10
-754.0
 20
432.0
 30
0.0
 11
-760.0
 21
432.0
 31
0.0
  0
LINE
  5
9B1
  8
DETAIL
  6
CONTINUOUS
 10
-754.0
 20
652.0
 30
0.0
 11
-760.0
 21
652.0
 31
0.0
  0
LINE
  5
9B2
  8
DETAIL
  6
CONTINUOUS
 10
-762.0
 20
434.0
 30
0.0
 11
-762.0
 21
650.0
 31
0.0
  0
ARC
  5
9B3
  8
DETAIL
  6
CONTINUOUS
 10
-760.0
 20
650.0
 30
0.0
 40
2.0
 50
90.0
 51
180.0
  0
ARC
  5
9B4
  8
DETAIL
  6
CONTINUOUS
 10
-760.0
 20
434.0
 30
0.0
 40
2.0
 50
180.0
 51
270.0
  0
LINE
  5
9B5
  8
DETAIL
  6
CONTINUOUS
 10
-762.0
 20
594.5
 30
0.0
 11
-770.0
 21
594.5
 31
0.0
  0
LINE
  5
9B6
  8
DETAIL
  6
CONTINUOUS
 10
-762.0
 20
609.5
 30
0.0
 11
-770.0
 21
609.5
 31
0.0
  0
LINE
  5
9B7
  8
DETAIL
  6
CONTINUOUS
 10
-772.0
 20
596.5
 30
0.0
 11
-772.0
 21
607.5
 31
0.0
  0
ARC
  5
9B8
  8
DETAIL
  6
CONTINUOUS
 10
-770.0
 20
607.5
 30
0.0
 40
2.0
 50
90.0
 51
180.0
  0
ARC
  5
9B9
  8
DETAIL
  6
CONTINUOUS
 10
-770.0
 20
596.5
 30
0.0
 40
2.0
 50
180.0
 51
270.0
  0
LINE
  5
9BA
  8
DETAIL
  6
CONTINUOUS
 10
-618.0
 20
192.0
 30
0.0
 11
-612.499683
 21
192.0
 31
0.0
  0
LINE
  5
9BB
  8
DETAIL
  6
CONTINUOUS
 10
-617.5
 20
188.5
 30
0.0
 11
-612.499683
 21
188.5
 31
0.0
  0
LINE
  5
9BC
  8
DETAIL
  6
CONTINUOUS
 10
-617.5
 20
188.5
 30
0.0
 11
-617.5
 21
192.0
 31
0.0
  0
LINE
  5
9BD
  8
DETAIL
  6
CONTINUOUS
 10
-554.5
 20
188.5
 30
0.0
 11
-554.5
 21
192.0
 31
0.0
  0
LINE
  5
9BE
  8
DETAIL
  6
CONTINUOUS
 10
-565.58906
 20
168.0
 30
0.0
 11
-538.216946
 21
168.0
 31
0.0
  0
LINE
  5
9BF
  8
DETAIL
  6
CONTINUOUS
 10
-565.5890880000001
 20
180.0
 30
0.0
 11
-536.0
 21
180.0
 31
0.0
  0
LINE
  5
9C0
  8
DETAIL
  6
CONTINUOUS
 10
-618.0
 20
192.0
 30
0.0
 11
-626.0
 21
200.0
 31
0.0
  0
LINE
  5
9C1
  8
DETAIL
  6
CONTINUOUS
 10
-554.5
 20
192.0
 30
0.0
 11
-546.5
 21
200.0
 31
0.0
  0
POLYLINE
  5
9C2
  8
DETAIL
  6
CONTINUOUS
 66
     1
 10
0.0
 20
0.0
 30
0.0
  0
VERTEX
  5
BE1
  8
DETAIL
  6
CONTINUOUS
 10
-568.0
 20
163.975526
 30
0.0
  0
VERTEX
  5
BE2
  8
DETAIL
  6
CONTINUOUS
 10
-567.8000000000001
 20
164.057252
 30
0.0
  0
SEQEND
  5
BE5
  8
DETAIL
  6
CONTINUOUS
  0
POLYLINE
  5
9C6
  8
DETAIL
  6
CONTINUOUS
 66
     1
 10
0.0
 20
0.0
 30
0.0
  0
VERTEX
  5
BE3
  8
DETAIL
  6
CONTINUOUS
 10
-567.8000000000001
 20
180.942749
 30
0.0
  0
VERTEX
  5
BE4
  8
DETAIL
  6
CONTINUOUS
 10
-568.0
 20
181.024475
 30
0.0
  0
SEQEND
  5
BE6
  8
DETAIL
  6
CONTINUOUS
  0
ARC
  5
9CA
  8
DETAIL
  6
CONTINUOUS
 10
-572.0
 20
143.0
 30
0.0
 40
4.0
 50
270.0
 51
0.0
  0
ARC
  5
9CB
  8
DETAIL
  6
CONTINUOUS
 10
-600.0
 20
143.0
 30
0.0
 40
4.0
 50
180.0
 51
270.0
  0
LINE
  5
9CC
  8
DETAIL
  6
CONTINUOUS
 10
-604.0
 20
143.0
 30
0.0
 11
-604.0
 21
188.5
 31
0.0
  0
LINE
  5
9CD
  8
DETAIL
  6
CONTINUOUS
 10
-568.0
 20
143.0
 30
0.0
 11
-568.0
 21
168.0
 31
0.0
  0
LINE
  5
9CE
  8
DETAIL
  6
CONTINUOUS
 10
-645.4000000000001
 20
320.0
 30
0.0
 11
-645.4000000000001
 21
400.0
 31
0.0
  0
LINE
  5
9CF
  8
DETAIL
  6
CONTINUOUS
 10
-672.6
 20
320.0
 30
0.0
 11
-672.6
 21
400.0
 31
0.0
  0
LINE
  5
9D0
  8
DETAIL
  6
CONTINUOUS
 10
-672.6
 20
320.0
 30
0.0
 11
-645.4000000000001
 21
320.0
 31
0.0
  0
LINE
  5
9D1
  8
DETAIL
  6
CONTINUOUS
 10
-721.6
 20
320.0
 30
0.0
 11
-694.4000000000001
 21
320.0
 31
0.0
  0
LINE
  5
9D2
  8
DETAIL
  6
CONTINUOUS
 10
-694.4000000000001
 20
320.0
 30
0.0
 11
-694.4000000000001
 21
400.0
 31
0.0
  0
LINE
  5
9D3
  8
DETAIL
  6
CONTINUOUS
 10
-721.6
 20
320.0
 30
0.0
 11
-721.6
 21
360.0
 31
0.0
  0
LINE
  5
9D4
  8
DETAIL
  6
DASHED
 10
-721.6
 20
360.0
 30
0.0
 11
-721.6
 21
400.0
 31
0.0
  0
LINE
  5
9D5
  8
DETAIL
  6
CONTINUOUS
 10
-700.2
 20
360.0
 30
0.0
 11
-700.2
 21
400.0
 31
0.0
  0
LINE
  5
9D6
  8
DETAIL
  6
CONTINUOUS
 10
-721.8000000000001
 20
360.0
 30
0.0
 11
-721.8000000000001
 21
400.0
 31
0.0
  0
LINE
  5
9D7
  8
DETAIL
  6
CONTINUOUS
 10
-721.8000000000001
 20
360.0
 30
0.0
 11
-700.2
 21
360.0
 31
0.0
  0
LINE
  5
9D8
  8
SIZE
  6
CONTINUOUS
 62
    30
 10
-716.0000220000001
 20
430.000014
 30
0.0
 11
-716.0000220000001
 21
518.08434
 31
0.0
  0
LINE
  5
9D9
  8
SIZE
  6
CONTINUOUS
 62
    30
 10
-760.0000220000001
 20
10.0
 30
0.0
 11
-760.0000220000001
 21
518.08434
 31
0.0
  0
LINE
  5
9DA
  8
SIZE
  6
CONTINUOUS
 62
    30
 10
-726.0000220000001
 20
505.58434
 30
0.0
 11
-750.0000220000001
 21
505.58434
 31
0.0
  0
LINE
  5
9DB
  8
SIZE
  6
CONTINUOUS
 62
    30
 10
-760.0000220000001
 20
505.58434
 30
0.0
 11
-840.0000220000001
 21
505.58434
 31
0.0
  0
CIRCLE
  5
9DC
  8
SIZE
  6
CONTINUOUS
 62
    30
 10
-716.0000220000001
 20
505.58434
 30
0.0
 40
5.0
  0
LINE
  5
9DD
  8
SIZE
  6
CONTINUOUS
 62
    30
 10
-716.0000220000001
 20
505.58434
 30
0.0
 11
-726.0000220000001
 21
505.58434
 31
0.0
  0
CIRCLE
  5
9DE
  8
SIZE
  6
CONTINUOUS
 62
    30
 10
-760.0000220000001
 20
505.58434
 30
0.0
 40
5.0
  0
LINE
  5
9DF
  8
SIZE
  6
CONTINUOUS
 62
    30
 10
-760.0000220000001
 20
505.58434
 30
0.0
 11
-750.0000220000001
 21
505.58434
 31
0.0
  0
TEXT
  5
9E0
  8
SIZE
  6
CONTINUOUS
 62
    30
 10
-834.2857362857144
 20
515.58434
 30
0.0
 40
30.0
  1
44
 72
     1
 11
-805.0000220000001
 21
515.58434
 31
0.0
  0
POINT
  5
9E1
  8
DEFPOINTS
  6
CONTINUOUS
 62
    30
 10
-716.0000220000001
 20
420.000014
 30
0.0
  0
POINT
  5
9E2
  8
DEFPOINTS
  6
CONTINUOUS
 62
    30
 10
-760.0000220000001
 20
0.0
 30
0.0
  0
POINT
  5
9E3
  8
DEFPOINTS
  6
CONTINUOUS
 62
    30
 10
-760.0000220000001
 20
505.58434
 30
0.0
  0
LINE
  5
9E4
  8
SIZE
  6
CONTINUOUS
 62
    30
 10
-707.0000220000001
 20
430.000014
 30
0.0
 11
-707.0000220000001
 21
618.08434
 31
0.0
  0
LINE
  5
9E5
  8
SIZE
  6
CONTINUOUS
 62
    30
 10
-760.0000220000001
 20
10.0
 30
0.0
 11
-760.0000220000001
 21
618.08434
 31
0.0
  0
LINE
  5
9E6
  8
SIZE
  6
CONTINUOUS
 62
    30
 10
-717.0000220000001
 20
605.58434
 30
0.0
 11
-750.0000220000001
 21
605.58434
 31
0.0
  0
LINE
  5
9E7
  8
SIZE
  6
CONTINUOUS
 62
    30
 10
-760.0000220000001
 20
605.58434
 30
0.0
 11
-853.849815
 21
605.58434
 31
0.0
  0
CIRCLE
  5
9E8
  8
SIZE
  6
CONTINUOUS
 62
    30
 10
-707.0000220000001
 20
605.58434
 30
0.0
 40
5.0
  0
LINE
  5
9E9
  8
SIZE
  6
CONTINUOUS
 62
    30
 10
-707.0000220000001
 20
605.58434
 30
0.0
 11
-717.0000220000001
 21
605.58434
 31
0.0
  0
CIRCLE
  5
9EA
  8
SIZE
  6
CONTINUOUS
 62
    30
 10
-760.0000220000001
 20
605.58434
 30
0.0
 40
5.0
  0
LINE
  5
9EB
  8
SIZE
  6
CONTINUOUS
 62
    30
 10
-760.0000220000001
 20
605.58434
 30
0.0
 11
-750.0000220000001
 21
605.58434
 31
0.0
  0
TEXT
  5
9EC
  8
SIZE
  6
CONTINUOUS
 62
    30
 10
-847.4212435714286
 20
615.58434
 30
0.0
 40
30.0
  1
53
 72
     1
 11
-818.849815
 21
615.58434
 31
0.0
  0
POINT
  5
9ED
  8
DEFPOINTS
  6
CONTINUOUS
 62
    30
 10
-707.0000220000001
 20
420.000014
 30
0.0
  0
POINT
  5
9EE
  8
DEFPOINTS
  6
CONTINUOUS
 62
    30
 10
-760.0000220000001
 20
0.0
 30
0.0
  0
POINT
  5
9EF
  8
DEFPOINTS
  6
CONTINUOUS
 62
    30
 10
-760.0000220000001
 20
605.58434
 30
0.0
  0
LINE
  5
9F0
  8
SIZE
  6
CONTINUOUS
 62
    30
 10
-570.0000220000001
 20
410.000014
 30
0.0
 11
-570.0000220000001
 21
818.08434
 31
0.0
  0
LINE
  5
9F1
  8
SIZE
  6
CONTINUOUS
 62
    30
 10
-760.0000220000001
 20
10.0
 30
0.0
 11
-760.0000220000001
 21
818.08434
 31
0.0
  0
LINE
  5
9F2
  8
SIZE
  6
CONTINUOUS
 62
    30
 10
-580.0000220000001
 20
805.58434
 30
0.0
 11
-750.0000220000001
 21
805.58434
 31
0.0
  0
LINE
  5
9F3
  8
SIZE
  6
CONTINUOUS
 62
    30
 10
-760.0000220000001
 20
805.58434
 30
0.0
 11
-937.174827
 21
805.58434
 31
0.0
  0
CIRCLE
  5
9F4
  8
SIZE
  6
CONTINUOUS
 62
    30
 10
-570.0000220000001
 20
805.58434
 30
0.0
 40
5.0
  0
LINE
  5
9F5
  8
SIZE
  6
CONTINUOUS
 62
    30
 10
-570.0000220000001
 20
805.58434
 30
0.0
 11
-580.0000220000001
 21
805.58434
 31
0.0
  0
CIRCLE
  5
9F6
  8
SIZE
  6
CONTINUOUS
 62
    30
 10
-760.0000220000001
 20
805.58434
 30
0.0
 40
5.0
  0
LINE
  5
9F7
  8
SIZE
  6
CONTINUOUS
 62
    30
 10
-760.0000220000001
 20
805.58434
 30
0.0
 11
-750.0000220000001
 21
805.58434
 31
0.0
  0
TEXT
  5
9F8
  8
SIZE
  6
CONTINUOUS
 62
    30
 10
-939.674827
 20
815.58434
 30
0.0
 40
30.0
  1
190
 72
     1
 11
-894.674827
 21
815.58434
 31
0.0
  0
POINT
  5
9F9
  8
DEFPOINTS
  6
CONTINUOUS
 62
    30
 10
-570.0000220000001
 20
400.000014
 30
0.0
  0
POINT
  5
9FA
  8
DEFPOINTS
  6
CONTINUOUS
 62
    30
 10
-760.0000220000001
 20
0.0
 30
0.0
  0
POINT
  5
9FB
  8
DEFPOINTS
  6
CONTINUOUS
 62
    30
 10
-760.0000220000001
 20
805.58434
 30
0.0
  0
LINE
  5
9FC
  8
SIZE
  6
CONTINUOUS
 62
    30
 10
-75.999999
 20
-30.0
 30
0.0
 11
-75.999999
 21
-880.8483990000001
 31
0.0
  0
LINE
  5
9FD
  8
SIZE
  6
CONTINUOUS
 62
    30
 10
0.0
 20
189.999998
 30
0.0
 11
0.0
 21
-880.8483990000001
 31
0.0
  0
LINE
  5
9FE
  8
SIZE
  6
CONTINUOUS
 62
    30
 10
-65.999999
 20
-868.3483990000001
 30
0.0
 11
-10.0
 21
-868.3483990000001
 31
0.0
  0
CIRCLE
  5
9FF
  8
SIZE
  6
CONTINUOUS
 62
    30
 10
-75.999999
 20
-868.3483990000001
 30
0.0
 40
5.0
  0
LINE
  5
A00
  8
SIZE
  6
CONTINUOUS
 62
    30
 10
-75.999999
 20
-868.3483990000001
 30
0.0
 11
-65.999999
 21
-868.3483990000001
 31
0.0
  0
CIRCLE
  5
A01
  8
SIZE
  6
CONTINUOUS
 62
    30
 10
0.0
 20
-868.3483990000001
 30
0.0
 40
5.0
  0
LINE
  5
A02
  8
SIZE
  6
CONTINUOUS
 62
    30
 10
0.0
 20
-868.3483990000001
 30
0.0
 11
-10.0
 21
-868.3483990000001
 31
0.0
  0
TEXT
  5
A03
  8
SIZE
  6
CONTINUOUS
 62
    30
 10
-66.57142857142857
 20
-858.3483990000001
 30
0.0
 40
30.0
  1
76
 72
     1
 11
-38.0
 21
-858.3483990000001
 31
0.0
  0
POINT
  5
A04
  8
DEFPOINTS
  6
CONTINUOUS
 62
    30
 10
-75.999999
 20
-20.0
 30
0.0
  0
POINT
  5
A05
  8
DEFPOINTS
  6
CONTINUOUS
 62
    30
 10
0.0
 20
199.999998
 30
0.0
  0
POINT
  5
A06
  8
DEFPOINTS
  6
CONTINUOUS
 62
    30
 10
0.0
 20
-868.3483990000001
 30
0.0
  0
LINE
  5
A07
  8
SIZE
  6
CONTINUOUS
 62
    30
 10
0.0
 20
189.999998
 30
0.0
 11
0.0
 21
-980.8483990000001
 31
0.0
  0
LINE
  5
A08
  8
SIZE
  6
CONTINUOUS
 62
    30
 10
-111.999999
 20
-30.0
 30
0.0
 11
-111.999999
 21
-980.8483990000001
 31
0.0
  0
LINE
  5
A09
  8
SIZE
  6
CONTINUOUS
 62
    30
 10
-10.0
 20
-968.3483990000001
 30
0.0
 11
-101.999999
 21
-968.3483990000001
 31
0.0
  0
CIRCLE
  5
A0A
  8
SIZE
  6
CONTINUOUS
 62
    30
 10
0.0
 20
-968.3483990000001
 30
0.0
 40
5.0
  0
LINE
  5
A0B
  8
SIZE
  6
CONTINUOUS
 62
    30
 10
0.0
 20
-968.3483990000001
 30
0.0
 11
-10.0
 21
-968.3483990000001
 31
0.0
  0
CIRCLE
  5
A0C
  8
SIZE
  6
CONTINUOUS
 62
    30
 10
-111.999999
 20
-968.3483990000001
 30
0.0
 40
5.0
  0
LINE
  5
A0D
  8
SIZE
  6
CONTINUOUS
 62
    30
 10
-111.999999
 20
-968.3483990000001
 30
0.0
 11
-101.999999
 21
-968.3483990000001
 31
0.0
  0
TEXT
  5
A0E
  8
SIZE
  6
CONTINUOUS
 62
    30
 10
-101.0
 20
-958.3483990000001
 30
0.0
 40
30.0
  1
112
 72
     1
 11
-56.0
 21
-958.3483990000001
 31
0.0
  0
POINT
  5
A0F
  8
DEFPOINTS
  6
CONTINUOUS
 62
    30
 10
0.0
 20
199.999998
 30
0.0
  0
POINT
  5
A10
  8
DEFPOINTS
  6
CONTINUOUS
 62
    30
 10
-111.999999
 20
-20.0
 30
0.0
  0
POINT
  5
A11
  8
DEFPOINTS
  6
CONTINUOUS
 62
    30
 10
-111.999999
 20
-968.3483990000001
 30
0.0
  0
LINE
  5
A12
  8
SIZE
  6
CONTINUOUS
 62
    30
 10
-760.0000220000001
 20
-10.0
 30
0.0
 11
-760.0000220000001
 21
-1080.848399
 31
0.0
  0
LINE
  5
A13
  8
SIZE
  6
CONTINUOUS
 62
    30
 10
0.0
 20
189.999998
 30
0.0
 11
0.0
 21
-1080.848399
 31
0.0
  0
LINE
  5
A14
  8
SIZE
  6
CONTINUOUS
 62
    30
 10
-750.0000220000001
 20
-1068.348399
 30
0.0
 11
-10.0
 21
-1068.348399
 31
0.0
  0
CIRCLE
  5
A15
  8
SIZE
  6
CONTINUOUS
 62
    30
 10
-760.0000220000001
 20
-1068.348399
 30
0.0
 40
5.0
  0
LINE
  5
A16
  8
SIZE
  6
CONTINUOUS
 62
    30
 10
-760.0000220000001
 20
-1068.348399
 30
0.0
 11
-750.0000220000001
 21
-1068.348399
 31
0.0
  0
CIRCLE
  5
A17
  8
SIZE
  6
CONTINUOUS
 62
    30
 10
0.0
 20
-1068.348399
 30
0.0
 40
5.0
  0
LINE
  5
A18
  8
SIZE
  6
CONTINUOUS
 62
    30
 10
0.0
 20
-1068.348399
 30
0.0
 11
-10.0
 21
-1068.348399
 31
0.0
  0
TEXT
  5
A19
  8
SIZE
  6
CONTINUOUS
 62
    30
 10
-422.8571348571429
 20
-1058.348399
 30
0.0
 40
30.0
  1
760
 72
     1
 11
-379.999992
 21
-1058.348399
 31
0.0
  0
POINT
  5
A1A
  8
DEFPOINTS
  6
CONTINUOUS
 62
    30
 10
-760.0000220000001
 20
0.0
 30
0.0
  0
POINT
  5
A1B
  8
DEFPOINTS
  6
CONTINUOUS
 62
    30
 10
0.0
 20
199.999998
 30
0.0
  0
POINT
  5
A1C
  8
DEFPOINTS
  6
CONTINUOUS
 62
    30
 10
0.0
 20
-1068.348399
 30
0.0
  0
LINE
  5
A1D
  8
SIZE
  6
CONTINUOUS
 62
    30
 10
-760.0000220000001
 20
-10.0
 30
0.0
 11
-760.0000220000001
 21
-980.8483990000001
 31
0.0
  0
LINE
  5
A1E
  8
SIZE
  6
CONTINUOUS
 62
    30
 10
-646.0000220000001
 20
-30.0
 30
0.0
 11
-646.0000220000001
 21
-980.8483990000001
 31
0.0
  0
LINE
  5
A1F
  8
SIZE
  6
CONTINUOUS
 62
    30
 10
-750.0000220000001
 20
-968.3483990000001
 30
0.0
 11
-656.0000220000001
 21
-968.3483990000001
 31
0.0
  0
CIRCLE
  5
A20
  8
SIZE
  6
CONTINUOUS
 62
    30
 10
-760.0000220000001
 20
-968.3483990000001
 30
0.0
 40
5.0
  0
LINE
  5
A21
  8
SIZE
  6
CONTINUOUS
 62
    30
 10
-760.0000220000001
 20
-968.3483990000001
 30
0.0
 11
-750.0000220000001
 21
-968.3483990000001
 31
0.0
  0
CIRCLE
  5
A22
  8
SIZE
  6
CONTINUOUS
 62
    30
 10
-646.0000220000001
 20
-968.3483990000001
 30
0.0
 40
5.0
  0
LINE
  5
A23
  8
SIZE
  6
CONTINUOUS
 62
    30
 10
-646.0000220000001
 20
-968.3483990000001
 30
0.0
 11
-656.0000220000001
 21
-968.3483990000001
 31
0.0
  0
TEXT
  5
A24
  8
SIZE
  6
CONTINUOUS
 62
    30
 10
-748.7143077142857
 20
-958.3483990000001
 30
0.0
 40
30.0
  1
114
 72
     1
 11
-703.0000220000001
 21
-958.3483990000001
 31
0.0
  0
POINT
  5
A25
  8
DEFPOINTS
  6
CONTINUOUS
 62
    30
 10
-760.0000220000001
 20
0.0
 30
0.0
  0
POINT
  5
A26
  8
DEFPOINTS
  6
CONTINUOUS
 62
    30
 10
-646.0000220000001
 20
-20.0
 30
0.0
  0
POINT
  5
A27
  8
DEFPOINTS
  6
CONTINUOUS
 62
    30
 10
-646.0000220000001
 20
-968.3483990000001
 30
0.0
  0
LINE
  5
A28
  8
SIZE
  6
CONTINUOUS
 62
    30
 10
-556.0000220000001
 20
124.999998
 30
0.0
 11
-556.0000220000001
 21
-780.8483990000001
 31
0.0
  0
LINE
  5
A29
  8
SIZE
  6
CONTINUOUS
 62
    30
 10
-760.0000220000001
 20
-10.0
 30
0.0
 11
-760.0000220000001
 21
-780.8483990000001
 31
0.0
  0
LINE
  5
A2A
  8
SIZE
  6
CONTINUOUS
 62
    30
 10
-566.0000220000001
 20
-768.3483990000001
 30
0.0
 11
-750.0000220000001
 21
-768.3483990000001
 31
0.0
  0
CIRCLE
  5
A2B
  8
SIZE
  6
CONTINUOUS
 62
    30
 10
-556.0000220000001
 20
-768.3483990000001
 30
0.0
 40
5.0
  0
LINE
  5
A2C
  8
SIZE
  6
CONTINUOUS
 62
    30
 10
-556.0000220000001
 20
-768.3483990000001
 30
0.0
 11
-566.0000220000001
 21
-768.3483990000001
 31
0.0
  0
CIRCLE
  5
A2D
  8
SIZE
  6
CONTINUOUS
 62
    30
 10
-760.0000220000001
 20
-768.3483990000001
 30
0.0
 40
5.0
  0
LINE
  5
A2E
  8
SIZE
  6
CONTINUOUS
 62
    30
 10
-760.0000220000001
 20
-768.3483990000001
 30
0.0
 11
-750.0000220000001
 21
-768.3483990000001
 31
0.0
  0
TEXT
  5
A2F
  8
SIZE
  6
CONTINUOUS
 62
    30
 10
-701.5714505714286
 20
-758.3483990000001
 30
0.0
 40
30.0
  1
204
 72
     1
 11
-658.0000220000001
 21
-758.3483990000001
 31
0.0
  0
POINT
  5
A30
  8
DEFPOINTS
  6
CONTINUOUS
 62
    30
 10
-556.0000220000001
 20
134.999998
 30
0.0
  0
POINT
  5
A31
  8
DEFPOINTS
  6
CONTINUOUS
 62
    30
 10
-760.0000220000001
 20
0.0
 30
0.0
  0
POINT
  5
A32
  8
DEFPOINTS
  6
CONTINUOUS
 62
    30
 10
-760.0000220000001
 20
-768.3483990000001
 30
0.0
  0
LINE
  5
A33
  8
SIZE
  6
CONTINUOUS
 62
    30
 10
-760.0000220000001
 20
-10.0
 30
0.0
 11
-760.0000220000001
 21
-680.8483990000001
 31
0.0
  0
LINE
  5
A34
  8
SIZE
  6
CONTINUOUS
 62
    30
 10
-586.0000220000001
 20
142.499998
 30
0.0
 11
-586.0000220000001
 21
-680.8483990000001
 31
0.0
  0
LINE
  5
A35
  8
SIZE
  6
CONTINUOUS
 62
    30
 10
-750.0000220000001
 20
-668.3483990000001
 30
0.0
 11
-596.0000220000001
 21
-668.3483990000001
 31
0.0
  0
CIRCLE
  5
A36
  8
SIZE
  6
CONTINUOUS
 62
    30
 10
-760.0000220000001
 20
-668.3483990000001
 30
0.0
 40
5.0
  0
LINE
  5
A37
  8
SIZE
  6
CONTINUOUS
 62
    30
 10
-760.0000220000001
 20
-668.3483990000001
 30
0.0
 11
-750.0000220000001
 21
-668.3483990000001
 31
0.0
  0
CIRCLE
  5
A38
  8
SIZE
  6
CONTINUOUS
 62
    30
 10
-586.0000220000001
 20
-668.3483990000001
 30
0.0
 40
5.0
  0
LINE
  5
A39
  8
SIZE
  6
CONTINUOUS
 62
    30
 10
-586.0000220000001
 20
-668.3483990000001
 30
0.0
 11
-596.0000220000001
 21
-668.3483990000001
 31
0.0
  0
TEXT
  5
A3A
  8
SIZE
  6
CONTINUOUS
 62
    30
 10
-718.7143077142857
 20
-658.3483990000001
 30
0.0
 40
30.0
  1
174
 72
     1
 11
-673.0000220000001
 21
-658.3483990000001
 31
0.0
  0
POINT
  5
A3B
  8
DEFPOINTS
  6
CONTINUOUS
 62
    30
 10
-760.0000220000001
 20
0.0
 30
0.0
  0
POINT
  5
A3C
  8
DEFPOINTS
  6
CONTINUOUS
 62
    30
 10
-586.0000220000001
 20
152.499998
 30
0.0
  0
POINT
  5
A3D
  8
DEFPOINTS
  6
CONTINUOUS
 62
    30
 10
-586.0000220000001
 20
-668.3483990000001
 30
0.0
  0
LINE
  5
A3E
  8
SIZE
  6
CONTINUOUS
 62
    30
 10
-760.0000220000001
 20
-10.0
 30
0.0
 11
-760.0000220000001
 21
-380.848399
 31
0.0
  0
LINE
  5
A3F
  8
SIZE
  6
CONTINUOUS
 62
    30
 10
-708.0000220000001
 20
290.000014
 30
0.0
 11
-708.0000220000001
 21
-380.848399
 31
0.0
  0
LINE
  5
A40
  8
SIZE
  6
CONTINUOUS
 62
    30
 10
-750.0000220000001
 20
-368.348399
 30
0.0
 11
-718.0000220000001
 21
-368.348399
 31
0.0
  0
CIRCLE
  5
A41
  8
SIZE
  6
CONTINUOUS
 62
    30
 10
-760.0000220000001
 20
-368.348399
 30
0.0
 40
5.0
  0
LINE
  5
A42
  8
SIZE
  6
CONTINUOUS
 62
    30
 10
-760.0000220000001
 20
-368.348399
 30
0.0
 11
-750.0000220000001
 21
-368.348399
 31
0.0
  0
CIRCLE
  5
A43
  8
SIZE
  6
CONTINUOUS
 62
    30
 10
-708.0000220000001
 20
-368.348399
 30
0.0
 40
5.0
  0
LINE
  5
A44
  8
SIZE
  6
CONTINUOUS
 62
    30
 10
-708.0000220000001
 20
-368.348399
 30
0.0
 11
-718.0000220000001
 21
-368.348399
 31
0.0
  0
TEXT
  5
A45
  8
SIZE
  6
CONTINUOUS
 62
    30
 10
-762.5714505714286
 20
-358.348399
 30
0.0
 40
30.0
  1
52
 72
     1
 11
-734.0000220000001
 21
-358.348399
 31
0.0
  0
POINT
  5
A46
  8
DEFPOINTS
  6
CONTINUOUS
 62
    30
 10
-760.0000220000001
 20
0.0
 30
0.0
  0
POINT
  5
A47
  8
DEFPOINTS
  6
CONTINUOUS
 62
    30
 10
-708.0000220000001
 20
300.000014
 30
0.0
  0
POINT
  5
A48
  8
DEFPOINTS
  6
CONTINUOUS
 62
    30
 10
-708.0000220000001
 20
-368.348399
 30
0.0
  0
LINE
  5
A49
  8
SIZE
  6
CONTINUOUS
 62
    30
 10
-760.0000220000001
 20
-10.0
 30
0.0
 11
-760.0000220000001
 21
-480.848399
 31
0.0
  0
LINE
  5
A4A
  8
SIZE
  6
CONTINUOUS
 62
    30
 10
-659.0000220000001
 20
290.000014
 30
0.0
 11
-659.0000220000001
 21
-480.848399
 31
0.0
  0
LINE
  5
A4B
  8
SIZE
  6
CONTINUOUS
 62
    30
 10
-750.0000220000001
 20
-468.348399
 30
0.0
 11
-669.0000220000001
 21
-468.348399
 31
0.0
  0
CIRCLE
  5
A4C
  8
SIZE
  6
CONTINUOUS
 62
    30
 10
-760.0000220000001
 20
-468.348399
 30
0.0
 40
5.0
  0
LINE
  5
A4D
  8
SIZE
  6
CONTINUOUS
 62
    30
 10
-760.0000220000001
 20
-468.348399
 30
0.0
 11
-750.0000220000001
 21
-468.348399
 31
0.0
  0
CIRCLE
  5
A4E
  8
SIZE
  6
CONTINUOUS
 62
    30
 10
-659.0000220000001
 20
-468.348399
 30
0.0
 40
5.0
  0
LINE
  5
A4F
  8
SIZE
  6
CONTINUOUS
 62
    30
 10
-659.0000220000001
 20
-468.348399
 30
0.0
 11
-669.0000220000001
 21
-468.348399
 31
0.0
  0
TEXT
  5
A50
  8
SIZE
  6
CONTINUOUS
 62
    30
 10
-750.2143077142857
 20
-458.348399
 30
0.0
 40
30.0
  1
101
 72
     1
 11
-709.5000220000001
 21
-458.348399
 31
0.0
  0
POINT
  5
A51
  8
DEFPOINTS
  6
CONTINUOUS
 62
    30
 10
-760.0000220000001
 20
0.0
 30
0.0
  0
POINT
  5
A52
  8
DEFPOINTS
  6
CONTINUOUS
 62
    30
 10
-659.0000220000001
 20
300.000014
 30
0.0
  0
POINT
  5
A53
  8
DEFPOINTS
  6
CONTINUOUS
 62
    30
 10
-659.0000220000001
 20
-468.348399
 30
0.0
  0
LINE
  5
A54
  8
SIZE
  6
CONTINUOUS
 62
    30
 10
-760.0000220000001
 20
-10.0
 30
0.0
 11
-760.0000220000001
 21
-280.848399
 31
0.0
  0
LINE
  5
A55
  8
SIZE
  6
CONTINUOUS
 62
    30
 10
-711.0000220000001
 20
330.000014
 30
0.0
 11
-711.0000220000001
 21
-280.848399
 31
0.0
  0
LINE
  5
A56
  8
SIZE
  6
CONTINUOUS
 62
    30
 10
-750.0000220000001
 20
-268.348399
 30
0.0
 11
-721.0000220000001
 21
-268.348399
 31
0.0
  0
CIRCLE
  5
A57
  8
SIZE
  6
CONTINUOUS
 62
    30
 10
-760.0000220000001
 20
-268.348399
 30
0.0
 40
5.0
  0
LINE
  5
A58
  8
SIZE
  6
CONTINUOUS
 62
    30
 10
-760.0000220000001
 20
-268.348399
 30
0.0
 11
-750.0000220000001
 21
-268.348399
 31
0.0
  0
CIRCLE
  5
A59
  8
SIZE
  6
CONTINUOUS
 62
    30
 10
-711.0000220000001
 20
-268.348399
 30
0.0
 40
5.0
  0
LINE
  5
A5A
  8
SIZE
  6
CONTINUOUS
 62
    30
 10
-711.0000220000001
 20
-268.348399
 30
0.0
 11
-721.0000220000001
 21
-268.348399
 31
0.0
  0
TEXT
  5
A5B
  8
SIZE
  6
CONTINUOUS
 62
    30
 10
-763.357164857143
 20
-258.348399
 30
0.0
 40
30.0
  1
49
 72
     1
 11
-735.5000220000001
 21
-258.348399
 31
0.0
  0
POINT
  5
A5C
  8
DEFPOINTS
  6
CONTINUOUS
 62
    30
 10
-760.0000220000001
 20
0.0
 30
0.0
  0
POINT
  5
A5D
  8
DEFPOINTS
  6
CONTINUOUS
 62
    30
 10
-711.0000220000001
 20
340.000014
 30
0.0
  0
POINT
  5
A5E
  8
DEFPOINTS
  6
CONTINUOUS
 62
    30
 10
-711.0000220000001
 20
-268.348399
 30
0.0
  0
LINE
  5
A5F
  8
SIZE
  6
CONTINUOUS
 62
    30
 10
-1370.000022
 20
0.0
 30
0.0
 11
-1485.272337
 21
0.0
 31
0.0
  0
LINE
  5
A60
  8
SIZE
  6
CONTINUOUS
 62
    30
 10
-1370.000022
 20
2370.000014
 30
0.0
 11
-1485.272337
 21
2370.000014
 31
0.0
  0
LINE
  5
A61
  8
SIZE
  6
CONTINUOUS
 62
    30
 10
-1472.772337
 20
10.0
 30
0.0
 11
-1472.772337
 21
2360.000014
 31
0.0
  0
CIRCLE
  5
A62
  8
SIZE
  6
CONTINUOUS
 62
    30
 10
-1472.772337
 20
0.0
 30
0.0
 40
5.0
  0
LINE
  5
A63
  8
SIZE
  6
CONTINUOUS
 62
    30
 10
-1472.772337
 20
0.0
 30
0.0
 11
-1472.772337
 21
10.0
 31
0.0
  0
CIRCLE
  5
A64
  8
SIZE
  6
CONTINUOUS
 62
    30
 10
-1472.772337
 20
2370.000014
 30
0.0
 40
5.0
  0
LINE
  5
A65
  8
SIZE
  6
CONTINUOUS
 62
    30
 10
-1472.772337
 20
2370.000014
 30
0.0
 11
-1472.772337
 21
2360.000014
 31
0.0
  0
TEXT
  5
A66
  8
SIZE
  6
CONTINUOUS
 62
    30
 10
-1482.772337
 20
1127.857156857143
 30
0.0
 40
30.0
  1
2370
 50
90.0
 72
     1
 11
-1482.772337
 21
1185.000014
 31
0.0
  0
POINT
  5
A67
  8
DEFPOINTS
  6
CONTINUOUS
 62
    30
 10
-1360.000022
 20
0.0
 30
0.0
  0
POINT
  5
A68
  8
DEFPOINTS
  6
CONTINUOUS
 62
    30
 10
-1360.000022
 20
2370.000014
 30
0.0
  0
POINT
  5
A69
  8
DEFPOINTS
  6
CONTINUOUS
 62
    30
 10
-1472.772337
 20
2370.000014
 30
0.0
  0
LINE
  5
A6A
  8
SIZE
  6
CONTINUOUS
 62
    30
 10
-45.999999
 20
0.0
 30
0.0
 11
260.099978
 21
0.0
 31
0.0
  0
LINE
  5
A6B
  8
SIZE
  6
CONTINUOUS
 62
    30
 10
10.0
 20
2170.000014
 30
0.0
 11
260.099978
 21
2170.000014
 31
0.0
  0
LINE
  5
A6C
  8
SIZE
  6
CONTINUOUS
 62
    30
 10
247.599978
 20
10.0
 30
0.0
 11
247.599978
 21
2160.000014
 31
0.0
  0
CIRCLE
  5
A6D
  8
SIZE
  6
CONTINUOUS
 62
    30
 10
247.599978
 20
0.0
 30
0.0
 40
5.0
  0
LINE
  5
A6E
  8
SIZE
  6
CONTINUOUS
 62
    30
 10
247.599978
 20
0.0
 30
0.0
 11
247.599978
 21
10.0
 31
0.0
  0
CIRCLE
  5
A6F
  8
SIZE
  6
CONTINUOUS
 62
    30
 10
247.599978
 20
2170.000014
 30
0.0
 40
5.0
  0
LINE
  5
A70
  8
SIZE
  6
CONTINUOUS
 62
    30
 10
247.599978
 20
2170.000014
 30
0.0
 11
247.599978
 21
2160.000014
 31
0.0
  0
TEXT
  5
A71
  8
SIZE
  6
CONTINUOUS
 62
    30
 10
237.599978
 20
1027.857156857143
 30
0.0
 40
30.0
  1
2170
 50
90.0
 72
     1
 11
237.599978
 21
1085.000014
 31
0.0
  0
POINT
  5
A72
  8
DEFPOINTS
  6
CONTINUOUS
 62
    30
 10
-55.999999
 20
0.0
 30
0.0
  0
POINT
  5
A73
  8
DEFPOINTS
  6
CONTINUOUS
 62
    30
 10
0.0
 20
2170.000014
 30
0.0
  0
POINT
  5
A74
  8
DEFPOINTS
  6
CONTINUOUS
 62
    30
 10
247.599978
 20
2170.000014
 30
0.0
  0
LINE
  5
A75
  8
SIZE
  6
CONTINUOUS
 62
    30
 10
110.000001
 20
2193.000014
 30
0.0
 11
360.099978
 21
2193.000014
 31
0.0
  0
LINE
  5
A76
  8
SIZE
  6
CONTINUOUS
 62
    30
 10
-45.999999
 20
0.0
 30
0.0
 11
360.099978
 21
0.0
 31
0.0
  0
LINE
  5
A77
  8
SIZE
  6
CONTINUOUS
 62
    30
 10
347.599978
 20
2183.000014
 30
0.0
 11
347.599978
 21
10.0
 31
0.0
  0
CIRCLE
  5
A78
  8
SIZE
  6
CONTINUOUS
 62
    30
 10
347.599978
 20
2193.000014
 30
0.0
 40
5.0
  0
LINE
  5
A79
  8
SIZE
  6
CONTINUOUS
 62
    30
 10
347.599978
 20
2193.000014
 30
0.0
 11
347.599978
 21
2183.000014
 31
0.0
  0
CIRCLE
  5
A7A
  8
SIZE
  6
CONTINUOUS
 62
    30
 10
347.599978
 20
0.0
 30
0.0
 40
5.0
  0
LINE
  5
A7B
  8
SIZE
  6
CONTINUOUS
 62
    30
 10
347.599978
 20
0.0
 30
0.0
 11
347.599978
 21
10.0
 31
0.0
  0
TEXT
  5
A7C
  8
SIZE
  6
CONTINUOUS
 62
    30
 10
337.599978
 20
1039.357156857143
 30
0.0
 40
30.0
  1
2193
 50
90.0
 72
     1
 11
337.599978
 21
1096.500014
 31
0.0
  0
POINT
  5
A7D
  8
DEFPOINTS
  6
CONTINUOUS
 62
    30
 10
100.000001
 20
2193.000014
 30
0.0
  0
POINT
  5
A7E
  8
DEFPOINTS
  6
CONTINUOUS
 62
    30
 10
-55.999999
 20
0.0
 30
0.0
  0
POINT
  5
A7F
  8
DEFPOINTS
  6
CONTINUOUS
 62
    30
 10
347.599978
 20
0.0
 30
0.0
  0
LINE
  5
A80
  8
SIZE
  6
CONTINUOUS
 62
    30
 10
-45.999999
 20
0.0
 30
0.0
 11
460.099978
 21
0.0
 31
0.0
  0
LINE
  5
A81
  8
SIZE
  6
CONTINUOUS
 62
    30
 10
90.000001
 20
2215.000014
 30
0.0
 11
460.099978
 21
2215.000014
 31
0.0
  0
LINE
  5
A82
  8
SIZE
  6
CONTINUOUS
 62
    30
 10
447.599978
 20
10.0
 30
0.0
 11
447.599978
 21
2205.000014
 31
0.0
  0
CIRCLE
  5
A83
  8
SIZE
  6
CONTINUOUS
 62
    30
 10
447.599978
 20
0.0
 30
0.0
 40
5.0
  0
LINE
  5
A84
  8
SIZE
  6
CONTINUOUS
 62
    30
 10
447.599978
 20
0.0
 30
0.0
 11
447.599978
 21
10.0
 31
0.0
  0
CIRCLE
  5
A85
  8
SIZE
  6
CONTINUOUS
 62
    30
 10
447.599978
 20
2215.000014
 30
0.0
 40
5.0
  0
LINE
  5
A86
  8
SIZE
  6
CONTINUOUS
 62
    30
 10
447.599978
 20
2215.000014
 30
0.0
 11
447.599978
 21
2205.000014
 31
0.0
  0
TEXT
  5
A87
  8
SIZE
  6
CONTINUOUS
 62
    30
 10
437.599978
 20
1050.357156857143
 30
0.0
 40
30.0
  1
2215
 50
90.0
 72
     1
 11
437.599978
 21
1107.500014
 31
0.0
  0
POINT
  5
A88
  8
DEFPOINTS
  6
CONTINUOUS
 62
    30
 10
-55.999999
 20
0.0
 30
0.0
  0
POINT
  5
A89
  8
DEFPOINTS
  6
CONTINUOUS
 62
    30
 10
80.000001
 20
2215.000014
 30
0.0
  0
POINT
  5
A8A
  8
DEFPOINTS
  6
CONTINUOUS
 62
    30
 10
447.599978
 20
2215.000014
 30
0.0
  0
LINE
  5
A8B
  8
SIZE
  6
CONTINUOUS
 62
    30
 10
-676.0000220000001
 20
0.0
 30
0.0
 11
-985.2722150000001
 21
0.0
 31
0.0
  0
LINE
  5
A8C
  8
SIZE
  6
CONTINUOUS
 62
    30
 10
-616.0000220000001
 20
172.499998
 30
0.0
 11
-985.2722150000001
 21
172.499998
 31
0.0
  0
LINE
  5
A8D
  8
SIZE
  6
CONTINUOUS
 62
    30
 10
-972.7722150000001
 20
10.0
 30
0.0
 11
-972.7722150000001
 21
162.499998
 31
0.0
  0
CIRCLE
  5
A8E
  8
SIZE
  6
CONTINUOUS
 62
    30
 10
-972.7722150000001
 20
0.0
 30
0.0
 40
5.0
  0
LINE
  5
A8F
  8
SIZE
  6
CONTINUOUS
 62
    30
 10
-972.7722150000001
 20
0.0
 30
0.0
 11
-972.7722150000001
 21
10.0
 31
0.0
  0
CIRCLE
  5
A90
  8
SIZE
  6
CONTINUOUS
 62
    30
 10
-972.7722150000001
 20
172.499998
 30
0.0
 40
5.0
  0
LINE
  5
A91
  8
SIZE
  6
CONTINUOUS
 62
    30
 10
-972.7722150000001
 20
172.499998
 30
0.0
 11
-972.7722150000001
 21
162.499998
 31
0.0
  0
TEXT
  5
A92
  8
SIZE
  6
CONTINUOUS
 62
    30
 10
-982.7722150000001
 20
41.24999800000001
 30
0.0
 40
30.0
  1
173
 50
90.0
 72
     1
 11
-982.7722150000001
 21
86.249998
 31
0.0
  0
POINT
  5
A93
  8
DEFPOINTS
  6
CONTINUOUS
 62
    30
 10
-666.0000220000001
 20
0.0
 30
0.0
  0
POINT
  5
A94
  8
DEFPOINTS
  6
CONTINUOUS
 62
    30
 10
-606.0000220000001
 20
172.499998
 30
0.0
  0
POINT
  5
A95
  8
DEFPOINTS
  6
CONTINUOUS
 62
    30
 10
-972.7722150000001
 20
172.499998
 30
0.0
  0
LINE
  5
A96
  8
SIZE
  6
CONTINUOUS
 62
    30
 10
-760.0000220000001
 20
-10.0
 30
0.0
 11
-760.0000220000001
 21
-580.8483990000001
 31
0.0
  0
LINE
  5
A97
  8
SIZE
  6
CONTINUOUS
 62
    30
 10
-650.0000220000001
 20
310.000014
 30
0.0
 11
-650.0000220000001
 21
-580.8483990000001
 31
0.0
  0
LINE
  5
A98
  8
SIZE
  6
CONTINUOUS
 62
    30
 10
-750.0000220000001
 20
-568.3483990000001
 30
0.0
 11
-660.0000220000001
 21
-568.3483990000001
 31
0.0
  0
CIRCLE
  5
A99
  8
SIZE
  6
CONTINUOUS
 62
    30
 10
-760.0000220000001
 20
-568.3483990000001
 30
0.0
 40
5.0
  0
LINE
  5
A9A
  8
SIZE
  6
CONTINUOUS
 62
    30
 10
-760.0000220000001
 20
-568.3483990000001
 30
0.0
 11
-750.0000220000001
 21
-568.3483990000001
 31
0.0
  0
CIRCLE
  5
A9B
  8
SIZE
  6
CONTINUOUS
 62
    30
 10
-650.0000220000001
 20
-568.3483990000001
 30
0.0
 40
5.0
  0
LINE
  5
A9C
  8
SIZE
  6
CONTINUOUS
 62
    30
 10
-650.0000220000001
 20
-568.3483990000001
 30
0.0
 11
-660.0000220000001
 21
-568.3483990000001
 31
0.0
  0
TEXT
  5
A9D
  8
SIZE
  6
CONTINUOUS
 62
    30
 10
-750.0000220000001
 20
-558.3483990000001
 30
0.0
 40
30.0
  1
110
 72
     1
 11
-705.0000220000001
 21
-558.3483990000001
 31
0.0
  0
POINT
  5
A9E
  8
DEFPOINTS
  6
CONTINUOUS
 62
    30
 10
-760.0000220000001
 20
0.0
 30
0.0
  0
POINT
  5
A9F
  8
DEFPOINTS
  6
CONTINUOUS
 62
    30
 10
-650.0000220000001
 20
320.000014
 30
0.0
  0
POINT
  5
AA0
  8
DEFPOINTS
  6
CONTINUOUS
 62
    30
 10
-650.0000220000001
 20
-568.3483990000001
 30
0.0
  0
LINE
  5
AA1
  8
SIZE
  6
CONTINUOUS
 62
    30
 10
-676.0000220000001
 20
0.0
 30
0.0
 11
-1085.272337
 21
0.0
 31
0.0
  0
LINE
  5
AA2
  8
SIZE
  6
CONTINUOUS
 62
    30
 10
-738.0000220000001
 20
320.000014
 30
0.0
 11
-1085.272337
 21
320.000014
 31
0.0
  0
LINE
  5
AA3
  8
SIZE
  6
CONTINUOUS
 62
    30
 10
-1072.772337
 20
10.0
 30
0.0
 11
-1072.772337
 21
310.000014
 31
0.0
  0
CIRCLE
  5
AA4
  8
SIZE
  6
CONTINUOUS
 62
    30
 10
-1072.772337
 20
0.0
 30
0.0
 40
5.0
  0
LINE
  5
AA5
  8
SIZE
  6
CONTINUOUS
 62
    30
 10
-1072.772337
 20
0.0
 30
0.0
 11
-1072.772337
 21
10.0
 31
0.0
  0
CIRCLE
  5
AA6
  8
SIZE
  6
CONTINUOUS
 62
    30
 10
-1072.772337
 20
320.000014
 30
0.0
 40
5.0
  0
LINE
  5
AA7
  8
SIZE
  6
CONTINUOUS
 62
    30
 10
-1072.772337
 20
320.000014
 30
0.0
 11
-1072.772337
 21
310.000014
 31
0.0
  0
TEXT
  5
AA8
  8
SIZE
  6
CONTINUOUS
 62
    30
 10
-1082.772337
 20
117.1428551428571
 30
0.0
 40
30.0
  1
320
 50
90.0
 72
     1
 11
-1082.772337
 21
159.999998
 31
0.0
  0
POINT
  5
AA9
  8
DEFPOINTS
  6
CONTINUOUS
 62
    30
 10
-666.0000220000001
 20
0.0
 30
0.0
  0
POINT
  5
AAA
  8
DEFPOINTS
  6
CONTINUOUS
 62
    30
 10
-728.0000220000001
 20
320.000014
 30
0.0
  0
POINT
  5
AAB
  8
DEFPOINTS
  6
CONTINUOUS
 62
    30
 10
-1072.772337
 20
320.000014
 30
0.0
  0
LINE
  5
AAC
  8
SIZE
  6
CONTINUOUS
 62
    30
 10
-770.0000220000001
 20
0.0
 30
0.0
 11
-1185.272337
 21
0.0
 31
0.0
  0
LINE
  5
AAD
  8
SIZE
  6
CONTINUOUS
 62
    30
 10
-745.0000220000001
 20
360.000014
 30
0.0
 11
-1185.272337
 21
360.000014
 31
0.0
  0
LINE
  5
AAE
  8
SIZE
  6
CONTINUOUS
 62
    30
 10
-1172.772337
 20
10.0
 30
0.0
 11
-1172.772337
 21
350.000014
 31
0.0
  0
CIRCLE
  5
AAF
  8
SIZE
  6
CONTINUOUS
 62
    30
 10
-1172.772337
 20
0.0
 30
0.0
 40
5.0
  0
LINE
  5
AB0
  8
SIZE
  6
CONTINUOUS
 62
    30
 10
-1172.772337
 20
0.0
 30
0.0
 11
-1172.772337
 21
10.0
 31
0.0
  0
CIRCLE
  5
AB1
  8
SIZE
  6
CONTINUOUS
 62
    30
 10
-1172.772337
 20
360.000014
 30
0.0
 40
5.0
  0
LINE
  5
AB2
  8
SIZE
  6
CONTINUOUS
 62
    30
 10
-1172.772337
 20
360.000014
 30
0.0
 11
-1172.772337
 21
350.000014
 31
0.0
  0
TEXT
  5
AB3
  8
SIZE
  6
CONTINUOUS
 62
    30
 10
-1182.772337
 20
137.1428551428571
 30
0.0
 40
30.0
  1
360
 50
90.0
 72
     1
 11
-1182.772337
 21
179.999998
 31
0.0
  0
POINT
  5
AB4
  8
DEFPOINTS
  6
CONTINUOUS
 62
    30
 10
-760.0000220000001
 20
0.0
 30
0.0
  0
POINT
  5
AB5
  8
DEFPOINTS
  6
CONTINUOUS
 62
    30
 10
-735.0000220000001
 20
360.000014
 30
0.0
  0
POINT
  5
AB6
  8
DEFPOINTS
  6
CONTINUOUS
 62
    30
 10
-1172.772337
 20
360.000014
 30
0.0
  0
LINE
  5
AB7
  8
SIZE
  6
CONTINUOUS
 62
    30
 10
-656.0000220000001
 20
0.0
 30
0.0
 11
-425.402097
 21
0.0
 31
0.0
  0
LINE
  5
AB8
  8
SIZE
  6
CONTINUOUS
 62
    30
 10
-566.0000220000001
 20
154.999998
 30
0.0
 11
-425.402097
 21
154.999998
 31
0.0
  0
LINE
  5
AB9
  8
SIZE
  6
CONTINUOUS
 62
    30
 10
-437.902097
 20
10.0
 30
0.0
 11
-437.902097
 21
144.999998
 31
0.0
  0
CIRCLE
  5
ABA
  8
SIZE
  6
CONTINUOUS
 62
    30
 10
-437.902097
 20
0.0
 30
0.0
 40
5.0
  0
LINE
  5
ABB
  8
SIZE
  6
CONTINUOUS
 62
    30
 10
-437.902097
 20
0.0
 30
0.0
 11
-437.902097
 21
10.0
 31
0.0
  0
CIRCLE
  5
ABC
  8
SIZE
  6
CONTINUOUS
 62
    30
 10
-437.902097
 20
154.999998
 30
0.0
 40
5.0
  0
LINE
  5
ABD
  8
SIZE
  6
CONTINUOUS
 62
    30
 10
-437.902097
 20
154.999998
 30
0.0
 11
-437.902097
 21
144.999998
 31
0.0
  0
TEXT
  5
ABE
  8
SIZE
  6
CONTINUOUS
 62
    30
 10
-447.902097
 20
32.49999800000001
 30
0.0
 40
30.0
  1
155
 50
90.0
 72
     1
 11
-447.902097
 21
77.499998
 31
0.0
  0
POINT
  5
ABF
  8
DEFPOINTS
  6
CONTINUOUS
 62
    30
 10
-666.0000220000001
 20
0.0
 30
0.0
  0
POINT
  5
AC0
  8
DEFPOINTS
  6
CONTINUOUS
 62
    30
 10
-576.0000220000001
 20
154.999998
 30
0.0
  0
POINT
  5
AC1
  8
DEFPOINTS
  6
CONTINUOUS
 62
    30
 10
-437.902097
 20
154.999998
 30
0.0
  0
LINE
  5
AC2
  8
SIZE
  6
CONTINUOUS
 62
    30
 10
-760.0000220000001
 20
10.0
 30
0.0
 11
-760.0000220000001
 21
718.08434
 31
0.0
  0
LINE
  5
AC3
  8
SIZE
  6
CONTINUOUS
 62
    30
 10
-650.0000220000001
 20
410.000014
 30
0.0
 11
-650.0000220000001
 21
718.08434
 31
0.0
  0
LINE
  5
AC4
  8
SIZE
  6
CONTINUOUS
 62
    30
 10
-660.0000220000001
 20
705.58434
 30
0.0
 11
-750.0000220000001
 21
705.58434
 31
0.0
  0
LINE
  5
AC5
  8
SIZE
  6
CONTINUOUS
 62
    30
 10
-760.0000220000001
 20
705.58434
 30
0.0
 11
-918.5341440000001
 21
705.58434
 31
0.0
  0
CIRCLE
  5
AC6
  8
SIZE
  6
CONTINUOUS
 62
    30
 10
-650.0000220000001
 20
705.58434
 30
0.0
 40
5.0
  0
LINE
  5
AC7
  8
SIZE
  6
CONTINUOUS
 62
    30
 10
-650.0000220000001
 20
705.58434
 30
0.0
 11
-660.0000220000001
 21
705.58434
 31
0.0
  0
CIRCLE
  5
AC8
  8
SIZE
  6
CONTINUOUS
 62
    30
 10
-760.0000220000001
 20
705.58434
 30
0.0
 40
5.0
  0
LINE
  5
AC9
  8
SIZE
  6
CONTINUOUS
 62
    30
 10
-760.0000220000001
 20
705.58434
 30
0.0
 11
-750.0000220000001
 21
705.58434
 31
0.0
  0
TEXT
  5
ACA
  8
SIZE
  6
CONTINUOUS
 62
    30
 10
-926.0341440000001
 20
715.58434
 30
0.0
 40
30.0
  1
110
 72
     1
 11
-881.0341440000001
 21
715.58434
 31
0.0
  0
POINT
  5
ACB
  8
DEFPOINTS
  6
CONTINUOUS
 62
    30
 10
-760.0000220000001
 20
0.0
 30
0.0
  0
POINT
  5
ACC
  8
DEFPOINTS
  6
CONTINUOUS
 62
    30
 10
-650.0000220000001
 20
400.000014
 30
0.0
  0
POINT
  5
ACD
  8
DEFPOINTS
  6
CONTINUOUS
 62
    30
 10
-650.0000220000001
 20
705.58434
 30
0.0
  0
LINE
  5
ACE
  8
SIZE
  6
CONTINUOUS
 62
    30
 10
-770.0000220000001
 20
0.0
 30
0.0
 11
-1285.272337
 21
0.0
 31
0.0
  0
LINE
  5
ACF
  8
SIZE
  6
CONTINUOUS
 62
    30
 10
-764.0000220000001
 20
400.000014
 30
0.0
 11
-1285.272337
 21
400.000014
 31
0.0
  0
LINE
  5
AD0
  8
SIZE
  6
CONTINUOUS
 62
    30
 10
-1272.772337
 20
10.0
 30
0.0
 11
-1272.772337
 21
390.000014
 31
0.0
  0
CIRCLE
  5
AD1
  8
SIZE
  6
CONTINUOUS
 62
    30
 10
-1272.772337
 20
0.0
 30
0.0
 40
5.0
  0
LINE
  5
AD2
  8
SIZE
  6
CONTINUOUS
 62
    30
 10
-1272.772337
 20
0.0
 30
0.0
 11
-1272.772337
 21
10.0
 31
0.0
  0
CIRCLE
  5
AD3
  8
SIZE
  6
CONTINUOUS
 62
    30
 10
-1272.772337
 20
400.000014
 30
0.0
 40
5.0
  0
LINE
  5
AD4
  8
SIZE
  6
CONTINUOUS
 62
    30
 10
-1272.772337
 20
400.000014
 30
0.0
 11
-1272.772337
 21
390.000014
 31
0.0
  0
TEXT
  5
AD5
  8
SIZE
  6
CONTINUOUS
 62
    30
 10
-1282.772337
 20
157.1428551428571
 30
0.0
 40
30.0
  1
400
 50
90.0
 72
     1
 11
-1282.772337
 21
199.999998
 31
0.0
  0
POINT
  5
AD6
  8
DEFPOINTS
  6
CONTINUOUS
 62
    30
 10
-760.0000220000001
 20
0.0
 30
0.0
  0
POINT
  5
AD7
  8
DEFPOINTS
  6
CONTINUOUS
 62
    30
 10
-754.0000220000001
 20
400.000014
 30
0.0
  0
POINT
  5
AD8
  8
DEFPOINTS
  6
CONTINUOUS
 62
    30
 10
-1272.772337
 20
400.000014
 30
0.0
  0
LINE
  5
AD9
  8
SIZE
  6
CONTINUOUS
 62
    30
 10
9.999993
 20
199.999998
 30
0.0
 11
160.099978
 21
199.999998
 31
0.0
  0
LINE
  5
ADA
  8
SIZE
  6
CONTINUOUS
 62
    30
 10
-45.999992
 20
0.0
 30
0.0
 11
160.099978
 21
0.0
 31
0.0
  0
LINE
  5
ADB
  8
SIZE
  6
CONTINUOUS
 62
    30
 10
147.599978
 20
189.999998
 30
0.0
 11
147.599978
 21
10.0
 31
0.0
  0
CIRCLE
  5
ADC
  8
SIZE
  6
CONTINUOUS
 62
    30
 10
147.599978
 20
199.999998
 30
0.0
 40
5.0
  0
LINE
  5
ADD
  8
SIZE
  6
CONTINUOUS
 62
    30
 10
147.599978
 20
199.999998
 30
0.0
 11
147.599978
 21
189.999998
 31
0.0
  0
CIRCLE
  5
ADE
  8
SIZE
  6
CONTINUOUS
 62
    30
 10
147.599978
 20
0.0
 30
0.0
 40
5.0
  0
LINE
  5
ADF
  8
SIZE
  6
CONTINUOUS
 62
    30
 10
147.599978
 20
0.0
 30
0.0
 11
147.599978
 21
10.0
 31
0.0
  0
TEXT
  5
AE0
  8
SIZE
  6
CONTINUOUS
 62
    30
 10
137.599978
 20
57.14285514285714
 30
0.0
 40
30.0
  1
200
 50
90.0
 72
     1
 11
137.599978
 21
99.999998
 31
0.0
  0
POINT
  5
AE1
  8
DEFPOINTS
  6
CONTINUOUS
 62
    30
 10
-0.000007
 20
199.999998
 30
0.0
  0
POINT
  5
AE2
  8
DEFPOINTS
  6
CONTINUOUS
 62
    30
 10
-55.999992
 20
0.0
 30
0.0
  0
POINT
  5
AE3
  8
DEFPOINTS
  6
CONTINUOUS
 62
    30
 10
147.599978
 20
0.0
 30
0.0
  0
LINE
  5
AE4
  8
SIZE
  6
CONTINUOUS
 62
    30
 10
-646.0000220000001
 20
-30.0
 30
0.0
 11
-646.0000220000001
 21
-880.8483990000001
 31
0.0
  0
LINE
  5
AE5
  8
SIZE
  6
CONTINUOUS
 62
    30
 10
-75.99999199999999
 20
-30.0
 30
0.0
 11
-75.99999199999999
 21
-880.8483990000001
 31
0.0
  0
LINE
  5
AE6
  8
SIZE
  6
CONTINUOUS
 62
    30
 10
-636.0000220000001
 20
-868.3483990000001
 30
0.0
 11
-85.99999199999999
 21
-868.3483990000001
 31
0.0
  0
CIRCLE
  5
AE7
  8
SIZE
  6
CONTINUOUS
 62
    30
 10
-646.0000220000001
 20
-868.3483990000001
 30
0.0
 40
5.0
  0
LINE
  5
AE8
  8
SIZE
  6
CONTINUOUS
 62
    30
 10
-646.0000220000001
 20
-868.3483990000001
 30
0.0
 11
-636.0000220000001
 21
-868.3483990000001
 31
0.0
  0
CIRCLE
  5
AE9
  8
SIZE
  6
CONTINUOUS
 62
    30
 10
-75.99999199999999
 20
-868.3483990000001
 30
0.0
 40
5.0
  0
LINE
  5
AEA
  8
SIZE
  6
CONTINUOUS
 62
    30
 10
-75.99999199999999
 20
-868.3483990000001
 30
0.0
 11
-85.99999199999999
 21
-868.3483990000001
 31
0.0
  0
TEXT
  5
AEB
  8
SIZE
  6
CONTINUOUS
 62
    30
 10
-403.8571648571428
 20
-858.3483990000001
 30
0.0
 40
30.0
  1
570
 72
     1
 11
-361.000022
 21
-858.3483990000001
 31
0.0
  0
POINT
  5
AEC
  8
DEFPOINTS
  6
CONTINUOUS
 62
    30
 10
-646.0000220000001
 20
-20.0
 30
0.0
  0
POINT
  5
AED
  8
DEFPOINTS
  6
CONTINUOUS
 62
    30
 10
-75.99999199999999
 20
-20.0
 30
0.0
  0
POINT
  5
AEE
  8
DEFPOINTS
  6
CONTINUOUS
 62
    30
 10
-75.99999199999999
 20
-868.3483990000001
 30
0.0
  0
LINE
  5
AEF
  8
SIZE
  6
CONTINUOUS
 62
    30
 10
-646.0000220000001
 20
-30.0
 30
0.0
 11
-646.0000220000001
 21
-980.8483990000001
 31
0.0
  0
LINE
  5
AF0
  8
SIZE
  6
CONTINUOUS
 62
    30
 10
-111.999992
 20
-30.0
 30
0.0
 11
-111.999992
 21
-980.8483990000001
 31
0.0
  0
LINE
  5
AF1
  8
SIZE
  6
CONTINUOUS
 62
    30
 10
-636.0000220000001
 20
-968.3483990000001
 30
0.0
 11
-121.999992
 21
-968.3483990000001
 31
0.0
  0
CIRCLE
  5
AF2
  8
SIZE
  6
CONTINUOUS
 62
    30
 10
-646.0000220000001
 20
-968.3483990000001
 30
0.0
 40
5.0
  0
LINE
  5
AF3
  8
SIZE
  6
CONTINUOUS
 62
    30
 10
-646.0000220000001
 20
-968.3483990000001
 30
0.0
 11
-636.0000220000001
 21
-968.3483990000001
 31
0.0
  0
CIRCLE
  5
AF4
  8
SIZE
  6
CONTINUOUS
 62
    30
 10
-111.999992
 20
-968.3483990000001
 30
0.0
 40
5.0
  0
LINE
  5
AF5
  8
SIZE
  6
CONTINUOUS
 62
    30
 10
-111.999992
 20
-968.3483990000001
 30
0.0
 11
-121.999992
 21
-968.3483990000001
 31
0.0
  0
TEXT
  5
AF6
  8
SIZE
  6
CONTINUOUS
 62
    30
 10
-402.9473665714286
 20
-958.3483990000001
 30
0.0
 40
30.0
  1
534
 72
     1
 11
-359.375938
 21
-958.3483990000001
 31
0.0
  0
POINT
  5
AF7
  8
DEFPOINTS
  6
CONTINUOUS
 62
    30
 10
-646.0000220000001
 20
-20.0
 30
0.0
  0
POINT
  5
AF8
  8
DEFPOINTS
  6
CONTINUOUS
 62
    30
 10
-111.999992
 20
-20.0
 30
0.0
  0
POINT
  5
AF9
  8
DEFPOINTS
  6
CONTINUOUS
 62
    30
 10
-111.999992
 20
-968.3483990000001
 30
0.0
  0
LINE
  5
AFA
  8
SIZE
  6
CONTINUOUS
 62
    30
 10
-0.000007
 20
2380.000014
 30
0.0
 11
-0.000007
 21
2534.900014
 31
0.0
  0
LINE
  5
AFB
  8
SIZE
  6
CONTINUOUS
 62
    30
 10
79.999993
 20
2225.000014
 30
0.0
 11
79.999993
 21
2534.900014
 31
0.0
  0
LINE
  5
AFC
  8
SIZE
  6
CONTINUOUS
 62
    30
 10
9.999993
 20
2522.400014
 30
0.0
 11
69.999993
 21
2522.400014
 31
0.0
  0
LINE
  5
AFD
  8
SIZE
  6
CONTINUOUS
 62
    30
 10
79.999993
 20
2522.400014
 30
0.0
 11
191.153664
 21
2522.400014
 31
0.0
  0
CIRCLE
  5
AFE
  8
SIZE
  6
CONTINUOUS
 62
    30
 10
-0.000007
 20
2522.400014
 30
0.0
 40
5.0
  0
LINE
  5
AFF
  8
SIZE
  6
CONTINUOUS
 62
    30
 10
-0.000007
 20
2522.400014
 30
0.0
 11
9.999993
 21
2522.400014
 31
0.0
  0
CIRCLE
  5
B00
  8
SIZE
  6
CONTINUOUS
 62
    30
 10
79.999993
 20
2522.400014
 30
0.0
 40
5.0
  0
LINE
  5
B01
  8
SIZE
  6
CONTINUOUS
 62
    30
 10
79.999993
 20
2522.400014
 30
0.0
 11
69.999993
 21
2522.400014
 31
0.0
  0
TEXT
  5
B02
  8
SIZE
  6
CONTINUOUS
 62
    30
 10
130.0822354285714
 20
2532.400014
 30
0.0
 40
30.0
  1
80
 72
     1
 11
158.653664
 21
2532.400014
 31
0.0
  0
POINT
  5
B03
  8
DEFPOINTS
  6
CONTINUOUS
 62
    30
 10
-0.000007
 20
2370.000014
 30
0.0
  0
POINT
  5
B04
  8
DEFPOINTS
  6
CONTINUOUS
 62
    30
 10
79.999993
 20
2215.000014
 30
0.0
  0
POINT
  5
B05
  8
DEFPOINTS
  6
CONTINUOUS
 62
    30
 10
79.999993
 20
2522.400014
 30
0.0
  0
LINE
  5
B06
  8
SIZE
  6
CONTINUOUS
 62
    30
 10
-760.0000220000001
 20
2380.000014
 30
0.0
 11
-760.0000220000001
 21
2534.900014
 31
0.0
  0
LINE
  5
B07
  8
SIZE
  6
CONTINUOUS
 62
    30
 10
-0.000007
 20
2380.000014
 30
0.0
 11
-0.000007
 21
2534.900014
 31
0.0
  0
LINE
  5
B08
  8
SIZE
  6
CONTINUOUS
 62
    30
 10
-750.0000220000001
 20
2522.400014
 30
0.0
 11
-10.000007
 21
2522.400014
 31
0.0
  0
CIRCLE
  5
B09
  8
SIZE
  6
CONTINUOUS
 62
    30
 10
-760.0000220000001
 20
2522.400014
 30
0.0
 40
5.0
  0
LINE
  5
B0A
  8
SIZE
  6
CONTINUOUS
 62
    30
 10
-760.0000220000001
 20
2522.400014
 30
0.0
 11
-750.0000220000001
 21
2522.400014
 31
0.0
  0
CIRCLE
  5
B0B
  8
SIZE
  6
CONTINUOUS
 62
    30
 10
-0.000007
 20
2522.400014
 30
0.0
 40
5.0
  0
LINE
  5
B0C
  8
SIZE
  6
CONTINUOUS
 62
    30
 10
-0.000007
 20
2522.400014
 30
0.0
 11
-10.000007
 21
2522.400014
 31
0.0
  0
TEXT
  5
B0D
  8
SIZE
  6
CONTINUOUS
 62
    30
 10
-422.8571648571428
 20
2532.400014
 30
0.0
 40
30.0
  1
760
 72
     1
 11
-380.000022
 21
2532.400014
 31
0.0
  0
POINT
  5
B0E
  8
DEFPOINTS
  6
CONTINUOUS
 62
    30
 10
-760.0000220000001
 20
2370.000014
 30
0.0
  0
POINT
  5
B0F
  8
DEFPOINTS
  6
CONTINUOUS
 62
    30
 10
-0.000007
 20
2370.000014
 30
0.0
  0
POINT
  5
B10
  8
DEFPOINTS
  6
CONTINUOUS
 62
    30
 10
-0.000007
 20
2522.400014
 30
0.0
  0
LINE
  5
B11
  8
SIZE
  6
CONTINUOUS
 62
    30
 10
-760.0000220000001
 20
2380.000014
 30
0.0
 11
-760.0000220000001
 21
2534.900014
 31
0.0
  0
LINE
  5
B12
  8
SIZE
  6
CONTINUOUS
 62
    30
 10
-1360.000022
 20
2380.000014
 30
0.0
 11
-1360.000022
 21
2534.900014
 31
0.0
  0
LINE
  5
B13
  8
SIZE
  6
CONTINUOUS
 62
    30
 10
-770.0000220000001
 20
2522.400014
 30
0.0
 11
-1350.000022
 21
2522.400014
 31
0.0
  0
CIRCLE
  5
B14
  8
SIZE
  6
CONTINUOUS
 62
    30
 10
-760.0000220000001
 20
2522.400014
 30
0.0
 40
5.0
  0
LINE
  5
B15
  8
SIZE
  6
CONTINUOUS
 62
    30
 10
-760.0000220000001
 20
2522.400014
 30
0.0
 11
-770.0000220000001
 21
2522.400014
 31
0.0
  0
CIRCLE
  5
B16
  8
SIZE
  6
CONTINUOUS
 62
    30
 10
-1360.000022
 20
2522.400014
 30
0.0
 40
5.0
  0
LINE
  5
B17
  8
SIZE
  6
CONTINUOUS
 62
    30
 10
-1360.000022
 20
2522.400014
 30
0.0
 11
-1350.000022
 21
2522.400014
 31
0.0
  0
TEXT
  5
B18
  8
SIZE
  6
CONTINUOUS
 62
    30
 10
-1103.571450571429
 20
2532.400014
 30
0.0
 40
30.0
  1
600
 72
     1
 11
-1060.000022
 21
2532.400014
 31
0.0
  0
POINT
  5
B19
  8
DEFPOINTS
  6
CONTINUOUS
 62
    30
 10
-760.0000220000001
 20
2370.000014
 30
0.0
  0
POINT
  5
B1A
  8
DEFPOINTS
  6
CONTINUOUS
 62
    30
 10
-1360.000022
 20
2370.000014
 30
0.0
  0
POINT
  5
B1B
  8
DEFPOINTS
  6
CONTINUOUS
 62
    30
 10
-1360.000022
 20
2522.400014
 30
0.0
  0
LINE
  5
B1C
  8
SIZE
  6
CONTINUOUS
 62
    30
 10
9.999993
 20
2370.000014
 30
0.0
 11
260.099978
 21
2370.000014
 31
0.0
  0
LINE
  5
B1D
  8
SIZE
  6
CONTINUOUS
 62
    30
 10
9.999993
 20
2170.000014
 30
0.0
 11
260.099978
 21
2170.000014
 31
0.0
  0
LINE
  5
B1E
  8
SIZE
  6
CONTINUOUS
 62
    30
 10
247.599978
 20
2360.000014
 30
0.0
 11
247.599978
 21
2180.000014
 31
0.0
  0
CIRCLE
  5
B1F
  8
SIZE
  6
CONTINUOUS
 62
    30
 10
247.599978
 20
2370.000014
 30
0.0
 40
5.0
  0
LINE
  5
B20
  8
SIZE
  6
CONTINUOUS
 62
    30
 10
247.599978
 20
2370.000014
 30
0.0
 11
247.599978
 21
2360.000014
 31
0.0
  0
CIRCLE
  5
B21
  8
SIZE
  6
CONTINUOUS
 62
    30
 10
247.599978
 20
2170.000014
 30
0.0
 40
5.0
  0
LINE
  5
B22
  8
SIZE
  6
CONTINUOUS
 62
    30
 10
247.599978
 20
2170.000014
 30
0.0
 11
247.599978
 21
2180.000014
 31
0.0
  0
TEXT
  5
B23
  8
SIZE
  6
CONTINUOUS
 62
    30
 10
237.599978
 20
2227.142871142857
 30
0.0
 40
30.0
  1
200
 50
90.0
 72
     1
 11
237.599978
 21
2270.000014
 31
0.0
  0
POINT
  5
B24
  8
DEFPOINTS
  6
CONTINUOUS
 62
    30
 10
-0.000007
 20
2370.000014
 30
0.0
  0
POINT
  5
B25
  8
DEFPOINTS
  6
CONTINUOUS
 62
    30
 10
-0.000007
 20
2170.000014
 30
0.0
  0
POINT
  5
B26
  8
DEFPOINTS
  6
CONTINUOUS
 62
    30
 10
247.599978
 20
2170.000014
 30
0.0
  0
LINE
  5
B27
  8
NOTE
  6
CONTINUOUS
 10
-714.7
 20
360.0
 30
0.0
 11
-721.6
 21
360.0
 31
0.0
  0
LINE
  5
B28
  8
NOTE
  6
CONTINUOUS
 10
-714.7
 20
400.0
 30
0.0
 11
-726.0
 21
400.0
 31
0.0
  0
LINE
  5
B29
  8
NOTE
  6
CONTINUOUS
 10
-711.0
 20
340.0
 30
0.0
 11
-711.0
 21
380.0
 31
0.0
  0
LINE
  5
B2A
  8
NOTE
  6
CONTINUOUS
 10
-700.4000000000001
 20
360.0
 30
0.0
 11
-714.7
 21
360.0
 31
0.0
  0
LINE
  5
B2B
  8
NOTE
  6
CONTINUOUS
 10
-704.4000000000001
 20
400.0
 30
0.0
 11
-714.7
 21
400.0
 31
0.0
  0
LINE
  5
B2C
  8
NOTE
  6
CONTINUOUS
 10
-696.0
 20
360.0
 30
0.0
 11
-704.4000000000001
 21
360.0
 31
0.0
  0
LINE
  5
B2D
  8
NOTE
  6
CONTINUOUS
 10
-707.0
 20
380.0
 30
0.0
 11
-707.0
 21
420.0
 31
0.0
  0
LINE
  5
B2E
  8
NOTE
  6
CONTINUOUS
 10
-686.0
 20
400.0
 30
0.0
 11
-704.4000000000001
 21
400.0
 31
0.0
  0
LINE
  5
B2F
  8
NOTE
  6
CONTINUOUS
 10
-160.050025
 20
800.000014
 30
0.0
 11
-494.000022
 21
800.000014
 31
0.0
  0
LINE
  5
B30
  8
NOTE
  6
CONTINUOUS
 10
-494.000022
 20
800.000014
 30
0.0
 11
-711.0000220000001
 21
360.000014
 31
0.0
  0
LINE
  5
B31
  8
NOTE
  6
CONTINUOUS
 10
-711.0000220000001
 20
360.000014
 30
0.0
 11
-710.6097840000001
 21
361.961573
 31
0.0
  0
LINE
  5
B32
  8
NOTE
  6
CONTINUOUS
 10
-711.0000220000001
 20
360.000014
 30
0.0
 11
-709.6812870000001
 21
361.503655
 31
0.0
  0
TEXT
  5
B33
  8
NOTE
  6
CONTINUOUS
 10
-445.55001
 20
801.000014
 30
0.0
 40
40.0
  1
BH R1/2(φ21.7)
 50
359.9999959954467
 41
0.517754
  7
STANDARD1
  0
LINE
  5
B34
  8
NOTE
  6
CONTINUOUS
 10
-145.550025
 20
700.000014
 30
0.0
 11
-499.000022
 21
700.000014
 31
0.0
  0
LINE
  5
B35
  8
NOTE
  6
CONTINUOUS
 10
-499.000022
 20
700.000014
 30
0.0
 11
-711.0000220000001
 21
360.000014
 31
0.0
  0
LINE
  5
B36
  8
NOTE
  6
CONTINUOUS
 10
-711.0000220000001
 20
360.000014
 30
0.0
 11
-710.4171230000001
 21
361.913186
 31
0.0
  0
LINE
  5
B37
  8
NOTE
  6
CONTINUOUS
 10
-711.0000220000001
 20
360.000014
 30
0.0
 11
-709.538631
 21
361.36542
 31
0.0
  0
TEXT
  5
B38
  8
NOTE
  6
CONTINUOUS
 10
-450.55001
 20
701.000014
 30
0.0
 40
40.0
  1
BHR R1/2(φ21.7)
 50
359.9999959954467
 41
0.515709
  7
STANDARD1
  0
TEXT
  5
B39
  8
NOTE
  6
CONTINUOUS
 10
-587.8756330000001
 20
2467.54518
 30
0.0
 40
39.99999999999999
  1
メンテナンススペース
 50
0.0000029575586669
 41
0.6729170000000001
  7
STANDARD1
  0
LINE
  5
B3A
  8
NOTE
  6
CONTINUOUS
 10
637.934853
 20
2018.200087
 30
0.0
 11
433.784829
 21
2018.200087
 31
0.0
  0
LINE
  5
B3B
  8
NOTE
  6
CONTINUOUS
 10
433.784829
 20
2018.200087
 30
0.0
 11
79.999993
 21
2193.000014
 31
0.0
  0
LINE
  5
B3C
  8
NOTE
  6
CONTINUOUS
 10
79.999993
 20
2193.000014
 30
0.0
 11
81.961268
 21
2192.608351
 31
0.0
  0
LINE
  5
B3D
  8
NOTE
  6
CONTINUOUS
 10
79.999993
 20
2193.000014
 30
0.0
 11
81.502675
 21
2191.680186
 31
0.0
  0
TEXT
  5
B3E
  8
NOTE
  6
CONTINUOUS
 10
482.234841
 20
2019.200087
 30
0.0
 40
39.99999999999999
  1
AH 2-M10
 50
0.0000029575586669
 41
0.513158
  7
STANDARD1
  0
LINE
  5
B3F
  8
NOTE
  6
CONTINUOUS
 10
-1237.875144
 20
-458.999986
 30
0.0
 11
-903.925193
 21
-458.999986
 31
0.0
  0
LINE
  5
B40
  8
NOTE
  6
CONTINUOUS
 10
-903.925193
 20
-458.999986
 30
0.0
 11
-556.0000220000001
 21
154.999998
 31
0.0
  0
LINE
  5
B41
  8
NOTE
  6
CONTINUOUS
 10
-556.0000220000001
 20
154.999998
 30
0.0
 11
-556.5020730000001
 21
153.064037
 31
0.0
  0
LINE
  5
B42
  8
NOTE
  6
CONTINUOUS
 10
-556.0000220000001
 20
154.999998
 30
0.0
 11
-557.4027920000001
 21
153.574433
 31
0.0
  0
TEXT
  5
B43
  8
NOTE
  6
CONTINUOUS
 10
-1237.875144
 20
-457.999986
 30
0.0
 40
39.99999999999999
  1
WD R3/4(φ27.2)
 50
0.0000029575586669
 41
0.5177540000000002
  7
STANDARD1
  0
LINE
  5
B44
  8
NOTE
  6
CONTINUOUS
 10
-340.415
 20
447.638808
 30
0.0
 11
-498.865013
 21
447.638808
 31
0.0
  0
LINE
  5
B45
  8
NOTE
  6
CONTINUOUS
 10
-498.865013
 20
447.638808
 30
0.0
 11
-586.0000220000001
 21
172.499998
 31
0.0
  0
LINE
  5
B46
  8
NOTE
  6
CONTINUOUS
 10
-586.0000220000001
 20
172.499998
 30
0.0
 11
-585.910248
 21
174.497983
 31
0.0
  0
LINE
  5
B47
  8
NOTE
  6
CONTINUOUS
 10
-586.0000220000001
 20
172.499998
 30
0.0
 11
-584.9232830000001
 21
174.185416
 31
0.0
  0
TEXT
  5
B48
  8
NOTE
  6
CONTINUOUS
 10
-450.415
 20
448.638808
 30
0.0
 40
40.0
  1
D φ18
 50
359.9999959954467
 41
0.574479
  7
STANDARD1
  0
LINE
  5
B49
  8
NOTE
  6
CONTINUOUS
 10
-688.0
 20
320.0
 30
0.0
 11
-728.0
 21
320.0
 31
0.0
  0
LINE
  5
B4A
  8
NOTE
  6
CONTINUOUS
 10
-536.0
 20
155.0
 30
0.0
 11
-576.0
 21
155.0
 31
0.0
  0
LINE
  5
B4B
  8
NOTE
  6
CONTINUOUS
 10
-556.0
 20
135.0
 30
0.0
 11
-556.0
 21
175.0
 31
0.0
  0
LINE
  5
B4C
  8
NOTE
  6
CONTINUOUS
 10
-56.0
 20
0.0
 30
0.0
 11
-96.0
 21
0.0
 31
0.0
  0
LINE
  5
B4D
  8
NOTE
  6
CONTINUOUS
 10
-76.0
 20
-20.0
 30
0.0
 11
-76.0
 21
20.0
 31
0.0
  0
LINE
  5
B4E
  8
NOTE
  6
CONTINUOUS
 10
-92.0
 20
0.0
 30
0.0
 11
-132.0
 21
0.0
 31
0.0
  0
LINE
  5
B4F
  8
NOTE
  6
CONTINUOUS
 10
-112.0
 20
-20.0
 30
0.0
 11
-112.0
 21
20.0
 31
0.0
  0
LINE
  5
B50
  8
NOTE
  6
CONTINUOUS
 10
-626.0
 20
0.0
 30
0.0
 11
-666.0
 21
0.0
 31
0.0
  0
LINE
  5
B51
  8
NOTE
  6
CONTINUOUS
 10
-646.0
 20
-20.0
 30
0.0
 11
-646.0
 21
20.0
 31
0.0
  0
LINE
  5
B52
  8
NOTE
  6
CONTINUOUS
 10
100.0
 20
2193.0
 30
0.0
 11
60.0
 21
2193.0
 31
0.0
  0
LINE
  5
B53
  8
NOTE
  6
CONTINUOUS
 10
80.0
 20
2173.0
 30
0.0
 11
80.0
 21
2213.0
 31
0.0
  0
LINE
  5
B54
  8
NOTE
  6
CONTINUOUS
 10
-344.761192
 20
300.000014
 30
0.0
 11
-135.111198
 21
300.000014
 31
0.0
  0
LINE
  5
B55
  8
NOTE
  6
CONTINUOUS
 10
-135.111198
 20
300.000014
 30
0.0
 11
-85.99999199999999
 21
18.0
 31
0.0
  0
LINE
  5
B56
  8
NOTE
  6
CONTINUOUS
 10
-85.99999199999999
 20
18.0
 30
0.0
 11
-86.841404
 21
19.814394
 31
0.0
  0
LINE
  5
B57
  8
NOTE
  6
CONTINUOUS
 10
-85.99999199999999
 20
18.0
 30
0.0
 11
-85.821479
 21
19.992018
 31
0.0
  0
TEXT
  5
B58
  8
NOTE
  6
CONTINUOUS
 10
-344.761192
 20
301.000014
 30
0.0
 40
40.0
  1
脚固定金具
 50
359.9999960875177
 41
0.672917
  7
STANDARD1
  0
LINE
  5
B59
  8
NOTE
  6
CONTINUOUS
 10
-282.05001
 20
1000.000014
 30
0.0
 11
-499.000022
 21
1000.000014
 31
0.0
  0
LINE
  5
B5A
  8
NOTE
  6
CONTINUOUS
 10
-499.000022
 20
1000.000014
 30
0.0
 11
-716.0000220000001
 21
400.000014
 31
0.0
  0
LINE
  5
B5B
  8
NOTE
  6
CONTINUOUS
 10
-716.0000220000001
 20
400.000014
 30
0.0
 11
-715.8297670000001
 21
401.992754
 31
0.0
  0
LINE
  5
B5C
  8
NOTE
  6
CONTINUOUS
 10
-716.0000220000001
 20
400.000014
 30
0.0
 11
-714.856207
 21
401.640649
 31
0.0
  0
TEXT
  5
B5D
  8
NOTE
  6
CONTINUOUS
 10
-450.55001
 20
1001.000014
 30
0.0
 40
39.99999999999999
  1
CL φ32.5
 50
0.0000029575586669
 41
0.5410260000000001
  7
STANDARD1
  0
LINE
  5
B5E
  8
NOTE
  6
CONTINUOUS
 10
-249.750022
 20
900.000014
 30
0.0
 11
-499.000022
 21
900.000014
 31
0.0
  0
LINE
  5
B5F
  8
NOTE
  6
CONTINUOUS
 10
-499.000022
 20
900.000014
 30
0.0
 11
-707.0000220000001
 21
400.000014
 31
0.0
  0
LINE
  5
B60
  8
NOTE
  6
CONTINUOUS
 10
-707.0000220000001
 20
400.000014
 30
0.0
 11
-706.735949
 21
401.982503
 31
0.0
  0
LINE
  5
B61
  8
NOTE
  6
CONTINUOUS
 10
-707.0000220000001
 20
400.000014
 30
0.0
 11
-705.7800830000001
 21
401.584863
 31
0.0
  0
TEXT
  5
B62
  8
NOTE
  6
CONTINUOUS
 10
-450.55001
 20
901.000014
 30
0.0
 40
39.99999999999999
  1
EL φ49×59
 50
0.0000030783246592
 41
0.5586110000000001
  7
STANDARD1
  0
LINE
  5
B63
  8
NOTE
  6
CONTINUOUS
 10
-1237.875144
 20
-278.999986
 30
0.0
 11
-903.925193
 21
-278.999986
 31
0.0
  0
LINE
  5
B64
  8
NOTE
  6
CONTINUOUS
 10
-903.925193
 20
-278.999986
 30
0.0
 11
-708.0000220000001
 21
320.000014
 31
0.0
  0
LINE
  5
B65
  8
NOTE
  6
CONTINUOUS
 10
-708.0000220000001
 20
320.000014
 30
0.0
 11
-708.108607
 21
318.002963
 31
0.0
  0
LINE
  5
B66
  8
NOTE
  6
CONTINUOUS
 10
-708.0000220000001
 20
320.000014
 30
0.0
 11
-709.0925850000001
 21
318.32481
 31
0.0
  0
TEXT
  5
B67
  8
NOTE
  6
CONTINUOUS
 10
-1237.875144
 20
-277.999986
 30
0.0
 40
39.99999999999999
  1
CW R3/4(φ27.2)
 50
0.0000029575586669
 41
0.5177540000000002
  7
STANDARD1
  0
TEXT
  5
B68
  8
NOTE
  6
CONTINUOUS
 10
60.817834
 20
-203.520464
 30
0.0
 40
39.99999999999999
  1
（脚固定金具使用時のみ）
 50
0.0000029575586669
 41
0.6729170000000001
  7
STANDARD1
  0
LINE
  5
B69
  8
NOTE
  6
CONTINUOUS
 10
261.748726
 20
-299.999986
 30
0.0
 11
57.598717
 21
-299.999986
 31
0.0
  0
LINE
  5
B6A
  8
NOTE
  6
CONTINUOUS
 10
57.598717
 20
-299.999986
 30
0.0
 11
-111.999992
 21
0.0
 31
0.0
  0
LINE
  5
B6B
  8
NOTE
  6
CONTINUOUS
 10
-111.999992
 20
0.0
 30
0.0
 11
-110.598653
 21
-1.426972
 31
0.0
  0
LINE
  5
B6C
  8
NOTE
  6
CONTINUOUS
 10
-111.999992
 20
0.0
 30
0.0
 11
-111.499883
 21
-1.936463
 31
0.0
  0
TEXT
  5
B6D
  8
NOTE
  6
CONTINUOUS
 10
106.048714
 20
-298.999986
 30
0.0
 40
39.99999999999999
  1
AH 3-M12
 50
0.0000029575586669
 41
0.513158
  7
STANDARD1
  0
LINE
  5
B6E
  8
NOTE
  6
CONTINUOUS
 10
261.748726
 20
-150.000002
 30
0.0
 11
57.598717
 21
-150.000002
 31
0.0
  0
LINE
  5
B6F
  8
NOTE
  6
CONTINUOUS
 10
57.598717
 20
-150.000002
 30
0.0
 11
-75.99999199999999
 21
0.0
 31
0.0
  0
LINE
  5
B70
  8
NOTE
  6
CONTINUOUS
 10
-75.99999199999999
 20
0.0
 30
0.0
 11
-74.32856699999999
 21
-1.098334
 31
0.0
  0
LINE
  5
B71
  8
NOTE
  6
CONTINUOUS
 10
-75.99999199999999
 20
0.0
 30
0.0
 11
-75.101662
 21
-1.786897
 31
0.0
  0
TEXT
  5
B72
  8
NOTE
  6
CONTINUOUS
 10
106.048714
 20
-149.000002
 30
0.0
 40
39.99999999999999
  1
AH 4-M12
 50
0.0000029575586669
 41
0.513158
  7
STANDARD1
  0
TEXT
  5
B73
  8
NOTE
  6
CONTINUOUS
 10
-1256.558616
 20
2466.07765
 30
0.0
 40
39.99999999999999
  1
メンテナンススペース
 50
0.0000029575586669
 41
0.6729170000000001
  7
STANDARD1
  0
TEXT
  5
B74
  8
NOTE
  6
CONTINUOUS
 10
329.889351
 20
2255.673109
 30
0.0
 40
40.0
  1
メンテナンススペース
 50
90.00000499999999
 41
0.672917
  7
STANDARD1
  0
TEXT
  5
B75
  8
NOTE
  6
CONTINUOUS
 10
-1498.508811
 20
1026.733046
 30
0.0
 40
40.0
  1
メンテナンススペース
 50
90.00000499999999
 41
0.672917
  7
STANDARD1
  0
LINE
  5
B76
  8
NOTE
  6
CONTINUOUS
 10
-693.0
 20
360.0
 30
0.0
 11
-704.4000000000001
 21
360.0
 31
0.0
  0
LINE
  5
B77
  8
NOTE
  6
CONTINUOUS
 10
-716.0
 20
380.0
 30
0.0
 11
-716.0
 21
420.0
 31
0.0
  0
LINE
  5
B78
  8
NOTE
  6
CONTINUOUS
 10
-695.0
 20
400.0
 30
0.0
 11
-735.0
 21
400.0
 31
0.0
  0
LINE
  5
B79
  8
NOTE
  6
CONTINUOUS
 10
-566.0
 20
172.5
 30
0.0
 11
-606.0
 21
172.5
 31
0.0
  0
LINE
  5
B7A
  8
NOTE
  6
CONTINUOUS
 10
-586.0
 20
152.5
 30
0.0
 11
-586.0
 21
192.5
 31
0.0
  0
LINE
  5
B7B
  8
NOTE
  6
CONTINUOUS
 10
-659.0
 20
300.0
 30
0.0
 11
-659.0
 21
340.0
 31
0.0
  0
LINE
  5
B7C
  8
NOTE
  6
CONTINUOUS
 10
-639.0
 20
320.0
 30
0.0
 11
-650.0
 21
320.0
 31
0.0
  0
LINE
  5
B7D
  8
NOTE
  6
CONTINUOUS
 10
-1237.875144
 20
-368.999986
 30
0.0
 11
-903.925193
 21
-368.999986
 31
0.0
  0
LINE
  5
B7E
  8
NOTE
  6
CONTINUOUS
 10
-903.925193
 20
-368.999986
 30
0.0
 11
-659.0000220000001
 21
320.000014
 31
0.0
  0
LINE
  5
B7F
  8
NOTE
  6
CONTINUOUS
 10
-659.0000220000001
 20
320.000014
 30
0.0
 11
-659.15935
 21
318.00637
 31
0.0
  0
LINE
  5
B80
  8
NOTE
  6
CONTINUOUS
 10
-659.0000220000001
 20
320.000014
 30
0.0
 11
-660.1348260000001
 21
318.353131
 31
0.0
  0
TEXT
  5
B81
  8
NOTE
  6
CONTINUOUS
 10
-1237.875144
 20
-367.999956
 30
0.0
 40
40.0
  1
HW R3/4(φ27.2)
 50
359.9999959954467
 41
0.517754
  7
STANDARD1
  0
LINE
  5
B82
  8
NOTE
  6
CONTINUOUS
 10
-708.0
 20
300.0
 30
0.0
 11
-708.0
 21
340.0
 31
0.0
  0
LINE
  5
B83
  8
NOTE
  6
CONTINUOUS
 10
-721.6
 20
360.0
 30
0.0
 11
-729.0
 21
360.0
 31
0.0
  0
LINE
  5
B84
  8
NOTE
  6
CONTINUOUS
 10
-650.0
 20
320.0
 30
0.0
 11
-679.0
 21
320.0
 31
0.0
  0
CIRCLE
  5
B85
  8
ARRANGE
  6
CONTINUOUS
 10
0.0
 20
0.0
 30
0.0
 40
15.0
  0
CIRCLE
  5
B86
  8
FIX
  6
CONTINUOUS
 10
80.0
 20
2193.0
 30
0.0
 40
5.0
  0
CIRCLE
  5
B87
  8
FIX
  6
CONTINUOUS
 10
-646.0
 20
0.0
 30
0.0
 40
6.0
  0
CIRCLE
  5
B88
  8
FIX
  6
CONTINUOUS
 10
-112.0
 20
0.0
 30
0.0
 40
6.0
  0
CIRCLE
  5
B89
  8
FIX
  6
CONTINUOUS
 10
-76.0
 20
0.0
 30
0.0
 40
6.0
  0
LINE
  5
B8A
  8
SERVICESPACE
  6
DASHDOT
 10
-760.0
 20
2370.0
 30
0.0
 11
-1360.0
 21
0.0
 31
0.0
  0
LINE
  5
B8B
  8
SERVICESPACE
  6
DASHDOT
 10
-1360.0
 20
2370.0
 30
0.0
 11
-760.0
 21
0.0
 31
0.0
  0
LINE
  5
B8C
  8
SERVICESPACE
  6
DASHDOT
 10
-760.0
 20
0.0
 30
0.0
 11
-760.0
 21
2370.0
 31
0.0
  0
LINE
  5
B8D
  8
SERVICESPACE
  6
DASHDOT
 10
-760.0
 20
0.0
 30
0.0
 11
-1360.0
 21
0.0
 31
0.0
  0
LINE
  5
B8E
  8
SERVICESPACE
  6
DASHDOT
 10
-1360.0
 20
0.0
 30
0.0
 11
-1360.0
 21
2370.0
 31
0.0
  0
LINE
  5
B8F
  8
SERVICESPACE
  6
DASHDOT
 10
-760.0
 20
2170.0
 30
0.0
 11
0.0
 21
2170.0
 31
0.0
  0
LINE
  5
B90
  8
SERVICESPACE
  6
DASHDOT
 10
0.0
 20
2170.0
 30
0.0
 11
0.0
 21
2370.0
 31
0.0
  0
LINE
  5
B91
  8
SERVICESPACE
  6
DASHDOT
 10
-1360.0
 20
2370.0
 30
0.0
 11
0.0
 21
2370.0
 31
0.0
  0
LINE
  5
B92
  8
SERVICESPACE
  6
DASHDOT
 10
0.0
 20
2370.0
 30
0.0
 11
-760.0
 21
2170.0
 31
0.0
  0
LINE
  5
B93
  8
SERVICESPACE
  6
DASHDOT
 10
-760.0
 20
2370.0
 30
0.0
 11
0.0
 21
2170.0
 31
0.0
  0
TEXT
  5
B94
  8
ETC
  6
CONTINUOUS
 10
368.088662
 20
2497.970229
 30
0.0
 40
39.99999999999999
  1
TT46W24
 50
0.0000028316468405
 41
0.4875000000000001
  7
STANDARD1
  0
TEXT
  5
B95
  8
ETC
  6
CONTINUOUS
 10
368.088662
 20
2456.470229
 30
0.0
 40
39.99999999999999
  1
電気温水器
 50
0.0000029575586669
 41
0.6729170000000001
  7
STANDARD1
  0
ENDSEC
  0
EOF
