  0
SECTION
  2
HEADER
  9
$ACADVER
  1
AC1009
  9
$DWGCODEPAGE
  3
dos932
  9
$INSBASE
 10
0.0
 20
0.0
 30
0.0
  9
$EXTMIN
 10
-1007.416601538658
 20
-660.1139160394667
 30
0.0
  9
$EXTMAX
 10
1115.910233652472
 20
2422.386328101158
 30
0.0
  9
$LIMMIN
 10
0.0
 20
0.0
  9
$LIMMAX
 10
12.0
 20
9.0
  9
$ORTHOMODE
 70
     0
  9
$REGENMODE
 70
     1
  9
$FILLMODE
 70
     1
  9
$QTEXTMODE
 70
     0
  9
$MIRRTEXT
 70
     0
  9
$DRAGMODE
 70
     2
  9
$LTSCALE
 40
1.0
  9
$OSMODE
 70
    37
  9
$ATTMODE
 70
     1
  9
$TEXTSIZE
 40
2.799999952316284
  9
$TRACEWID
 40
0.05
  9
$TEXTSTYLE
  7
STANDARD1
  9
$CLAYER
  8
0
  9
$CELTYPE
  6
CONTINUOUS
  9
$CECOLOR
 62
   256
  9
$DIMSCALE
 40
1.0
  9
$DIMASZ
 40
10.0
  9
$DIMEXO
 40
10.0
  9
$DIMDLI
 40
8.0
  9
$DIMRND
 40
0.0
  9
$DIMDLE
 40
0.0
  9
$DIMEXE
 40
12.5
  9
$DIMTP
 40
0.0
  9
$DIMTM
 40
0.0
  9
$DIMTXT
 40
30.0
  9
$DIMCEN
 40
2.5
  9
$DIMTSZ
 40
0.0
  9
$DIMTOL
 70
     0
  9
$DIMLIM
 70
     0
  9
$DIMTIH
 70
     0
  9
$DIMTOH
 70
     0
  9
$DIMSE1
 70
     0
  9
$DIMSE2
 70
     0
  9
$DIMTAD
 70
     3
  9
$DIMZIN
 70
    12
  9
$DIMBLK
  1

  9
$DIMASO
 70
     1
  9
$DIMSHO
 70
     1
  9
$DIMPOST
  1

  9
$DIMAPOST
  1

  9
$DIMALT
 70
     0
  9
$DIMALTD
 70
     4
  9
$DIMALTF
 40
25.4
  9
$DIMLFAC
 40
1.0
  9
$DIMTOFL
 70
     1
  9
$DIMTVP
 40
0.0
  9
$DIMTIX
 70
     0
  9
$DIMSOXD
 70
     0
  9
$DIMSAH
 70
     1
  9
$DIMBLK1
  1
ORIGIN
  9
$DIMBLK2
  1
ORIGIN
  9
$DIMSTYLE
  2
STANDARD
  9
$DIMCLRD
 70
     0
  9
$DIMCLRE
 70
     0
  9
$DIMCLRT
 70
     0
  9
$DIMTFAC
 40
0.7142857313156129
  9
$DIMGAP
 40
10.0
  9
$LUNITS
 70
     2
  9
$LUPREC
 70
     3
  9
$SKETCHINC
 40
0.1
  9
$FILLETRAD
 40
0.0
  9
$AUNITS
 70
     0
  9
$AUPREC
 70
     0
  9
$MENU
  1
.
  9
$ELEVATION
 40
0.0
  9
$PELEVATION
 40
0.0
  9
$THICKNESS
 40
0.0
  9
$LIMCHECK
 70
     0
  9
$CHAMFERA
 40
0.0
  9
$CHAMFERB
 40
0.0
  9
$SKPOLY
 70
     0
  9
$TDCREATE
 40
2456428.900109109
  9
$TDUPDATE
 40
2457459.559618542
  9
$TDINDWG
 40
0.0002989352
  9
$TDUSRTIMER
 40
0.0002989352
  9
$USRTIMER
 70
     1
  9
$ANGBASE
 50
0.0
  9
$ANGDIR
 70
     0
  9
$PDMODE
 70
     0
  9
$PDSIZE
 40
0.0
  9
$PLINEWID
 40
0.0
  9
$COORDS
 70
     1
  9
$SPLFRAME
 70
     0
  9
$SPLINETYPE
 70
     6
  9
$SPLINESEGS
 70
     8
  9
$ATTDIA
 70
     0
  9
$ATTREQ
 70
     1
  9
$HANDLING
 70
     1
  9
$HANDSEED
  5
E31
  9
$SURFTAB1
 70
     6
  9
$SURFTAB2
 70
     6
  9
$SURFTYPE
 70
     6
  9
$SURFU
 70
     6
  9
$SURFV
 70
     6
  9
$UCSNAME
  2

  9
$UCSORG
 10
0.0
 20
0.0
 30
0.0
  9
$UCSXDIR
 10
1.0
 20
0.0
 30
0.0
  9
$UCSYDIR
 10
0.0
 20
1.0
 30
0.0
  9
$PUCSNAME
  2

  9
$PUCSORG
 10
0.0
 20
0.0
 30
0.0
  9
$PUCSXDIR
 10
1.0
 20
0.0
 30
0.0
  9
$PUCSYDIR
 10
0.0
 20
1.0
 30
0.0
  9
$USERI1
 70
     0
  9
$USERI2
 70
     0
  9
$USERI3
 70
     0
  9
$USERI4
 70
     0
  9
$USERI5
 70
     0
  9
$USERR1
 40
0.0
  9
$USERR2
 40
0.0
  9
$USERR3
 40
0.0
  9
$USERR4
 40
0.0
  9
$USERR5
 40
0.0
  9
$WORLDVIEW
 70
     1
  9
$SHADEDGE
 70
     3
  9
$SHADEDIF
 70
    70
  9
$TILEMODE
 70
     1
  9
$MAXACTVP
 70
    64
  9
$PLIMCHECK
 70
     0
  9
$PEXTMIN
 10
1.000000000000000E+20
 20
1.000000000000000E+20
 30
1.000000000000000E+20
  9
$PEXTMAX
 10
-1.000000000000000E+20
 20
-1.000000000000000E+20
 30
-1.000000000000000E+20
  9
$PLIMMIN
 10
0.0
 20
0.0
  9
$PLIMMAX
 10
12.0
 20
9.0
  9
$UNITMODE
 70
     0
  9
$VISRETAIN
 70
     1
  9
$PLINEGEN
 70
     0
  9
$PSLTSCALE
 70
     1
  0
ENDSEC
  0
SECTION
  2
TABLES
  0
TABLE
  2
VPORT
 70
     1
  0
VPORT
  2
*ACTIVE
 70
     0
 10
0.0
 20
0.0
 11
1.0
 21
1.0
 12
54.24681605690716
 22
881.1362060308455
 13
0.0
 23
0.0
 14
1.0
 24
1.0
 15
0.0
 25
0.0
 16
0.0
 26
0.0
 36
1.0
 17
0.0
 27
0.0
 37
0.0
 40
3121.355289234835
 41
1.570526315789473
 42
50.0
 43
0.0
 44
0.0
 50
0.0
 51
0.0
 71
     0
 72
   100
 73
     1
 74
     1
 75
     0
 76
     0
 77
     0
 78
     0
  0
ENDTAB
  0
TABLE
  2
LTYPE
 70
     4
  0
LTYPE
  2
CONTINUOUS
 70
     0
  3
Solid line
 72
    65
 73
     0
 40
0.0
  0
LTYPE
  2
DASHED
 70
     0
  3
-- -- -- -- -- -- -- -- -- -- -- -- -- -- --
 72
    65
 73
     2
 40
0.75
 49
0.5
 49
-0.25
  0
LTYPE
  2
DASHDOT
 70
     0
  3
__ . __ . __ . __ . __ . __ . __ . __ . __ . __
 72
    65
 73
     4
 40
125.0
 49
80.0
 49
-20.0
 49
5.0
 49
-20.0
  0
LTYPE
  2
DIVIDE
 70
     0
  3
__ . . __ . . __ . . __ . . __ . . __ . . __
 72
    65
 73
     6
 40
1.25
 49
0.5
 49
-0.25
 49
0.0
 49
-0.25
 49
0.0
 49
-0.25
  0
ENDTAB
  0
TABLE
  2
LAYER
 70
    12
  0
LAYER
  2
0
 70
     0
 62
     3
  6
CONTINUOUS
  0
LAYER
  2
OUTLINE
 70
     0
 62
     3
  6
CONTINUOUS
  0
LAYER
  2
DETAIL
 70
     0
 62
     5
  6
CONTINUOUS
  0
LAYER
  2
BASIS
 70
     0
 62
     6
  6
CONTINUOUS
  0
LAYER
  2
SIZE
 70
     0
 62
    30
  6
CONTINUOUS
  0
LAYER
  2
NOTE
 70
     0
 62
     4
  6
CONTINUOUS
  0
LAYER
  2
ARRANGE
 70
     0
 62
     1
  6
CONTINUOUS
  0
LAYER
  2
FIX
 70
     0
 62
    11
  6
CONTINUOUS
  0
LAYER
  2
SERVICESPACE
 70
     0
 62
     2
  6
CONTINUOUS
  0
LAYER
  2
ETC
 70
     0
 62
    61
  6
CONTINUOUS
  0
LAYER
  2
SYMBOLLINE
 70
     0
 62
     7
  6
CONTINUOUS
  0
LAYER
  2
DEFPOINTS
 70
     0
 62
     7
  6
CONTINUOUS
  0
ENDTAB
  0
TABLE
  2
STYLE
 70
     5
  0
STYLE
  2
STANDARD
 70
     0
 40
0.0
 41
1.0
 50
0.0
 71
     0
 42
0.2
  3
txt
  4

  0
STYLE
  2
STANDARD1
 70
     0
 40
0.0
 41
1.0
 50
0.0
 71
     0
 42
2.799999952316284
  3
MONOTXT
  4
BIGFONT
  0
STYLE
  2
STANDARD2
 70
     4
 40
0.0
 41
1.0
 50
0.0
 71
     0
 42
2.799999952316284
  3
MONOTXT
  4
BIGFONT
  0
STYLE
  2
STANDARD3
 70
     0
 40
0.0
 41
1.0
 50
0.0
 71
     0
 42
2.799999952316284
  3
MONOTXT
  4

  0
STYLE
  2
STANDARD4
 70
     4
 40
0.0
 41
1.0
 50
0.0
 71
     0
 42
2.799999952316284
  3
MONOTXT
  4

  0
ENDTAB
  0
TABLE
  2
VIEW
 70
     0
  0
ENDTAB
  0
TABLE
  2
UCS
 70
     0
  0
ENDTAB
  0
TABLE
  2
APPID
 70
     1
  0
APPID
  2
ACAD
 70
     0
  0
ENDTAB
  0
TABLE
  2
DIMSTYLE
 70
     1
  0
DIMSTYLE
  2
STANDARD
 70
     0
  3

  4

  5

  6

  7

 40
1.0
 41
0.18
 42
0.0625
 43
0.38
 44
0.18
 45
0.0
 46
0.0
 47
0.0
 48
0.0
140
0.18
141
0.09
142
0.0
143
25.4
144
1.0
145
0.0
146
1.0
147
0.09
 71
     0
 72
     0
 73
     1
 74
     1
 75
     0
 76
     0
 77
     0
 78
     0
170
     0
171
     2
172
     0
173
     0
174
     0
175
     0
176
     0
177
     0
178
     0
  0
ENDTAB
  0
ENDSEC
  0
SECTION
  2
BLOCKS
  0
BLOCK
  8
0
  2
$MODEL_SPACE
 70
     0
 10
0.0
 20
0.0
 30
0.0
  3
$MODEL_SPACE
  1

  0
ENDBLK
  5
DE0
  8
0
  0
BLOCK
 67
     1
  8
0
  2
$PAPER_SPACE
 70
     0
 10
0.0
 20
0.0
 30
0.0
  3
$PAPER_SPACE
  1

  0
ENDBLK
  5
DE2
 67
     1
  8
0
  0
BLOCK
  8
SIZE
  2
*D0
 70
     1
 10
0.0
 20
0.0
 30
0.0
  3
*D0
  1

  0
TEXT
  5
666
  8
SIZE
  6
CONTINUOUS
 10
-766.0166260004042
 20
213.0460816653606
 30
0.0
 40
2.799999952316284
  1
432
 50
90.00000500895634
 41
0.6999999829701011
  7
STANDARD1
  0
LINE
  5
667
  8
SIZE
  6
CONTINUOUS
 10
-278.0165710449219
 20
431.986083984375
 30
0.0
 11
-767.0166015625
 21
431.986083984375
 31
0.0
  0
LINE
  5
668
  8
SIZE
  6
CONTINUOUS
 10
-285.5165710449219
 20
-0.013914687559009
 30
0.0
 11
-767.0166015625
 21
-0.013914687559009
 31
0.0
  0
LINE
  5
669
  8
SIZE
  6
CONTINUOUS
 10
-765.0166015625
 20
431.986083984375
 30
0.0
 11
-765.0166015625
 21
-0.013914687559009
 31
0.0
  0
CIRCLE
  5
66A
  8
SIZE
  6
CONTINUOUS
 10
-765.0166015625
 20
431.986083984375
 30
0.0
 40
0.5
  0
CIRCLE
  5
66B
  8
SIZE
  6
CONTINUOUS
 10
-765.0166015625
 20
431.986083984375
 30
0.0
 40
0.4
  0
CIRCLE
  5
66C
  8
SIZE
  6
CONTINUOUS
 10
-765.0166015625
 20
431.986083984375
 30
0.0
 40
0.3
  0
CIRCLE
  5
66D
  8
SIZE
  6
CONTINUOUS
 10
-765.0166015625
 20
431.986083984375
 30
0.0
 40
0.2
  0
CIRCLE
  5
66E
  8
SIZE
  6
CONTINUOUS
 10
-765.0166015625
 20
431.986083984375
 30
0.0
 40
0.1
  0
CIRCLE
  5
66F
  8
SIZE
  6
CONTINUOUS
 10
-765.0166015625
 20
-0.013914687559009
 30
0.0
 40
0.5
  0
CIRCLE
  5
670
  8
SIZE
  6
CONTINUOUS
 10
-765.0166015625
 20
-0.013914687559009
 30
0.0
 40
0.4
  0
CIRCLE
  5
671
  8
SIZE
  6
CONTINUOUS
 10
-765.0166015625
 20
-0.013914687559009
 30
0.0
 40
0.3
  0
CIRCLE
  5
672
  8
SIZE
  6
CONTINUOUS
 10
-765.0166015625
 20
-0.013914687559009
 30
0.0
 40
0.2
  0
CIRCLE
  5
673
  8
SIZE
  6
CONTINUOUS
 10
-765.0166015625
 20
-0.013914687559009
 30
0.0
 40
0.1
  0
POINT
  5
674
  8
DEFPOINTS
  6
BYBLOCK
 10
-284.5165710449219
 20
-0.013914687559009
 30
0.0
  0
POINT
  5
675
  8
DEFPOINTS
  6
BYBLOCK
 10
-277.0165710449219
 20
431.986083984375
 30
0.0
  0
POINT
  5
676
  8
DEFPOINTS
  6
BYBLOCK
 10
-765.0166015625
 20
431.986083984375
 30
0.0
  0
ENDBLK
  5
677
  8
SIZE
  0
BLOCK
  8
SIZE
  2
*D1
 70
     1
 10
0.0
 20
0.0
 30
0.0
  3
*D1
  1

  0
TEXT
  5
67A
  8
SIZE
  6
CONTINUOUS
 10
1063.983373999595
 20
911.0661011966106
 30
0.0
 40
2.799999952316284
  1
1830
 50
90.00000500895634
 41
0.6999999829701011
  7
STANDARD1
  0
LINE
  5
67B
  8
SIZE
  6
CONTINUOUS
 10
285.4834289550781
 20
-0.013914687559009
 30
0.0
 11
1066.9833984375
 21
-0.013914687559009
 31
0.0
  0
LINE
  5
67C
  8
SIZE
  6
CONTINUOUS
 10
315.9834289550781
 20
1829.986083984375
 30
0.0
 11
1066.9833984375
 21
1829.986083984375
 31
0.0
  0
LINE
  5
67D
  8
SIZE
  6
CONTINUOUS
 10
1064.9833984375
 20
-0.013914687559009
 30
0.0
 11
1064.9833984375
 21
1829.986083984375
 31
0.0
  0
CIRCLE
  5
67E
  8
SIZE
  6
CONTINUOUS
 10
1064.9833984375
 20
-0.013914687559009
 30
0.0
 40
0.5
  0
CIRCLE
  5
67F
  8
SIZE
  6
CONTINUOUS
 10
1064.9833984375
 20
-0.013914687559009
 30
0.0
 40
0.4
  0
CIRCLE
  5
680
  8
SIZE
  6
CONTINUOUS
 10
1064.9833984375
 20
-0.013914687559009
 30
0.0
 40
0.3
  0
CIRCLE
  5
681
  8
SIZE
  6
CONTINUOUS
 10
1064.9833984375
 20
-0.013914687559009
 30
0.0
 40
0.2
  0
CIRCLE
  5
682
  8
SIZE
  6
CONTINUOUS
 10
1064.9833984375
 20
-0.013914687559009
 30
0.0
 40
0.1
  0
CIRCLE
  5
683
  8
SIZE
  6
CONTINUOUS
 10
1064.9833984375
 20
1829.986083984375
 30
0.0
 40
0.5
  0
CIRCLE
  5
684
  8
SIZE
  6
CONTINUOUS
 10
1064.9833984375
 20
1829.986083984375
 30
0.0
 40
0.4
  0
CIRCLE
  5
685
  8
SIZE
  6
CONTINUOUS
 10
1064.9833984375
 20
1829.986083984375
 30
0.0
 40
0.3
  0
CIRCLE
  5
686
  8
SIZE
  6
CONTINUOUS
 10
1064.9833984375
 20
1829.986083984375
 30
0.0
 40
0.2
  0
CIRCLE
  5
687
  8
SIZE
  6
CONTINUOUS
 10
1064.9833984375
 20
1829.986083984375
 30
0.0
 40
0.1
  0
POINT
  5
688
  8
DEFPOINTS
  6
BYBLOCK
 10
314.9834289550781
 20
1829.986083984375
 30
0.0
  0
POINT
  5
689
  8
DEFPOINTS
  6
BYBLOCK
 10
284.4834289550781
 20
-0.013914687559009
 30
0.0
  0
POINT
  5
68A
  8
DEFPOINTS
  6
BYBLOCK
 10
1064.9833984375
 20
-0.013914687559009
 30
0.0
  0
ENDBLK
  5
68B
  8
SIZE
  0
BLOCK
  8
SIZE
  2
*D2
 70
     1
 10
0.0
 20
0.0
 30
0.0
  3
*D2
  1

  0
TEXT
  5
68E
  8
SIZE
  6
CONTINUOUS
 10
-966.0166260004045
 20
933.5661011966106
 30
0.0
 40
2.799999952316284
  1
1875
 50
90.00000500895634
 41
0.6999999829701011
  7
STANDARD1
  0
LINE
  5
68F
  8
SIZE
  6
CONTINUOUS
 10
-285.5165710449219
 20
-0.013914687559009
 30
0.0
 11
-967.0166015625
 21
-0.013914687559009
 31
0.0
  0
LINE
  5
690
  8
SIZE
  6
CONTINUOUS
 10
-41.01658248901367
 20
1874.986083984375
 30
0.0
 11
-967.0166015625
 21
1874.986083984375
 31
0.0
  0
LINE
  5
691
  8
SIZE
  6
CONTINUOUS
 10
-965.0166015625
 20
-0.013914687559009
 30
0.0
 11
-965.0166015625
 21
1874.986083984375
 31
0.0
  0
CIRCLE
  5
692
  8
SIZE
  6
CONTINUOUS
 10
-965.0166015625
 20
-0.013914687559009
 30
0.0
 40
0.5
  0
CIRCLE
  5
693
  8
SIZE
  6
CONTINUOUS
 10
-965.0166015625
 20
-0.013914687559009
 30
0.0
 40
0.4
  0
CIRCLE
  5
694
  8
SIZE
  6
CONTINUOUS
 10
-965.0166015625
 20
-0.013914687559009
 30
0.0
 40
0.3
  0
CIRCLE
  5
695
  8
SIZE
  6
CONTINUOUS
 10
-965.0166015625
 20
-0.013914687559009
 30
0.0
 40
0.2
  0
CIRCLE
  5
696
  8
SIZE
  6
CONTINUOUS
 10
-965.0166015625
 20
-0.013914687559009
 30
0.0
 40
0.1
  0
CIRCLE
  5
697
  8
SIZE
  6
CONTINUOUS
 10
-965.0166015625
 20
1874.986083984375
 30
0.0
 40
0.5
  0
CIRCLE
  5
698
  8
SIZE
  6
CONTINUOUS
 10
-965.0166015625
 20
1874.986083984375
 30
0.0
 40
0.4
  0
CIRCLE
  5
699
  8
SIZE
  6
CONTINUOUS
 10
-965.0166015625
 20
1874.986083984375
 30
0.0
 40
0.3
  0
CIRCLE
  5
69A
  8
SIZE
  6
CONTINUOUS
 10
-965.0166015625
 20
1874.986083984375
 30
0.0
 40
0.2
  0
CIRCLE
  5
69B
  8
SIZE
  6
CONTINUOUS
 10
-965.0166015625
 20
1874.986083984375
 30
0.0
 40
0.1
  0
POINT
  5
69C
  8
DEFPOINTS
  6
BYBLOCK
 10
-40.01658248901367
 20
1874.986083984375
 30
0.0
  0
POINT
  5
69D
  8
DEFPOINTS
  6
BYBLOCK
 10
-284.5165710449219
 20
-0.013914687559009
 30
0.0
  0
POINT
  5
69E
  8
DEFPOINTS
  6
BYBLOCK
 10
-965.0166015625
 20
-0.013914687559009
 30
0.0
  0
ENDBLK
  5
69F
  8
SIZE
  0
BLOCK
  8
SIZE
  2
*D3
 70
     1
 10
0.0
 20
0.0
 30
0.0
  3
*D3
  1

  0
TEXT
  5
6A2
  8
SIZE
  6
CONTINUOUS
 10
392.7189026490865
 20
1520.986108422279
 30
0.0
 40
2.799999952316284
  1
45
 50
0.000002504478167
 41
0.6999999829701011
  7
STANDARD1
  0
LINE
  5
6A3
  8
SIZE
  6
CONTINUOUS
 10
269.9834289550781
 20
1674.986083984375
 30
0.0
 11
269.9834289550781
 21
1517.986083984375
 31
0.0
  0
LINE
  5
6A4
  8
SIZE
  6
CONTINUOUS
 10
264.9834289550781
 20
1519.986083984375
 30
0.0
 11
398.0388793945312
 21
1519.986083984375
 31
0.0
  0
CIRCLE
  5
6A5
  8
SIZE
  6
CONTINUOUS
 10
269.9834289550781
 20
1519.986083984375
 30
0.0
 40
0.5
  0
CIRCLE
  5
6A6
  8
SIZE
  6
CONTINUOUS
 10
269.9834289550781
 20
1519.986083984375
 30
0.0
 40
0.4
  0
CIRCLE
  5
6A7
  8
SIZE
  6
CONTINUOUS
 10
269.9834289550781
 20
1519.986083984375
 30
0.0
 40
0.3
  0
CIRCLE
  5
6A8
  8
SIZE
  6
CONTINUOUS
 10
269.9834289550781
 20
1519.986083984375
 30
0.0
 40
0.2
  0
CIRCLE
  5
6A9
  8
SIZE
  6
CONTINUOUS
 10
269.9834289550781
 20
1519.986083984375
 30
0.0
 40
0.1
  0
CIRCLE
  5
6AA
  8
SIZE
  6
CONTINUOUS
 10
314.9834289550781
 20
1519.986083984375
 30
0.0
 40
0.5
  0
CIRCLE
  5
6AB
  8
SIZE
  6
CONTINUOUS
 10
314.9834289550781
 20
1519.986083984375
 30
0.0
 40
0.4
  0
CIRCLE
  5
6AC
  8
SIZE
  6
CONTINUOUS
 10
314.9834289550781
 20
1519.986083984375
 30
0.0
 40
0.3
  0
CIRCLE
  5
6AD
  8
SIZE
  6
CONTINUOUS
 10
314.9834289550781
 20
1519.986083984375
 30
0.0
 40
0.2
  0
CIRCLE
  5
6AE
  8
SIZE
  6
CONTINUOUS
 10
314.9834289550781
 20
1519.986083984375
 30
0.0
 40
0.1
  0
POINT
  5
6AF
  8
DEFPOINTS
  6
BYBLOCK
 10
314.9834289550781
 20
1829.986083984375
 30
0.0
  0
POINT
  5
6B0
  8
DEFPOINTS
  6
BYBLOCK
 10
269.9834289550781
 20
1675.986083984375
 30
0.0
  0
POINT
  5
6B1
  8
DEFPOINTS
  6
BYBLOCK
 10
269.9834289550781
 20
1519.986083984375
 30
0.0
  0
ENDBLK
  5
6B2
  8
SIZE
  0
BLOCK
  8
SIZE
  2
*D4
 70
     1
 10
0.0
 20
0.0
 30
0.0
  3
*D4
  1

  0
TEXT
  5
6B5
  8
SIZE
  6
CONTINUOUS
 10
863.9833739995955
 20
1726.046142700516
 30
0.0
 40
2.799999952316284
  1
118
 50
90.00000500895634
 41
0.6999999829701011
  7
STANDARD1
  0
LINE
  5
6B6
  8
SIZE
  6
CONTINUOUS
 10
264.9833984375
 20
1787.986083984375
 30
0.0
 11
866.9833984374999
 21
1787.986083984375
 31
0.0
  0
LINE
  5
6B7
  8
SIZE
  6
CONTINUOUS
 10
264.9833984375
 20
1669.986083984375
 30
0.0
 11
866.9833984374999
 21
1669.986083984375
 31
0.0
  0
LINE
  5
6B8
  8
SIZE
  6
CONTINUOUS
 10
864.9833984375
 20
1787.986083984375
 30
0.0
 11
864.9833984375
 21
1669.986083984375
 31
0.0
  0
CIRCLE
  5
6B9
  8
SIZE
  6
CONTINUOUS
 10
864.9833984375
 20
1787.986083984375
 30
0.0
 40
0.5
  0
CIRCLE
  5
6BA
  8
SIZE
  6
CONTINUOUS
 10
864.9833984375
 20
1787.986083984375
 30
0.0
 40
0.4
  0
CIRCLE
  5
6BB
  8
SIZE
  6
CONTINUOUS
 10
864.9833984375
 20
1787.986083984375
 30
0.0
 40
0.3
  0
CIRCLE
  5
6BC
  8
SIZE
  6
CONTINUOUS
 10
864.9833984375
 20
1787.986083984375
 30
0.0
 40
0.2
  0
CIRCLE
  5
6BD
  8
SIZE
  6
CONTINUOUS
 10
864.9833984375
 20
1787.986083984375
 30
0.0
 40
0.1
  0
CIRCLE
  5
6BE
  8
SIZE
  6
CONTINUOUS
 10
864.9833984375
 20
1669.986083984375
 30
0.0
 40
0.5
  0
CIRCLE
  5
6BF
  8
SIZE
  6
CONTINUOUS
 10
864.9833984375
 20
1669.986083984375
 30
0.0
 40
0.4
  0
CIRCLE
  5
6C0
  8
SIZE
  6
CONTINUOUS
 10
864.9833984375
 20
1669.986083984375
 30
0.0
 40
0.3
  0
CIRCLE
  5
6C1
  8
SIZE
  6
CONTINUOUS
 10
864.9833984375
 20
1669.986083984375
 30
0.0
 40
0.2
  0
CIRCLE
  5
6C2
  8
SIZE
  6
CONTINUOUS
 10
864.9833984375
 20
1669.986083984375
 30
0.0
 40
0.1
  0
POINT
  5
6C3
  8
DEFPOINTS
  6
BYBLOCK
 10
263.9833984375
 20
1669.986083984375
 30
0.0
  0
POINT
  5
6C4
  8
DEFPOINTS
  6
BYBLOCK
 10
263.9833984375
 20
1787.986083984375
 30
0.0
  0
POINT
  5
6C5
  8
DEFPOINTS
  6
BYBLOCK
 10
864.9833984375
 20
1787.986083984375
 30
0.0
  0
ENDBLK
  5
6C6
  8
SIZE
  0
BLOCK
  8
SIZE
  2
*D5
 70
     1
 10
0.0
 20
0.0
 30
0.0
  3
*D5
  1

  0
TEXT
  5
6C9
  8
SIZE
  6
CONTINUOUS
 10
863.9833739995955
 20
831.0661011966107
 30
0.0
 40
2.799999952316284
  1
1670
 50
90.00000500895634
 41
0.6999999829701011
  7
STANDARD1
  0
LINE
  5
6CA
  8
SIZE
  6
CONTINUOUS
 10
264.9834289550781
 20
1669.986083984375
 30
0.0
 11
866.9833984374999
 21
1669.986083984375
 31
0.0
  0
LINE
  5
6CB
  8
SIZE
  6
CONTINUOUS
 10
864.9833984375
 20
1669.986083984375
 30
0.0
 11
864.9833984375
 21
-0.013914687559009
 31
0.0
  0
CIRCLE
  5
6CC
  8
SIZE
  6
CONTINUOUS
 10
864.9833984375
 20
1669.986083984375
 30
0.0
 40
0.5
  0
CIRCLE
  5
6CD
  8
SIZE
  6
CONTINUOUS
 10
864.9833984375
 20
1669.986083984375
 30
0.0
 40
0.4
  0
CIRCLE
  5
6CE
  8
SIZE
  6
CONTINUOUS
 10
864.9833984375
 20
1669.986083984375
 30
0.0
 40
0.3
  0
CIRCLE
  5
6CF
  8
SIZE
  6
CONTINUOUS
 10
864.9833984375
 20
1669.986083984375
 30
0.0
 40
0.2
  0
CIRCLE
  5
6D0
  8
SIZE
  6
CONTINUOUS
 10
864.9833984375
 20
1669.986083984375
 30
0.0
 40
0.1
  0
CIRCLE
  5
6D1
  8
SIZE
  6
CONTINUOUS
 10
864.9833984375
 20
-0.013914687559009
 30
0.0
 40
0.5
  0
CIRCLE
  5
6D2
  8
SIZE
  6
CONTINUOUS
 10
864.9833984375
 20
-0.013914687559009
 30
0.0
 40
0.4
  0
CIRCLE
  5
6D3
  8
SIZE
  6
CONTINUOUS
 10
864.9833984375
 20
-0.013914687559009
 30
0.0
 40
0.3
  0
CIRCLE
  5
6D4
  8
SIZE
  6
CONTINUOUS
 10
864.9833984375
 20
-0.013914687559009
 30
0.0
 40
0.2
  0
CIRCLE
  5
6D5
  8
SIZE
  6
CONTINUOUS
 10
864.9833984375
 20
-0.013914687559009
 30
0.0
 40
0.1
  0
POINT
  5
6D6
  8
DEFPOINTS
  6
BYBLOCK
 10
309.9834289550781
 20
-0.013914687559009
 30
0.0
  0
POINT
  5
6D7
  8
DEFPOINTS
  6
BYBLOCK
 10
263.9834289550781
 20
1669.986083984375
 30
0.0
  0
POINT
  5
6D8
  8
DEFPOINTS
  6
BYBLOCK
 10
864.9833984375
 20
1669.986083984375
 30
0.0
  0
ENDBLK
  5
6D9
  8
SIZE
  0
BLOCK
  8
SIZE
  2
*D6
 70
     1
 10
0.0
 20
0.0
 30
0.0
  3
*D6
  1

  0
TEXT
  5
6DC
  8
SIZE
  6
CONTINUOUS
 10
-666.0166260004042
 20
539.0460816653606
 30
0.0
 40
2.799999952316284
  1
220
 50
90.00000500895634
 41
0.6999999829701011
  7
STANDARD1
  0
LINE
  5
6DD
  8
SIZE
  6
CONTINUOUS
 10
-278.0166015625
 20
651.986083984375
 30
0.0
 11
-667.0166015625
 21
651.986083984375
 31
0.0
  0
LINE
  5
6DE
  8
SIZE
  6
CONTINUOUS
 10
-278.0166015625
 20
431.986083984375
 30
0.0
 11
-667.0166015625
 21
431.986083984375
 31
0.0
  0
LINE
  5
6DF
  8
SIZE
  6
CONTINUOUS
 10
-665.0166015625
 20
651.986083984375
 30
0.0
 11
-665.0166015625
 21
431.986083984375
 31
0.0
  0
CIRCLE
  5
6E0
  8
SIZE
  6
CONTINUOUS
 10
-665.0166015625
 20
651.986083984375
 30
0.0
 40
0.5
  0
CIRCLE
  5
6E1
  8
SIZE
  6
CONTINUOUS
 10
-665.0166015625
 20
651.986083984375
 30
0.0
 40
0.4
  0
CIRCLE
  5
6E2
  8
SIZE
  6
CONTINUOUS
 10
-665.0166015625
 20
651.986083984375
 30
0.0
 40
0.3
  0
CIRCLE
  5
6E3
  8
SIZE
  6
CONTINUOUS
 10
-665.0166015625
 20
651.986083984375
 30
0.0
 40
0.2
  0
CIRCLE
  5
6E4
  8
SIZE
  6
CONTINUOUS
 10
-665.0166015625
 20
651.986083984375
 30
0.0
 40
0.1
  0
CIRCLE
  5
6E5
  8
SIZE
  6
CONTINUOUS
 10
-665.0166015625
 20
431.986083984375
 30
0.0
 40
0.5
  0
CIRCLE
  5
6E6
  8
SIZE
  6
CONTINUOUS
 10
-665.0166015625
 20
431.986083984375
 30
0.0
 40
0.4
  0
CIRCLE
  5
6E7
  8
SIZE
  6
CONTINUOUS
 10
-665.0166015625
 20
431.986083984375
 30
0.0
 40
0.3
  0
CIRCLE
  5
6E8
  8
SIZE
  6
CONTINUOUS
 10
-665.0166015625
 20
431.986083984375
 30
0.0
 40
0.2
  0
CIRCLE
  5
6E9
  8
SIZE
  6
CONTINUOUS
 10
-665.0166015625
 20
431.986083984375
 30
0.0
 40
0.1
  0
POINT
  5
6EA
  8
DEFPOINTS
  6
BYBLOCK
 10
-277.0166015625
 20
431.986083984375
 30
0.0
  0
POINT
  5
6EB
  8
DEFPOINTS
  6
BYBLOCK
 10
-277.0166015625
 20
651.986083984375
 30
0.0
  0
POINT
  5
6EC
  8
DEFPOINTS
  6
BYBLOCK
 10
-665.0166015625
 20
651.986083984375
 30
0.0
  0
ENDBLK
  5
6ED
  8
SIZE
  0
BLOCK
  8
SIZE
  2
*D7
 70
     1
 10
0.0
 20
0.0
 30
0.0
  3
*D7
  1

  0
TEXT
  5
6F0
  8
SIZE
  6
CONTINUOUS
 10
-202.4566039427103
 20
502.9860779047012
 30
0.0
 40
2.799999952316284
  1
171
 50
0.000002504478167
 41
0.6999999829701011
  7
STANDARD1
  0
LINE
  5
6F1
  8
SIZE
  6
CONTINUOUS
 10
-285.0166015625
 20
501.986083984375
 30
0.0
 11
-114.0165863037109
 21
501.986083984375
 31
0.0
  0
CIRCLE
  5
6F2
  8
SIZE
  6
CONTINUOUS
 10
-285.0166015625
 20
501.986083984375
 30
0.0
 40
0.5
  0
CIRCLE
  5
6F3
  8
SIZE
  6
CONTINUOUS
 10
-285.0166015625
 20
501.986083984375
 30
0.0
 40
0.4
  0
CIRCLE
  5
6F4
  8
SIZE
  6
CONTINUOUS
 10
-285.0166015625
 20
501.986083984375
 30
0.0
 40
0.3
  0
CIRCLE
  5
6F5
  8
SIZE
  6
CONTINUOUS
 10
-285.0166015625
 20
501.986083984375
 30
0.0
 40
0.2
  0
CIRCLE
  5
6F6
  8
SIZE
  6
CONTINUOUS
 10
-285.0166015625
 20
501.986083984375
 30
0.0
 40
0.1
  0
CIRCLE
  5
6F7
  8
SIZE
  6
CONTINUOUS
 10
-114.0165863037109
 20
501.986083984375
 30
0.0
 40
0.5
  0
CIRCLE
  5
6F8
  8
SIZE
  6
CONTINUOUS
 10
-114.0165863037109
 20
501.986083984375
 30
0.0
 40
0.4
  0
CIRCLE
  5
6F9
  8
SIZE
  6
CONTINUOUS
 10
-114.0165863037109
 20
501.986083984375
 30
0.0
 40
0.3
  0
CIRCLE
  5
6FA
  8
SIZE
  6
CONTINUOUS
 10
-114.0165863037109
 20
501.986083984375
 30
0.0
 40
0.2
  0
CIRCLE
  5
6FB
  8
SIZE
  6
CONTINUOUS
 10
-114.0165863037109
 20
501.986083984375
 30
0.0
 40
0.1
  0
POINT
  5
6FC
  8
DEFPOINTS
  6
BYBLOCK
 10
-114.0165863037109
 20
439.986083984375
 30
0.0
  0
POINT
  5
6FD
  8
DEFPOINTS
  6
BYBLOCK
 10
-285.0166015625
 20
439.986083984375
 30
0.0
  0
POINT
  5
6FE
  8
DEFPOINTS
  6
BYBLOCK
 10
-285.0166015625
 20
501.986083984375
 30
0.0
  0
ENDBLK
  5
6FF
  8
SIZE
  0
BLOCK
  8
SIZE
  2
*D8
 70
     1
 10
0.0
 20
0.0
 30
0.0
  3
*D8
  1

  0
TEXT
  5
702
  8
SIZE
  6
CONTINUOUS
 10
202.0433960572897
 20
1520.986108422279
 30
0.0
 40
2.799999952316284
  1
130
 50
0.000002504478167
 41
0.6999999829701011
  7
STANDARD1
  0
LINE
  5
703
  8
SIZE
  6
CONTINUOUS
 10
269.9833984375
 20
1674.986083984375
 30
0.0
 11
269.9833984375
 21
1517.986083984375
 31
0.0
  0
LINE
  5
704
  8
SIZE
  6
CONTINUOUS
 10
139.9833984375
 20
1674.986083984375
 30
0.0
 11
139.9833984375
 21
1517.986083984375
 31
0.0
  0
LINE
  5
705
  8
SIZE
  6
CONTINUOUS
 10
269.9833984375
 20
1519.986083984375
 30
0.0
 11
139.9833984375
 21
1519.986083984375
 31
0.0
  0
CIRCLE
  5
706
  8
SIZE
  6
CONTINUOUS
 10
269.9833984375
 20
1519.986083984375
 30
0.0
 40
0.5
  0
CIRCLE
  5
707
  8
SIZE
  6
CONTINUOUS
 10
269.9833984375
 20
1519.986083984375
 30
0.0
 40
0.4
  0
CIRCLE
  5
708
  8
SIZE
  6
CONTINUOUS
 10
269.9833984375
 20
1519.986083984375
 30
0.0
 40
0.3
  0
CIRCLE
  5
709
  8
SIZE
  6
CONTINUOUS
 10
269.9833984375
 20
1519.986083984375
 30
0.0
 40
0.2
  0
CIRCLE
  5
70A
  8
SIZE
  6
CONTINUOUS
 10
269.9833984375
 20
1519.986083984375
 30
0.0
 40
0.1
  0
CIRCLE
  5
70B
  8
SIZE
  6
CONTINUOUS
 10
139.9833984375
 20
1519.986083984375
 30
0.0
 40
0.5
  0
CIRCLE
  5
70C
  8
SIZE
  6
CONTINUOUS
 10
139.9833984375
 20
1519.986083984375
 30
0.0
 40
0.4
  0
CIRCLE
  5
70D
  8
SIZE
  6
CONTINUOUS
 10
139.9833984375
 20
1519.986083984375
 30
0.0
 40
0.3
  0
CIRCLE
  5
70E
  8
SIZE
  6
CONTINUOUS
 10
139.9833984375
 20
1519.986083984375
 30
0.0
 40
0.2
  0
CIRCLE
  5
70F
  8
SIZE
  6
CONTINUOUS
 10
139.9833984375
 20
1519.986083984375
 30
0.0
 40
0.1
  0
POINT
  5
710
  8
DEFPOINTS
  6
BYBLOCK
 10
139.9833984375
 20
1675.986083984375
 30
0.0
  0
POINT
  5
711
  8
DEFPOINTS
  6
BYBLOCK
 10
269.9833984375
 20
1675.986083984375
 30
0.0
  0
POINT
  5
712
  8
DEFPOINTS
  6
BYBLOCK
 10
269.9833984375
 20
1519.986083984375
 30
0.0
  0
ENDBLK
  5
713
  8
SIZE
  0
BLOCK
  8
SIZE
  2
*D9
 70
     1
 10
0.0
 20
0.0
 30
0.0
  3
*D9
  1

  0
TEXT
  5
716
  8
SIZE
  6
CONTINUOUS
 10
-1.976581273871803
 20
2230.986230492592
 30
0.0
 40
2.799999952316284
  1
90
 50
0.000002504478167
 41
0.6999999829701011
  7
STANDARD1
  0
LINE
  5
717
  8
SIZE
  6
CONTINUOUS
 10
-45.0165786743164
 20
1870.986083984375
 30
0.0
 11
-45.0165786743164
 21
2231.986328125
 31
0.0
  0
LINE
  5
718
  8
SIZE
  6
CONTINUOUS
 10
44.98342132568359
 20
1870.986083984375
 30
0.0
 11
44.98342132568359
 21
2231.986328125
 31
0.0
  0
LINE
  5
719
  8
SIZE
  6
CONTINUOUS
 10
-45.0165786743164
 20
2229.986328125
 30
0.0
 11
44.98342132568359
 21
2229.986328125
 31
0.0
  0
CIRCLE
  5
71A
  8
SIZE
  6
CONTINUOUS
 10
-45.0165786743164
 20
2229.986328125
 30
0.0
 40
0.5
  0
CIRCLE
  5
71B
  8
SIZE
  6
CONTINUOUS
 10
-45.0165786743164
 20
2229.986328125
 30
0.0
 40
0.4
  0
CIRCLE
  5
71C
  8
SIZE
  6
CONTINUOUS
 10
-45.0165786743164
 20
2229.986328125
 30
0.0
 40
0.3
  0
CIRCLE
  5
71D
  8
SIZE
  6
CONTINUOUS
 10
-45.0165786743164
 20
2229.986328125
 30
0.0
 40
0.2
  0
CIRCLE
  5
71E
  8
SIZE
  6
CONTINUOUS
 10
-45.0165786743164
 20
2229.986328125
 30
0.0
 40
0.1
  0
CIRCLE
  5
71F
  8
SIZE
  6
CONTINUOUS
 10
44.98342132568359
 20
2229.986328125
 30
0.0
 40
0.5
  0
CIRCLE
  5
720
  8
SIZE
  6
CONTINUOUS
 10
44.98342132568359
 20
2229.986328125
 30
0.0
 40
0.4
  0
CIRCLE
  5
721
  8
SIZE
  6
CONTINUOUS
 10
44.98342132568359
 20
2229.986328125
 30
0.0
 40
0.3
  0
CIRCLE
  5
722
  8
SIZE
  6
CONTINUOUS
 10
44.98342132568359
 20
2229.986328125
 30
0.0
 40
0.2
  0
CIRCLE
  5
723
  8
SIZE
  6
CONTINUOUS
 10
44.98342132568359
 20
2229.986328125
 30
0.0
 40
0.1
  0
POINT
  5
724
  8
DEFPOINTS
  6
BYBLOCK
 10
44.98342132568359
 20
1869.986083984375
 30
0.0
  0
POINT
  5
725
  8
DEFPOINTS
  6
BYBLOCK
 10
-45.0165786743164
 20
1869.986083984375
 30
0.0
  0
POINT
  5
726
  8
DEFPOINTS
  6
BYBLOCK
 10
-45.0165786743164
 20
2229.986328125
 30
0.0
  0
ENDBLK
  5
727
  8
SIZE
  0
BLOCK
  8
SIZE
  2
*D10
 70
     1
 10
0.0
 20
0.0
 30
0.0
  3
*D10
  1

  0
TEXT
  5
72A
  8
SIZE
  6
CONTINUOUS
 10
963.9833739995955
 20
97.04608929475515
 30
0.0
 40
2.799999952316284
  1
200
 50
90.00000500895634
 41
0.6999999829701011
  7
STANDARD1
  0
LINE
  5
72B
  8
SIZE
  6
CONTINUOUS
 10
315.9833984375
 20
199.986083984375
 30
0.0
 11
966.9833984374999
 21
199.986083984375
 31
0.0
  0
LINE
  5
72C
  8
SIZE
  6
CONTINUOUS
 10
964.9833984375
 20
-0.013914418406785
 30
0.0
 11
964.9833984375
 21
199.986083984375
 31
0.0
  0
CIRCLE
  5
72D
  8
SIZE
  6
CONTINUOUS
 10
964.9833984375
 20
-0.013914418406785
 30
0.0
 40
0.5
  0
CIRCLE
  5
72E
  8
SIZE
  6
CONTINUOUS
 10
964.9833984375
 20
-0.013914418406785
 30
0.0
 40
0.4
  0
CIRCLE
  5
72F
  8
SIZE
  6
CONTINUOUS
 10
964.9833984375
 20
-0.013914418406785
 30
0.0
 40
0.3
  0
CIRCLE
  5
730
  8
SIZE
  6
CONTINUOUS
 10
964.9833984375
 20
-0.013914418406785
 30
0.0
 40
0.2
  0
CIRCLE
  5
731
  8
SIZE
  6
CONTINUOUS
 10
964.9833984375
 20
-0.013914418406785
 30
0.0
 40
0.1
  0
CIRCLE
  5
732
  8
SIZE
  6
CONTINUOUS
 10
964.9833984375
 20
199.986083984375
 30
0.0
 40
0.5
  0
CIRCLE
  5
733
  8
SIZE
  6
CONTINUOUS
 10
964.9833984375
 20
199.986083984375
 30
0.0
 40
0.4
  0
CIRCLE
  5
734
  8
SIZE
  6
CONTINUOUS
 10
964.9833984375
 20
199.986083984375
 30
0.0
 40
0.3
  0
CIRCLE
  5
735
  8
SIZE
  6
CONTINUOUS
 10
964.9833984375
 20
199.986083984375
 30
0.0
 40
0.2
  0
CIRCLE
  5
736
  8
SIZE
  6
CONTINUOUS
 10
964.9833984375
 20
199.986083984375
 30
0.0
 40
0.1
  0
POINT
  5
737
  8
DEFPOINTS
  6
BYBLOCK
 10
314.9833984375001
 20
199.986083984375
 30
0.0
  0
POINT
  5
738
  8
DEFPOINTS
  6
BYBLOCK
 10
309.9833984375
 20
-0.013914418406785
 30
0.0
  0
POINT
  5
739
  8
DEFPOINTS
  6
BYBLOCK
 10
964.9833984375
 20
-0.013914418406785
 30
0.0
  0
ENDBLK
  5
73A
  8
SIZE
  0
BLOCK
  8
SIZE
  2
*D11
 70
     1
 10
0.0
 20
0.0
 30
0.0
  3
*D11
  1

  0
TEXT
  5
73D
  8
SIZE
  6
CONTINUOUS
 10
963.9833739995955
 20
1011.06610119661
 30
0.0
 40
2.799999952316284
  1
1630
 50
90.00000500895634
 41
0.6999999829701011
  7
STANDARD1
  0
LINE
  5
73E
  8
SIZE
  6
CONTINUOUS
 10
315.9833984375
 20
199.986083984375
 30
0.0
 11
966.9833984374999
 21
199.986083984375
 31
0.0
  0
LINE
  5
73F
  8
SIZE
  6
CONTINUOUS
 10
315.9833984375
 20
1829.986083984375
 30
0.0
 11
966.9833984374999
 21
1829.986083984375
 31
0.0
  0
LINE
  5
740
  8
SIZE
  6
CONTINUOUS
 10
964.9833984375
 20
199.986083984375
 30
0.0
 11
964.9833984375
 21
1829.986083984375
 31
0.0
  0
CIRCLE
  5
741
  8
SIZE
  6
CONTINUOUS
 10
964.9833984375
 20
199.986083984375
 30
0.0
 40
0.5
  0
CIRCLE
  5
742
  8
SIZE
  6
CONTINUOUS
 10
964.9833984375
 20
199.986083984375
 30
0.0
 40
0.4
  0
CIRCLE
  5
743
  8
SIZE
  6
CONTINUOUS
 10
964.9833984375
 20
199.986083984375
 30
0.0
 40
0.3
  0
CIRCLE
  5
744
  8
SIZE
  6
CONTINUOUS
 10
964.9833984375
 20
199.986083984375
 30
0.0
 40
0.2
  0
CIRCLE
  5
745
  8
SIZE
  6
CONTINUOUS
 10
964.9833984375
 20
199.986083984375
 30
0.0
 40
0.1
  0
CIRCLE
  5
746
  8
SIZE
  6
CONTINUOUS
 10
964.9833984375
 20
1829.986083984375
 30
0.0
 40
0.5
  0
CIRCLE
  5
747
  8
SIZE
  6
CONTINUOUS
 10
964.9833984375
 20
1829.986083984375
 30
0.0
 40
0.4
  0
CIRCLE
  5
748
  8
SIZE
  6
CONTINUOUS
 10
964.9833984375
 20
1829.986083984375
 30
0.0
 40
0.3
  0
CIRCLE
  5
749
  8
SIZE
  6
CONTINUOUS
 10
964.9833984375
 20
1829.986083984375
 30
0.0
 40
0.2
  0
CIRCLE
  5
74A
  8
SIZE
  6
CONTINUOUS
 10
964.9833984375
 20
1829.986083984375
 30
0.0
 40
0.1
  0
POINT
  5
74B
  8
DEFPOINTS
  6
BYBLOCK
 10
314.9833984375001
 20
1829.986083984375
 30
0.0
  0
POINT
  5
74C
  8
DEFPOINTS
  6
BYBLOCK
 10
314.9833984375001
 20
199.986083984375
 30
0.0
  0
POINT
  5
74D
  8
DEFPOINTS
  6
BYBLOCK
 10
964.9833984375
 20
199.986083984375
 30
0.0
  0
ENDBLK
  5
74E
  8
SIZE
  0
BLOCK
  8
SIZE
  2
*D12
 70
     1
 10
0.0
 20
0.0
 30
0.0
  3
*D12
  1

  0
TEXT
  5
751
  8
SIZE
  6
CONTINUOUS
 10
-388.5973204954447
 20
502.9860779047012
 30
0.0
 40
2.799999952316284
  1
30
 50
0.000002504478167
 41
0.6999999829701011
  7
STANDARD1
  0
LINE
  5
752
  8
SIZE
  6
CONTINUOUS
 10
-389.9973144531249
 20
501.986083984375
 30
0.0
 11
-280.0166015625
 21
501.986083984375
 31
0.0
  0
CIRCLE
  5
753
  8
SIZE
  6
CONTINUOUS
 10
-315.0166015624999
 20
501.986083984375
 30
0.0
 40
0.5
  0
CIRCLE
  5
754
  8
SIZE
  6
CONTINUOUS
 10
-315.0166015624999
 20
501.986083984375
 30
0.0
 40
0.4
  0
CIRCLE
  5
755
  8
SIZE
  6
CONTINUOUS
 10
-315.0166015624999
 20
501.986083984375
 30
0.0
 40
0.3
  0
CIRCLE
  5
756
  8
SIZE
  6
CONTINUOUS
 10
-315.0166015624999
 20
501.986083984375
 30
0.0
 40
0.2
  0
CIRCLE
  5
757
  8
SIZE
  6
CONTINUOUS
 10
-315.0166015624999
 20
501.986083984375
 30
0.0
 40
0.1
  0
CIRCLE
  5
758
  8
SIZE
  6
CONTINUOUS
 10
-285.0166015625
 20
501.986083984375
 30
0.0
 40
0.5
  0
CIRCLE
  5
759
  8
SIZE
  6
CONTINUOUS
 10
-285.0166015625
 20
501.986083984375
 30
0.0
 40
0.4
  0
CIRCLE
  5
75A
  8
SIZE
  6
CONTINUOUS
 10
-285.0166015625
 20
501.986083984375
 30
0.0
 40
0.3
  0
CIRCLE
  5
75B
  8
SIZE
  6
CONTINUOUS
 10
-285.0166015625
 20
501.986083984375
 30
0.0
 40
0.2
  0
CIRCLE
  5
75C
  8
SIZE
  6
CONTINUOUS
 10
-285.0166015625
 20
501.986083984375
 30
0.0
 40
0.1
  0
POINT
  5
75D
  8
DEFPOINTS
  6
BYBLOCK
 10
-285.0166015625
 20
439.986083984375
 30
0.0
  0
POINT
  5
75E
  8
DEFPOINTS
  6
BYBLOCK
 10
-315.0166015624999
 20
195.986083984375
 30
0.0
  0
POINT
  5
75F
  8
DEFPOINTS
  6
BYBLOCK
 10
-315.0166015624999
 20
501.986083984375
 30
0.0
  0
ENDBLK
  5
760
  8
SIZE
  0
BLOCK
  8
SIZE
  2
*D13
 70
     1
 10
0.0
 20
0.0
 30
0.0
  3
*D13
  1

  0
TEXT
  5
763
  8
SIZE
  6
CONTINUOUS
 10
-766.0166260004042
 20
541.5460816653605
 30
0.0
 40
2.799999952316284
  1
225
 50
90.00000500895634
 41
0.6999999829701011
  7
STANDARD1
  0
LINE
  5
764
  8
SIZE
  6
CONTINUOUS
 10
-278.0166015625
 20
431.986083984375
 30
0.0
 11
-767.0166015625
 21
431.986083984375
 31
0.0
  0
LINE
  5
765
  8
SIZE
  6
CONTINUOUS
 10
-274.0166015625
 20
656.986083984375
 30
0.0
 11
-767.0166015625
 21
656.986083984375
 31
0.0
  0
LINE
  5
766
  8
SIZE
  6
CONTINUOUS
 10
-765.0166015625
 20
431.986083984375
 30
0.0
 11
-765.0166015625
 21
656.986083984375
 31
0.0
  0
CIRCLE
  5
767
  8
SIZE
  6
CONTINUOUS
 10
-765.0166015625
 20
431.986083984375
 30
0.0
 40
0.5
  0
CIRCLE
  5
768
  8
SIZE
  6
CONTINUOUS
 10
-765.0166015625
 20
431.986083984375
 30
0.0
 40
0.4
  0
CIRCLE
  5
769
  8
SIZE
  6
CONTINUOUS
 10
-765.0166015625
 20
431.986083984375
 30
0.0
 40
0.3
  0
CIRCLE
  5
76A
  8
SIZE
  6
CONTINUOUS
 10
-765.0166015625
 20
431.986083984375
 30
0.0
 40
0.2
  0
CIRCLE
  5
76B
  8
SIZE
  6
CONTINUOUS
 10
-765.0166015625
 20
431.986083984375
 30
0.0
 40
0.1
  0
CIRCLE
  5
76C
  8
SIZE
  6
CONTINUOUS
 10
-765.0166015625
 20
656.986083984375
 30
0.0
 40
0.5
  0
CIRCLE
  5
76D
  8
SIZE
  6
CONTINUOUS
 10
-765.0166015625
 20
656.986083984375
 30
0.0
 40
0.4
  0
CIRCLE
  5
76E
  8
SIZE
  6
CONTINUOUS
 10
-765.0166015625
 20
656.986083984375
 30
0.0
 40
0.3
  0
CIRCLE
  5
76F
  8
SIZE
  6
CONTINUOUS
 10
-765.0166015625
 20
656.986083984375
 30
0.0
 40
0.2
  0
CIRCLE
  5
770
  8
SIZE
  6
CONTINUOUS
 10
-765.0166015625
 20
656.986083984375
 30
0.0
 40
0.1
  0
POINT
  5
771
  8
DEFPOINTS
  6
BYBLOCK
 10
-273.0166015625
 20
656.986083984375
 30
0.0
  0
POINT
  5
772
  8
DEFPOINTS
  6
BYBLOCK
 10
-277.0166015625
 20
431.986083984375
 30
0.0
  0
POINT
  5
773
  8
DEFPOINTS
  6
BYBLOCK
 10
-765.0166015625
 20
431.986083984375
 30
0.0
  0
ENDBLK
  5
774
  8
SIZE
  0
BLOCK
  8
SIZE
  2
*D14
 70
     1
 10
0.0
 20
0.0
 30
0.0
  3
*D14
  1

  0
TEXT
  5
777
  8
SIZE
  6
CONTINUOUS
 10
-205.4566039427103
 20
887.9861084222794
 30
0.0
 40
2.799999952316284
  1
157
 50
0.000002504478167
 41
0.6999999829701011
  7
STANDARD1
  0
LINE
  5
778
  8
SIZE
  6
CONTINUOUS
 10
-281.0166015625
 20
779.9860839843749
 30
0.0
 11
-281.0166015625
 21
888.986083984375
 31
0.0
  0
LINE
  5
779
  8
SIZE
  6
CONTINUOUS
 10
-124.0165863037109
 20
779.9860839843749
 30
0.0
 11
-124.0165863037109
 21
888.986083984375
 31
0.0
  0
LINE
  5
77A
  8
SIZE
  6
CONTINUOUS
 10
-281.0166015625
 20
886.9860839843751
 30
0.0
 11
-124.0165863037109
 21
886.9860839843751
 31
0.0
  0
CIRCLE
  5
77B
  8
SIZE
  6
CONTINUOUS
 10
-281.0166015625
 20
886.9860839843751
 30
0.0
 40
0.5
  0
CIRCLE
  5
77C
  8
SIZE
  6
CONTINUOUS
 10
-281.0166015625
 20
886.9860839843751
 30
0.0
 40
0.4
  0
CIRCLE
  5
77D
  8
SIZE
  6
CONTINUOUS
 10
-281.0166015625
 20
886.9860839843751
 30
0.0
 40
0.3
  0
CIRCLE
  5
77E
  8
SIZE
  6
CONTINUOUS
 10
-281.0166015625
 20
886.9860839843751
 30
0.0
 40
0.2
  0
CIRCLE
  5
77F
  8
SIZE
  6
CONTINUOUS
 10
-281.0166015625
 20
886.9860839843751
 30
0.0
 40
0.1
  0
CIRCLE
  5
780
  8
SIZE
  6
CONTINUOUS
 10
-124.0165863037109
 20
886.9860839843751
 30
0.0
 40
0.5
  0
CIRCLE
  5
781
  8
SIZE
  6
CONTINUOUS
 10
-124.0165863037109
 20
886.9860839843751
 30
0.0
 40
0.4
  0
CIRCLE
  5
782
  8
SIZE
  6
CONTINUOUS
 10
-124.0165863037109
 20
886.9860839843751
 30
0.0
 40
0.3
  0
CIRCLE
  5
783
  8
SIZE
  6
CONTINUOUS
 10
-124.0165863037109
 20
886.9860839843751
 30
0.0
 40
0.2
  0
CIRCLE
  5
784
  8
SIZE
  6
CONTINUOUS
 10
-124.0165863037109
 20
886.9860839843751
 30
0.0
 40
0.1
  0
POINT
  5
785
  8
DEFPOINTS
  6
BYBLOCK
 10
-124.0165863037109
 20
778.986083984375
 30
0.0
  0
POINT
  5
786
  8
DEFPOINTS
  6
BYBLOCK
 10
-281.0166015625
 20
778.986083984375
 30
0.0
  0
POINT
  5
787
  8
DEFPOINTS
  6
BYBLOCK
 10
-281.0166015625
 20
886.9860839843751
 30
0.0
  0
ENDBLK
  5
788
  8
SIZE
  0
BLOCK
  8
SIZE
  2
*D15
 70
     1
 10
0.0
 20
0.0
 30
0.0
  3
*D15
  1

  0
TEXT
  5
78B
  8
SIZE
  6
CONTINUOUS
 10
-398.9541320188822
 20
887.9861084222794
 30
0.0
 40
2.799999952316284
  1
34
 50
0.000002504478167
 41
0.6999999829701011
  7
STANDARD1
  0
LINE
  5
78C
  8
SIZE
  6
CONTINUOUS
 10
-281.0166015625
 20
779.9860839843749
 30
0.0
 11
-281.0166015625
 21
888.986083984375
 31
0.0
  0
LINE
  5
78D
  8
SIZE
  6
CONTINUOUS
 10
-276.0166015625
 20
886.9860839843751
 30
0.0
 11
-400.3541259765625
 21
886.9860839843751
 31
0.0
  0
CIRCLE
  5
78E
  8
SIZE
  6
CONTINUOUS
 10
-281.0166015625
 20
886.9860839843751
 30
0.0
 40
0.5
  0
CIRCLE
  5
78F
  8
SIZE
  6
CONTINUOUS
 10
-281.0166015625
 20
886.9860839843751
 30
0.0
 40
0.4
  0
CIRCLE
  5
790
  8
SIZE
  6
CONTINUOUS
 10
-281.0166015625
 20
886.9860839843751
 30
0.0
 40
0.3
  0
CIRCLE
  5
791
  8
SIZE
  6
CONTINUOUS
 10
-281.0166015625
 20
886.9860839843751
 30
0.0
 40
0.2
  0
CIRCLE
  5
792
  8
SIZE
  6
CONTINUOUS
 10
-281.0166015625
 20
886.9860839843751
 30
0.0
 40
0.1
  0
CIRCLE
  5
793
  8
SIZE
  6
CONTINUOUS
 10
-315.0166015624999
 20
886.9860839843751
 30
0.0
 40
0.5
  0
CIRCLE
  5
794
  8
SIZE
  6
CONTINUOUS
 10
-315.0166015624999
 20
886.9860839843751
 30
0.0
 40
0.4
  0
CIRCLE
  5
795
  8
SIZE
  6
CONTINUOUS
 10
-315.0166015624999
 20
886.9860839843751
 30
0.0
 40
0.3
  0
CIRCLE
  5
796
  8
SIZE
  6
CONTINUOUS
 10
-315.0166015624999
 20
886.9860839843751
 30
0.0
 40
0.2
  0
CIRCLE
  5
797
  8
SIZE
  6
CONTINUOUS
 10
-315.0166015624999
 20
886.9860839843751
 30
0.0
 40
0.1
  0
POINT
  5
798
  8
DEFPOINTS
  6
BYBLOCK
 10
-315.0166015624999
 20
195.986083984375
 30
0.0
  0
POINT
  5
799
  8
DEFPOINTS
  6
BYBLOCK
 10
-281.0166015625
 20
778.986083984375
 30
0.0
  0
POINT
  5
79A
  8
DEFPOINTS
  6
BYBLOCK
 10
-281.0166015625
 20
886.9860839843751
 30
0.0
  0
ENDBLK
  5
79B
  8
SIZE
  0
BLOCK
  8
SIZE
  2
*D16
 70
     1
 10
0.0
 20
0.0
 30
0.0
  3
*D16
  1

  0
TEXT
  5
79E
  8
SIZE
  6
CONTINUOUS
 10
-766.0166260004042
 20
719.0460816653605
 30
0.0
 40
2.799999952316284
  1
130
 50
90.00000500895634
 41
0.6999999829701011
  7
STANDARD1
  0
LINE
  5
79F
  8
SIZE
  6
CONTINUOUS
 10
-274.0166015625
 20
656.986083984375
 30
0.0
 11
-767.0166015625
 21
656.986083984375
 31
0.0
  0
LINE
  5
7A0
  8
SIZE
  6
CONTINUOUS
 10
-274.0166015625
 20
786.986083984375
 30
0.0
 11
-767.0166015625
 21
786.986083984375
 31
0.0
  0
LINE
  5
7A1
  8
SIZE
  6
CONTINUOUS
 10
-765.0166015625
 20
656.986083984375
 30
0.0
 11
-765.0166015625
 21
786.986083984375
 31
0.0
  0
CIRCLE
  5
7A2
  8
SIZE
  6
CONTINUOUS
 10
-765.0166015625
 20
656.986083984375
 30
0.0
 40
0.5
  0
CIRCLE
  5
7A3
  8
SIZE
  6
CONTINUOUS
 10
-765.0166015625
 20
656.986083984375
 30
0.0
 40
0.4
  0
CIRCLE
  5
7A4
  8
SIZE
  6
CONTINUOUS
 10
-765.0166015625
 20
656.986083984375
 30
0.0
 40
0.3
  0
CIRCLE
  5
7A5
  8
SIZE
  6
CONTINUOUS
 10
-765.0166015625
 20
656.986083984375
 30
0.0
 40
0.2
  0
CIRCLE
  5
7A6
  8
SIZE
  6
CONTINUOUS
 10
-765.0166015625
 20
656.986083984375
 30
0.0
 40
0.1
  0
CIRCLE
  5
7A7
  8
SIZE
  6
CONTINUOUS
 10
-765.0166015625
 20
786.986083984375
 30
0.0
 40
0.5
  0
CIRCLE
  5
7A8
  8
SIZE
  6
CONTINUOUS
 10
-765.0166015625
 20
786.986083984375
 30
0.0
 40
0.4
  0
CIRCLE
  5
7A9
  8
SIZE
  6
CONTINUOUS
 10
-765.0166015625
 20
786.986083984375
 30
0.0
 40
0.3
  0
CIRCLE
  5
7AA
  8
SIZE
  6
CONTINUOUS
 10
-765.0166015625
 20
786.986083984375
 30
0.0
 40
0.2
  0
CIRCLE
  5
7AB
  8
SIZE
  6
CONTINUOUS
 10
-765.0166015625
 20
786.986083984375
 30
0.0
 40
0.1
  0
POINT
  5
7AC
  8
DEFPOINTS
  6
BYBLOCK
 10
-273.0166015625
 20
786.986083984375
 30
0.0
  0
POINT
  5
7AD
  8
DEFPOINTS
  6
BYBLOCK
 10
-273.0166015625
 20
656.986083984375
 30
0.0
  0
POINT
  5
7AE
  8
DEFPOINTS
  6
BYBLOCK
 10
-765.0166015625
 20
656.986083984375
 30
0.0
  0
ENDBLK
  5
7AF
  8
SIZE
  0
BLOCK
  8
SIZE
  2
*D17
 70
     1
 10
0.0
 20
0.0
 30
0.0
  3
*D17
  1

  0
TEXT
  5
7B2
  8
SIZE
  6
CONTINUOUS
 10
-666.0166260004042
 20
197.0460816653606
 30
0.0
 40
2.799999952316284
  1
400
 50
90.00000500895634
 41
0.6999999829701011
  7
STANDARD1
  0
LINE
  5
7B3
  8
SIZE
  6
CONTINUOUS
 10
-316.0166015624999
 20
399.986083984375
 30
0.0
 11
-667.0166015625
 21
399.986083984375
 31
0.0
  0
LINE
  5
7B4
  8
SIZE
  6
CONTINUOUS
 10
-665.0166015625
 20
399.986083984375
 30
0.0
 11
-665.0166015625
 21
-0.013914418406785
 31
0.0
  0
CIRCLE
  5
7B5
  8
SIZE
  6
CONTINUOUS
 10
-665.0166015625
 20
399.986083984375
 30
0.0
 40
0.5
  0
CIRCLE
  5
7B6
  8
SIZE
  6
CONTINUOUS
 10
-665.0166015625
 20
399.986083984375
 30
0.0
 40
0.4
  0
CIRCLE
  5
7B7
  8
SIZE
  6
CONTINUOUS
 10
-665.0166015625
 20
399.986083984375
 30
0.0
 40
0.3
  0
CIRCLE
  5
7B8
  8
SIZE
  6
CONTINUOUS
 10
-665.0166015625
 20
399.986083984375
 30
0.0
 40
0.2
  0
CIRCLE
  5
7B9
  8
SIZE
  6
CONTINUOUS
 10
-665.0166015625
 20
399.986083984375
 30
0.0
 40
0.1
  0
CIRCLE
  5
7BA
  8
SIZE
  6
CONTINUOUS
 10
-665.0166015625
 20
-0.013914418406785
 30
0.0
 40
0.5
  0
CIRCLE
  5
7BB
  8
SIZE
  6
CONTINUOUS
 10
-665.0166015625
 20
-0.013914418406785
 30
0.0
 40
0.4
  0
CIRCLE
  5
7BC
  8
SIZE
  6
CONTINUOUS
 10
-665.0166015625
 20
-0.013914418406785
 30
0.0
 40
0.3
  0
CIRCLE
  5
7BD
  8
SIZE
  6
CONTINUOUS
 10
-665.0166015625
 20
-0.013914418406785
 30
0.0
 40
0.2
  0
CIRCLE
  5
7BE
  8
SIZE
  6
CONTINUOUS
 10
-665.0166015625
 20
-0.013914418406785
 30
0.0
 40
0.1
  0
POINT
  5
7BF
  8
DEFPOINTS
  6
BYBLOCK
 10
-310.0166015625
 20
-0.013914418406785
 30
0.0
  0
POINT
  5
7C0
  8
DEFPOINTS
  6
BYBLOCK
 10
-315.0166015624999
 20
399.986083984375
 30
0.0
  0
POINT
  5
7C1
  8
DEFPOINTS
  6
BYBLOCK
 10
-665.0166015625
 20
399.986083984375
 30
0.0
  0
ENDBLK
  5
7C2
  8
SIZE
  0
BLOCK
  8
SIZE
  2
*D18
 70
     1
 10
0.0
 20
0.0
 30
0.0
  3
*D18
  1

  0
TEXT
  5
7C5
  8
SIZE
  6
CONTINUOUS
 10
124.5434189454733
 20
-349.0139220952988
 30
0.0
 40
2.799999952316284
  1
255
 50
0.000002504478167
 41
0.6999999829701011
  7
STANDARD1
  0
LINE
  5
7C6
  8
SIZE
  6
CONTINUOUS
 10
-0.016581313684583
 20
-51.01391983032225
 30
0.0
 11
-0.016581313684583
 21
-352.0139160156251
 31
0.0
  0
LINE
  5
7C7
  8
SIZE
  6
CONTINUOUS
 10
254.9833984375
 20
338.9860839843749
 30
0.0
 11
254.9833984375
 21
-352.0139160156251
 31
0.0
  0
LINE
  5
7C8
  8
SIZE
  6
CONTINUOUS
 10
-0.016581313684583
 20
-350.0139160156251
 30
0.0
 11
254.9833984375
 21
-350.0139160156251
 31
0.0
  0
CIRCLE
  5
7C9
  8
SIZE
  6
CONTINUOUS
 10
-0.016581313684583
 20
-350.0139160156251
 30
0.0
 40
0.5
  0
CIRCLE
  5
7CA
  8
SIZE
  6
CONTINUOUS
 10
-0.016581313684583
 20
-350.0139160156251
 30
0.0
 40
0.4
  0
CIRCLE
  5
7CB
  8
SIZE
  6
CONTINUOUS
 10
-0.016581313684583
 20
-350.0139160156251
 30
0.0
 40
0.3
  0
CIRCLE
  5
7CC
  8
SIZE
  6
CONTINUOUS
 10
-0.016581313684583
 20
-350.0139160156251
 30
0.0
 40
0.2
  0
CIRCLE
  5
7CD
  8
SIZE
  6
CONTINUOUS
 10
-0.016581313684583
 20
-350.0139160156251
 30
0.0
 40
0.1
  0
CIRCLE
  5
7CE
  8
SIZE
  6
CONTINUOUS
 10
254.9833984375
 20
-350.0139160156251
 30
0.0
 40
0.5
  0
CIRCLE
  5
7CF
  8
SIZE
  6
CONTINUOUS
 10
254.9833984375
 20
-350.0139160156251
 30
0.0
 40
0.4
  0
CIRCLE
  5
7D0
  8
SIZE
  6
CONTINUOUS
 10
254.9833984375
 20
-350.0139160156251
 30
0.0
 40
0.3
  0
CIRCLE
  5
7D1
  8
SIZE
  6
CONTINUOUS
 10
254.9833984375
 20
-350.0139160156251
 30
0.0
 40
0.2
  0
CIRCLE
  5
7D2
  8
SIZE
  6
CONTINUOUS
 10
254.9833984375
 20
-350.0139160156251
 30
0.0
 40
0.1
  0
POINT
  5
7D3
  8
DEFPOINTS
  6
BYBLOCK
 10
254.9833984375
 20
339.9860839843749
 30
0.0
  0
POINT
  5
7D4
  8
DEFPOINTS
  6
BYBLOCK
 10
-0.016581313684583
 20
-50.01391983032226
 30
0.0
  0
POINT
  5
7D5
  8
DEFPOINTS
  6
BYBLOCK
 10
-0.016581313684583
 20
-350.0139160156251
 30
0.0
  0
ENDBLK
  5
7D6
  8
SIZE
  0
BLOCK
  8
SIZE
  2
*D19
 70
     1
 10
0.0
 20
0.0
 30
0.0
  3
*D19
  1

  0
TEXT
  5
7D9
  8
SIZE
  6
CONTINUOUS
 10
-866.0166260004042
 20
922.5661011966106
 30
0.0
 40
2.799999952316284
  1
1853
 50
90.00000500895634
 41
0.6999999829701011
  7
STANDARD1
  0
LINE
  5
7DA
  8
SIZE
  6
CONTINUOUS
 10
-51.0165786743164
 20
1852.986083984375
 30
0.0
 11
-867.0166015625
 21
1852.986083984375
 31
0.0
  0
LINE
  5
7DB
  8
SIZE
  6
CONTINUOUS
 10
-865.0166015625
 20
-0.013914418406785
 30
0.0
 11
-865.0166015625
 21
1852.986083984375
 31
0.0
  0
CIRCLE
  5
7DC
  8
SIZE
  6
CONTINUOUS
 10
-865.0166015625
 20
-0.013914418406785
 30
0.0
 40
0.5
  0
CIRCLE
  5
7DD
  8
SIZE
  6
CONTINUOUS
 10
-865.0166015625
 20
-0.013914418406785
 30
0.0
 40
0.4
  0
CIRCLE
  5
7DE
  8
SIZE
  6
CONTINUOUS
 10
-865.0166015625
 20
-0.013914418406785
 30
0.0
 40
0.3
  0
CIRCLE
  5
7DF
  8
SIZE
  6
CONTINUOUS
 10
-865.0166015625
 20
-0.013914418406785
 30
0.0
 40
0.2
  0
CIRCLE
  5
7E0
  8
SIZE
  6
CONTINUOUS
 10
-865.0166015625
 20
-0.013914418406785
 30
0.0
 40
0.1
  0
CIRCLE
  5
7E1
  8
SIZE
  6
CONTINUOUS
 10
-865.0166015625
 20
1852.986083984375
 30
0.0
 40
0.5
  0
CIRCLE
  5
7E2
  8
SIZE
  6
CONTINUOUS
 10
-865.0166015625
 20
1852.986083984375
 30
0.0
 40
0.4
  0
CIRCLE
  5
7E3
  8
SIZE
  6
CONTINUOUS
 10
-865.0166015625
 20
1852.986083984375
 30
0.0
 40
0.3
  0
CIRCLE
  5
7E4
  8
SIZE
  6
CONTINUOUS
 10
-865.0166015625
 20
1852.986083984375
 30
0.0
 40
0.2
  0
CIRCLE
  5
7E5
  8
SIZE
  6
CONTINUOUS
 10
-865.0166015625
 20
1852.986083984375
 30
0.0
 40
0.1
  0
POINT
  5
7E6
  8
DEFPOINTS
  6
BYBLOCK
 10
-50.0165786743164
 20
1852.986083984375
 30
0.0
  0
POINT
  5
7E7
  8
DEFPOINTS
  6
BYBLOCK
 10
-310.0166015625
 20
-0.013914418406785
 30
0.0
  0
POINT
  5
7E8
  8
DEFPOINTS
  6
BYBLOCK
 10
-865.0166015625
 20
-0.013914418406785
 30
0.0
  0
ENDBLK
  5
7E9
  8
SIZE
  0
BLOCK
  8
SIZE
  2
*D20
 70
     1
 10
0.0
 20
0.0
 30
0.0
  3
*D20
  1

  0
TEXT
  5
7EC
  8
SIZE
  6
CONTINUOUS
 10
-1.976581273871803
 20
2130.986230492592
 30
0.0
 40
2.799999952316284
  1
60
 50
0.000002504478167
 41
0.6999999829701011
  7
STANDARD1
  0
LINE
  5
7ED
  8
SIZE
  6
CONTINUOUS
 10
-30.01658058166504
 20
1873.986083984375
 30
0.0
 11
-30.01658058166504
 21
2131.986328125
 31
0.0
  0
LINE
  5
7EE
  8
SIZE
  6
CONTINUOUS
 10
29.98341941833496
 20
1873.986083984375
 30
0.0
 11
29.98341941833496
 21
2131.986328125
 31
0.0
  0
LINE
  5
7EF
  8
SIZE
  6
CONTINUOUS
 10
-30.01658058166504
 20
2129.986328125
 30
0.0
 11
29.98341941833496
 21
2129.986328125
 31
0.0
  0
CIRCLE
  5
7F0
  8
SIZE
  6
CONTINUOUS
 10
-30.01658058166504
 20
2129.986328125
 30
0.0
 40
0.5
  0
CIRCLE
  5
7F1
  8
SIZE
  6
CONTINUOUS
 10
-30.01658058166504
 20
2129.986328125
 30
0.0
 40
0.4
  0
CIRCLE
  5
7F2
  8
SIZE
  6
CONTINUOUS
 10
-30.01658058166504
 20
2129.986328125
 30
0.0
 40
0.3
  0
CIRCLE
  5
7F3
  8
SIZE
  6
CONTINUOUS
 10
-30.01658058166504
 20
2129.986328125
 30
0.0
 40
0.2
  0
CIRCLE
  5
7F4
  8
SIZE
  6
CONTINUOUS
 10
-30.01658058166504
 20
2129.986328125
 30
0.0
 40
0.1
  0
CIRCLE
  5
7F5
  8
SIZE
  6
CONTINUOUS
 10
29.98341941833496
 20
2129.986328125
 30
0.0
 40
0.5
  0
CIRCLE
  5
7F6
  8
SIZE
  6
CONTINUOUS
 10
29.98341941833496
 20
2129.986328125
 30
0.0
 40
0.4
  0
CIRCLE
  5
7F7
  8
SIZE
  6
CONTINUOUS
 10
29.98341941833496
 20
2129.986328125
 30
0.0
 40
0.3
  0
CIRCLE
  5
7F8
  8
SIZE
  6
CONTINUOUS
 10
29.98341941833496
 20
2129.986328125
 30
0.0
 40
0.2
  0
CIRCLE
  5
7F9
  8
SIZE
  6
CONTINUOUS
 10
29.98341941833496
 20
2129.986328125
 30
0.0
 40
0.1
  0
POINT
  5
7FA
  8
DEFPOINTS
  6
BYBLOCK
 10
29.98341941833496
 20
1872.986083984375
 30
0.0
  0
POINT
  5
7FB
  8
DEFPOINTS
  6
BYBLOCK
 10
-30.01658058166504
 20
1872.986083984375
 30
0.0
  0
POINT
  5
7FC
  8
DEFPOINTS
  6
BYBLOCK
 10
-30.01658058166504
 20
2129.986328125
 30
0.0
  0
ENDBLK
  5
7FD
  8
SIZE
  0
BLOCK
  8
SIZE
  2
*D21
 70
     1
 10
0.0
 20
0.0
 30
0.0
  3
*D21
  1

  0
TEXT
  5
800
  8
SIZE
  6
CONTINUOUS
 10
-1.026555238562965
 20
-549.0138915777206
 30
0.0
 40
2.799999952316284
  1
496
 50
0.000002504478167
 41
0.6999999829701011
  7
STANDARD1
  0
LINE
  5
801
  8
SIZE
  6
CONTINUOUS
 10
247.9833984375
 20
-21.01391410827637
 30
0.0
 11
247.9833984375
 21
-552.0139160156248
 31
0.0
  0
LINE
  5
802
  8
SIZE
  6
CONTINUOUS
 10
-248.0166015625
 20
-21.01391410827637
 30
0.0
 11
-248.0166015625
 21
-552.0139160156248
 31
0.0
  0
LINE
  5
803
  8
SIZE
  6
CONTINUOUS
 10
247.9833984375
 20
-550.0139160156249
 30
0.0
 11
-248.0166015625
 21
-550.0139160156249
 31
0.0
  0
CIRCLE
  5
804
  8
SIZE
  6
CONTINUOUS
 10
247.9833984375
 20
-550.0139160156249
 30
0.0
 40
0.5
  0
CIRCLE
  5
805
  8
SIZE
  6
CONTINUOUS
 10
247.9833984375
 20
-550.0139160156249
 30
0.0
 40
0.4
  0
CIRCLE
  5
806
  8
SIZE
  6
CONTINUOUS
 10
247.9833984375
 20
-550.0139160156249
 30
0.0
 40
0.3
  0
CIRCLE
  5
807
  8
SIZE
  6
CONTINUOUS
 10
247.9833984375
 20
-550.0139160156249
 30
0.0
 40
0.2
  0
CIRCLE
  5
808
  8
SIZE
  6
CONTINUOUS
 10
247.9833984375
 20
-550.0139160156249
 30
0.0
 40
0.1
  0
CIRCLE
  5
809
  8
SIZE
  6
CONTINUOUS
 10
-248.0166015625
 20
-550.0139160156249
 30
0.0
 40
0.5
  0
CIRCLE
  5
80A
  8
SIZE
  6
CONTINUOUS
 10
-248.0166015625
 20
-550.0139160156249
 30
0.0
 40
0.4
  0
CIRCLE
  5
80B
  8
SIZE
  6
CONTINUOUS
 10
-248.0166015625
 20
-550.0139160156249
 30
0.0
 40
0.3
  0
CIRCLE
  5
80C
  8
SIZE
  6
CONTINUOUS
 10
-248.0166015625
 20
-550.0139160156249
 30
0.0
 40
0.2
  0
CIRCLE
  5
80D
  8
SIZE
  6
CONTINUOUS
 10
-248.0166015625
 20
-550.0139160156249
 30
0.0
 40
0.1
  0
POINT
  5
80E
  8
DEFPOINTS
  6
BYBLOCK
 10
-248.0166015625
 20
-20.01391410827637
 30
0.0
  0
POINT
  5
80F
  8
DEFPOINTS
  6
BYBLOCK
 10
247.9833984375
 20
-20.01391410827637
 30
0.0
  0
POINT
  5
810
  8
DEFPOINTS
  6
BYBLOCK
 10
247.9833984375
 20
-550.0139160156249
 30
0.0
  0
ENDBLK
  5
811
  8
SIZE
  0
BLOCK
  8
SIZE
  2
*D22
 70
     1
 10
0.0
 20
0.0
 30
0.0
  3
*D22
  1

  0
TEXT
  5
814
  8
SIZE
  6
CONTINUOUS
 10
-96.95658868392124
 20
-249.0139220952988
 30
0.0
 40
2.799999952316284
  1
188
 50
0.000002504478167
 41
0.6999999829701011
  7
STANDARD1
  0
LINE
  5
815
  8
SIZE
  6
CONTINUOUS
 10
-0.016581313684583
 20
-51.01391983032225
 30
0.0
 11
-0.016581313684583
 21
-252.013916015625
 31
0.0
  0
LINE
  5
816
  8
SIZE
  6
CONTINUOUS
 10
-188.0166015625
 20
133.986083984375
 30
0.0
 11
-188.0166015625
 21
-252.013916015625
 31
0.0
  0
LINE
  5
817
  8
SIZE
  6
CONTINUOUS
 10
-0.016581313684583
 20
-250.013916015625
 30
0.0
 11
-188.0166015625
 21
-250.013916015625
 31
0.0
  0
CIRCLE
  5
818
  8
SIZE
  6
CONTINUOUS
 10
-0.016581313684583
 20
-250.013916015625
 30
0.0
 40
0.5
  0
CIRCLE
  5
819
  8
SIZE
  6
CONTINUOUS
 10
-0.016581313684583
 20
-250.013916015625
 30
0.0
 40
0.4
  0
CIRCLE
  5
81A
  8
SIZE
  6
CONTINUOUS
 10
-0.016581313684583
 20
-250.013916015625
 30
0.0
 40
0.3
  0
CIRCLE
  5
81B
  8
SIZE
  6
CONTINUOUS
 10
-0.016581313684583
 20
-250.013916015625
 30
0.0
 40
0.2
  0
CIRCLE
  5
81C
  8
SIZE
  6
CONTINUOUS
 10
-0.016581313684583
 20
-250.013916015625
 30
0.0
 40
0.1
  0
CIRCLE
  5
81D
  8
SIZE
  6
CONTINUOUS
 10
-188.0166015625
 20
-250.013916015625
 30
0.0
 40
0.5
  0
CIRCLE
  5
81E
  8
SIZE
  6
CONTINUOUS
 10
-188.0166015625
 20
-250.013916015625
 30
0.0
 40
0.4
  0
CIRCLE
  5
81F
  8
SIZE
  6
CONTINUOUS
 10
-188.0166015625
 20
-250.013916015625
 30
0.0
 40
0.3
  0
CIRCLE
  5
820
  8
SIZE
  6
CONTINUOUS
 10
-188.0166015625
 20
-250.013916015625
 30
0.0
 40
0.2
  0
CIRCLE
  5
821
  8
SIZE
  6
CONTINUOUS
 10
-188.0166015625
 20
-250.013916015625
 30
0.0
 40
0.1
  0
POINT
  5
822
  8
DEFPOINTS
  6
BYBLOCK
 10
-188.0166015625
 20
134.986083984375
 30
0.0
  0
POINT
  5
823
  8
DEFPOINTS
  6
BYBLOCK
 10
-0.016581313684583
 20
-50.01391983032226
 30
0.0
  0
POINT
  5
824
  8
DEFPOINTS
  6
BYBLOCK
 10
-0.016581313684583
 20
-250.013916015625
 30
0.0
  0
ENDBLK
  5
825
  8
SIZE
  0
BLOCK
  8
SIZE
  2
*D23
 70
     1
 10
0.0
 20
0.0
 30
0.0
  3
*D23
  1

  0
TEXT
  5
828
  8
SIZE
  6
CONTINUOUS
 10
-466.016564965248
 20
74.54608929475518
 30
0.0
 40
2.799999952316284
  1
155
 50
90.00000500895634
 41
0.6999999829701011
  7
STANDARD1
  0
LINE
  5
829
  8
SIZE
  6
CONTINUOUS
 10
-209.0166015625
 20
154.986083984375
 30
0.0
 11
-467.0165710449218
 21
154.986083984375
 31
0.0
  0
LINE
  5
82A
  8
SIZE
  6
CONTINUOUS
 10
-465.0165710449218
 20
154.986083984375
 30
0.0
 11
-465.0165710449218
 21
-0.013914418406785
 31
0.0
  0
CIRCLE
  5
82B
  8
SIZE
  6
CONTINUOUS
 10
-465.0165710449218
 20
154.986083984375
 30
0.0
 40
0.5
  0
CIRCLE
  5
82C
  8
SIZE
  6
CONTINUOUS
 10
-465.0165710449218
 20
154.986083984375
 30
0.0
 40
0.4
  0
CIRCLE
  5
82D
  8
SIZE
  6
CONTINUOUS
 10
-465.0165710449218
 20
154.986083984375
 30
0.0
 40
0.3
  0
CIRCLE
  5
82E
  8
SIZE
  6
CONTINUOUS
 10
-465.0165710449218
 20
154.986083984375
 30
0.0
 40
0.2
  0
CIRCLE
  5
82F
  8
SIZE
  6
CONTINUOUS
 10
-465.0165710449218
 20
154.986083984375
 30
0.0
 40
0.1
  0
CIRCLE
  5
830
  8
SIZE
  6
CONTINUOUS
 10
-465.0165710449218
 20
-0.013914418406785
 30
0.0
 40
0.5
  0
CIRCLE
  5
831
  8
SIZE
  6
CONTINUOUS
 10
-465.0165710449218
 20
-0.013914418406785
 30
0.0
 40
0.4
  0
CIRCLE
  5
832
  8
SIZE
  6
CONTINUOUS
 10
-465.0165710449218
 20
-0.013914418406785
 30
0.0
 40
0.3
  0
CIRCLE
  5
833
  8
SIZE
  6
CONTINUOUS
 10
-465.0165710449218
 20
-0.013914418406785
 30
0.0
 40
0.2
  0
CIRCLE
  5
834
  8
SIZE
  6
CONTINUOUS
 10
-465.0165710449218
 20
-0.013914418406785
 30
0.0
 40
0.1
  0
POINT
  5
835
  8
DEFPOINTS
  6
BYBLOCK
 10
-310.0166015625
 20
-0.013914418406785
 30
0.0
  0
POINT
  5
836
  8
DEFPOINTS
  6
BYBLOCK
 10
-208.0166015625
 20
154.986083984375
 30
0.0
  0
POINT
  5
837
  8
DEFPOINTS
  6
BYBLOCK
 10
-465.0165710449218
 20
154.986083984375
 30
0.0
  0
ENDBLK
  5
838
  8
SIZE
  0
BLOCK
  8
SIZE
  2
*D24
 70
     1
 10
0.0
 20
0.0
 30
0.0
  3
*D24
  1

  0
TEXT
  5
83B
  8
SIZE
  6
CONTINUOUS
 10
51.05496603409634
 20
-249.0139220952988
 30
0.0
 40
2.799999952316284
  1
108
 50
0.000002504478167
 41
0.6999999829701011
  7
STANDARD1
  0
LINE
  5
83C
  8
SIZE
  6
CONTINUOUS
 10
-0.016581313684583
 20
-51.01391983032225
 30
0.0
 11
-0.016581313684583
 21
-252.013916015625
 31
0.0
  0
LINE
  5
83D
  8
SIZE
  6
CONTINUOUS
 10
108.0065002441406
 20
151.486083984375
 30
0.0
 11
108.0065002441406
 21
-252.013916015625
 31
0.0
  0
LINE
  5
83E
  8
SIZE
  6
CONTINUOUS
 10
-0.016581313684583
 20
-250.013916015625
 30
0.0
 11
108.0065002441406
 21
-250.013916015625
 31
0.0
  0
CIRCLE
  5
83F
  8
SIZE
  6
CONTINUOUS
 10
-0.016581313684583
 20
-250.013916015625
 30
0.0
 40
0.5
  0
CIRCLE
  5
840
  8
SIZE
  6
CONTINUOUS
 10
-0.016581313684583
 20
-250.013916015625
 30
0.0
 40
0.4
  0
CIRCLE
  5
841
  8
SIZE
  6
CONTINUOUS
 10
-0.016581313684583
 20
-250.013916015625
 30
0.0
 40
0.3
  0
CIRCLE
  5
842
  8
SIZE
  6
CONTINUOUS
 10
-0.016581313684583
 20
-250.013916015625
 30
0.0
 40
0.2
  0
CIRCLE
  5
843
  8
SIZE
  6
CONTINUOUS
 10
-0.016581313684583
 20
-250.013916015625
 30
0.0
 40
0.1
  0
CIRCLE
  5
844
  8
SIZE
  6
CONTINUOUS
 10
108.0065002441406
 20
-250.013916015625
 30
0.0
 40
0.5
  0
CIRCLE
  5
845
  8
SIZE
  6
CONTINUOUS
 10
108.0065002441406
 20
-250.013916015625
 30
0.0
 40
0.4
  0
CIRCLE
  5
846
  8
SIZE
  6
CONTINUOUS
 10
108.0065002441406
 20
-250.013916015625
 30
0.0
 40
0.3
  0
CIRCLE
  5
847
  8
SIZE
  6
CONTINUOUS
 10
108.0065002441406
 20
-250.013916015625
 30
0.0
 40
0.2
  0
CIRCLE
  5
848
  8
SIZE
  6
CONTINUOUS
 10
108.0065002441406
 20
-250.013916015625
 30
0.0
 40
0.1
  0
POINT
  5
849
  8
DEFPOINTS
  6
BYBLOCK
 10
108.0065002441406
 20
152.486083984375
 30
0.0
  0
POINT
  5
84A
  8
DEFPOINTS
  6
BYBLOCK
 10
-0.016581313684583
 20
-50.01391983032226
 30
0.0
  0
POINT
  5
84B
  8
DEFPOINTS
  6
BYBLOCK
 10
-0.016581313684583
 20
-250.013916015625
 30
0.0
  0
ENDBLK
  5
84C
  8
SIZE
  0
BLOCK
  8
SIZE
  2
*D25
 70
     1
 10
0.0
 20
0.0
 30
0.0
  3
*D25
  1

  0
TEXT
  5
84F
  8
SIZE
  6
CONTINUOUS
 10
463.9834350347519
 20
83.29608929475518
 30
0.0
 40
2.799999952316284
  1
173
 50
90.00000500895634
 41
0.6999999829701011
  7
STANDARD1
  0
LINE
  5
850
  8
SIZE
  6
CONTINUOUS
 10
129.0065155029297
 20
172.486083984375
 30
0.0
 11
466.983428955078
 21
172.486083984375
 31
0.0
  0
LINE
  5
851
  8
SIZE
  6
CONTINUOUS
 10
464.983428955078
 20
172.486083984375
 30
0.0
 11
464.983428955078
 21
-0.013914418406785
 31
0.0
  0
CIRCLE
  5
852
  8
SIZE
  6
CONTINUOUS
 10
464.983428955078
 20
172.486083984375
 30
0.0
 40
0.5
  0
CIRCLE
  5
853
  8
SIZE
  6
CONTINUOUS
 10
464.983428955078
 20
172.486083984375
 30
0.0
 40
0.4
  0
CIRCLE
  5
854
  8
SIZE
  6
CONTINUOUS
 10
464.983428955078
 20
172.486083984375
 30
0.0
 40
0.3
  0
CIRCLE
  5
855
  8
SIZE
  6
CONTINUOUS
 10
464.983428955078
 20
172.486083984375
 30
0.0
 40
0.2
  0
CIRCLE
  5
856
  8
SIZE
  6
CONTINUOUS
 10
464.983428955078
 20
172.486083984375
 30
0.0
 40
0.1
  0
CIRCLE
  5
857
  8
SIZE
  6
CONTINUOUS
 10
464.983428955078
 20
-0.013914418406785
 30
0.0
 40
0.5
  0
CIRCLE
  5
858
  8
SIZE
  6
CONTINUOUS
 10
464.983428955078
 20
-0.013914418406785
 30
0.0
 40
0.4
  0
CIRCLE
  5
859
  8
SIZE
  6
CONTINUOUS
 10
464.983428955078
 20
-0.013914418406785
 30
0.0
 40
0.3
  0
CIRCLE
  5
85A
  8
SIZE
  6
CONTINUOUS
 10
464.983428955078
 20
-0.013914418406785
 30
0.0
 40
0.2
  0
CIRCLE
  5
85B
  8
SIZE
  6
CONTINUOUS
 10
464.983428955078
 20
-0.013914418406785
 30
0.0
 40
0.1
  0
POINT
  5
85C
  8
DEFPOINTS
  6
BYBLOCK
 10
267.9833984375
 20
-0.013914418406785
 30
0.0
  0
POINT
  5
85D
  8
DEFPOINTS
  6
BYBLOCK
 10
128.0065155029297
 20
172.486083984375
 30
0.0
  0
POINT
  5
85E
  8
DEFPOINTS
  6
BYBLOCK
 10
464.983428955078
 20
172.486083984375
 30
0.0
  0
ENDBLK
  5
85F
  8
SIZE
  0
BLOCK
  8
SIZE
  2
*D26
 70
     1
 10
0.0
 20
0.0
 30
0.0
  3
*D26
  1

  0
TEXT
  5
862
  8
SIZE
  6
CONTINUOUS
 10
663.9833739995956
 20
177.0460816653606
 30
0.0
 40
2.799999952316284
  1
360
 50
90.00000500895634
 41
0.6999999829701011
  7
STANDARD1
  0
LINE
  5
863
  8
SIZE
  6
CONTINUOUS
 10
275.9833984375
 20
359.986083984375
 30
0.0
 11
666.9833984374999
 21
359.986083984375
 31
0.0
  0
LINE
  5
864
  8
SIZE
  6
CONTINUOUS
 10
664.9833984375
 20
359.986083984375
 30
0.0
 11
664.9833984375
 21
-0.013914418406785
 31
0.0
  0
CIRCLE
  5
865
  8
SIZE
  6
CONTINUOUS
 10
664.9833984375
 20
359.986083984375
 30
0.0
 40
0.5
  0
CIRCLE
  5
866
  8
SIZE
  6
CONTINUOUS
 10
664.9833984375
 20
359.986083984375
 30
0.0
 40
0.4
  0
CIRCLE
  5
867
  8
SIZE
  6
CONTINUOUS
 10
664.9833984375
 20
359.986083984375
 30
0.0
 40
0.3
  0
CIRCLE
  5
868
  8
SIZE
  6
CONTINUOUS
 10
664.9833984375
 20
359.986083984375
 30
0.0
 40
0.2
  0
CIRCLE
  5
869
  8
SIZE
  6
CONTINUOUS
 10
664.9833984375
 20
359.986083984375
 30
0.0
 40
0.1
  0
CIRCLE
  5
86A
  8
SIZE
  6
CONTINUOUS
 10
664.9833984375
 20
-0.013914418406785
 30
0.0
 40
0.5
  0
CIRCLE
  5
86B
  8
SIZE
  6
CONTINUOUS
 10
664.9833984375
 20
-0.013914418406785
 30
0.0
 40
0.4
  0
CIRCLE
  5
86C
  8
SIZE
  6
CONTINUOUS
 10
664.9833984375
 20
-0.013914418406785
 30
0.0
 40
0.3
  0
CIRCLE
  5
86D
  8
SIZE
  6
CONTINUOUS
 10
664.9833984375
 20
-0.013914418406785
 30
0.0
 40
0.2
  0
CIRCLE
  5
86E
  8
SIZE
  6
CONTINUOUS
 10
664.9833984375
 20
-0.013914418406785
 30
0.0
 40
0.1
  0
POINT
  5
86F
  8
DEFPOINTS
  6
BYBLOCK
 10
274.9833984375
 20
-0.013914418406785
 30
0.0
  0
POINT
  5
870
  8
DEFPOINTS
  6
BYBLOCK
 10
274.9833984375
 20
359.986083984375
 30
0.0
  0
POINT
  5
871
  8
DEFPOINTS
  6
BYBLOCK
 10
664.9833984375
 20
359.986083984375
 30
0.0
  0
ENDBLK
  5
872
  8
SIZE
  0
BLOCK
  8
SIZE
  2
*D27
 70
     1
 10
0.0
 20
0.0
 30
0.0
  3
*D27
  1

  0
TEXT
  5
875
  8
SIZE
  6
CONTINUOUS
 10
763.9833739995955
 20
197.0460816653606
 30
0.0
 40
2.799999952316284
  1
400
 50
90.00000500895634
 41
0.6999999829701011
  7
STANDARD1
  0
LINE
  5
876
  8
SIZE
  6
CONTINUOUS
 10
315.9833984375
 20
399.986083984375
 30
0.0
 11
766.9833984374999
 21
399.986083984375
 31
0.0
  0
LINE
  5
877
  8
SIZE
  6
CONTINUOUS
 10
764.9833984375
 20
399.986083984375
 30
0.0
 11
764.9833984375
 21
-0.013914418406785
 31
0.0
  0
CIRCLE
  5
878
  8
SIZE
  6
CONTINUOUS
 10
764.9833984375
 20
399.986083984375
 30
0.0
 40
0.5
  0
CIRCLE
  5
879
  8
SIZE
  6
CONTINUOUS
 10
764.9833984375
 20
399.986083984375
 30
0.0
 40
0.4
  0
CIRCLE
  5
87A
  8
SIZE
  6
CONTINUOUS
 10
764.9833984375
 20
399.986083984375
 30
0.0
 40
0.3
  0
CIRCLE
  5
87B
  8
SIZE
  6
CONTINUOUS
 10
764.9833984375
 20
399.986083984375
 30
0.0
 40
0.2
  0
CIRCLE
  5
87C
  8
SIZE
  6
CONTINUOUS
 10
764.9833984375
 20
399.986083984375
 30
0.0
 40
0.1
  0
CIRCLE
  5
87D
  8
SIZE
  6
CONTINUOUS
 10
764.9833984375
 20
-0.013914418406785
 30
0.0
 40
0.5
  0
CIRCLE
  5
87E
  8
SIZE
  6
CONTINUOUS
 10
764.9833984375
 20
-0.013914418406785
 30
0.0
 40
0.4
  0
CIRCLE
  5
87F
  8
SIZE
  6
CONTINUOUS
 10
764.9833984375
 20
-0.013914418406785
 30
0.0
 40
0.3
  0
CIRCLE
  5
880
  8
SIZE
  6
CONTINUOUS
 10
764.9833984375
 20
-0.013914418406785
 30
0.0
 40
0.2
  0
CIRCLE
  5
881
  8
SIZE
  6
CONTINUOUS
 10
764.9833984375
 20
-0.013914418406785
 30
0.0
 40
0.1
  0
POINT
  5
882
  8
DEFPOINTS
  6
BYBLOCK
 10
314.9833984375001
 20
-0.013914418406785
 30
0.0
  0
POINT
  5
883
  8
DEFPOINTS
  6
BYBLOCK
 10
314.9833984375001
 20
399.986083984375
 30
0.0
  0
POINT
  5
884
  8
DEFPOINTS
  6
BYBLOCK
 10
764.9833984375
 20
399.986083984375
 30
0.0
  0
ENDBLK
  5
885
  8
SIZE
  0
BLOCK
  8
SIZE
  2
*D28
 70
     1
 10
0.0
 20
0.0
 30
0.0
  3
*D28
  1

  0
TEXT
  5
888
  8
SIZE
  6
CONTINUOUS
 10
-92.95658868392123
 20
-149.0139220952987
 30
0.0
 40
2.799999952316284
  1
180
 50
0.000002504478167
 41
0.6999999829701011
  7
STANDARD1
  0
LINE
  5
889
  8
SIZE
  6
CONTINUOUS
 10
-0.016581313684583
 20
-51.01391983032225
 30
0.0
 11
-0.016581313684583
 21
-152.013916015625
 31
0.0
  0
LINE
  5
88A
  8
SIZE
  6
CONTINUOUS
 10
-180.0166015625
 20
378.986083984375
 30
0.0
 11
-180.0166015625
 21
-152.013916015625
 31
0.0
  0
LINE
  5
88B
  8
SIZE
  6
CONTINUOUS
 10
-0.016581313684583
 20
-150.013916015625
 30
0.0
 11
-180.0166015625
 21
-150.013916015625
 31
0.0
  0
CIRCLE
  5
88C
  8
SIZE
  6
CONTINUOUS
 10
-0.016581313684583
 20
-150.013916015625
 30
0.0
 40
0.5
  0
CIRCLE
  5
88D
  8
SIZE
  6
CONTINUOUS
 10
-0.016581313684583
 20
-150.013916015625
 30
0.0
 40
0.4
  0
CIRCLE
  5
88E
  8
SIZE
  6
CONTINUOUS
 10
-0.016581313684583
 20
-150.013916015625
 30
0.0
 40
0.3
  0
CIRCLE
  5
88F
  8
SIZE
  6
CONTINUOUS
 10
-0.016581313684583
 20
-150.013916015625
 30
0.0
 40
0.2
  0
CIRCLE
  5
890
  8
SIZE
  6
CONTINUOUS
 10
-0.016581313684583
 20
-150.013916015625
 30
0.0
 40
0.1
  0
CIRCLE
  5
891
  8
SIZE
  6
CONTINUOUS
 10
-180.0166015625
 20
-150.013916015625
 30
0.0
 40
0.5
  0
CIRCLE
  5
892
  8
SIZE
  6
CONTINUOUS
 10
-180.0166015625
 20
-150.013916015625
 30
0.0
 40
0.4
  0
CIRCLE
  5
893
  8
SIZE
  6
CONTINUOUS
 10
-180.0166015625
 20
-150.013916015625
 30
0.0
 40
0.3
  0
CIRCLE
  5
894
  8
SIZE
  6
CONTINUOUS
 10
-180.0166015625
 20
-150.013916015625
 30
0.0
 40
0.2
  0
CIRCLE
  5
895
  8
SIZE
  6
CONTINUOUS
 10
-180.0166015625
 20
-150.013916015625
 30
0.0
 40
0.1
  0
POINT
  5
896
  8
DEFPOINTS
  6
BYBLOCK
 10
-180.0166015625
 20
379.9860839843751
 30
0.0
  0
POINT
  5
897
  8
DEFPOINTS
  6
BYBLOCK
 10
-0.016581313684583
 20
-50.01391983032226
 30
0.0
  0
POINT
  5
898
  8
DEFPOINTS
  6
BYBLOCK
 10
-0.016581313684583
 20
-150.013916015625
 30
0.0
  0
ENDBLK
  5
899
  8
SIZE
  0
BLOCK
  8
SIZE
  2
*D29
 70
     1
 10
0.0
 20
0.0
 30
0.0
  3
*D29
  1

  0
TEXT
  5
89C
  8
SIZE
  6
CONTINUOUS
 10
-140.4566039427103
 20
-449.0139220952988
 30
0.0
 40
2.799999952316284
  1
275
 50
0.000002504478167
 41
0.6999999829701011
  7
STANDARD1
  0
LINE
  5
89D
  8
SIZE
  6
CONTINUOUS
 10
-0.016581313684583
 20
-51.01391983032225
 30
0.0
 11
-0.016581313684583
 21
-452.0139160156249
 31
0.0
  0
LINE
  5
89E
  8
SIZE
  6
CONTINUOUS
 10
-275.0166015625
 20
378.986083984375
 30
0.0
 11
-275.0166015625
 21
-452.0139160156249
 31
0.0
  0
LINE
  5
89F
  8
SIZE
  6
CONTINUOUS
 10
-0.016581313684583
 20
-450.0139160156249
 30
0.0
 11
-275.0166015625
 21
-450.0139160156249
 31
0.0
  0
CIRCLE
  5
8A0
  8
SIZE
  6
CONTINUOUS
 10
-0.016581313684583
 20
-450.0139160156249
 30
0.0
 40
0.5
  0
CIRCLE
  5
8A1
  8
SIZE
  6
CONTINUOUS
 10
-0.016581313684583
 20
-450.0139160156249
 30
0.0
 40
0.4
  0
CIRCLE
  5
8A2
  8
SIZE
  6
CONTINUOUS
 10
-0.016581313684583
 20
-450.0139160156249
 30
0.0
 40
0.3
  0
CIRCLE
  5
8A3
  8
SIZE
  6
CONTINUOUS
 10
-0.016581313684583
 20
-450.0139160156249
 30
0.0
 40
0.2
  0
CIRCLE
  5
8A4
  8
SIZE
  6
CONTINUOUS
 10
-0.016581313684583
 20
-450.0139160156249
 30
0.0
 40
0.1
  0
CIRCLE
  5
8A5
  8
SIZE
  6
CONTINUOUS
 10
-275.0166015625
 20
-450.0139160156249
 30
0.0
 40
0.5
  0
CIRCLE
  5
8A6
  8
SIZE
  6
CONTINUOUS
 10
-275.0166015625
 20
-450.0139160156249
 30
0.0
 40
0.4
  0
CIRCLE
  5
8A7
  8
SIZE
  6
CONTINUOUS
 10
-275.0166015625
 20
-450.0139160156249
 30
0.0
 40
0.3
  0
CIRCLE
  5
8A8
  8
SIZE
  6
CONTINUOUS
 10
-275.0166015625
 20
-450.0139160156249
 30
0.0
 40
0.2
  0
CIRCLE
  5
8A9
  8
SIZE
  6
CONTINUOUS
 10
-275.0166015625
 20
-450.0139160156249
 30
0.0
 40
0.1
  0
POINT
  5
8AA
  8
DEFPOINTS
  6
BYBLOCK
 10
-275.0166015625
 20
379.9860839843751
 30
0.0
  0
POINT
  5
8AB
  8
DEFPOINTS
  6
BYBLOCK
 10
-0.016581313684583
 20
-50.01391983032226
 30
0.0
  0
POINT
  5
8AC
  8
DEFPOINTS
  6
BYBLOCK
 10
-0.016581313684583
 20
-450.0139160156249
 30
0.0
  0
ENDBLK
  5
8AD
  8
SIZE
  0
BLOCK
  8
SIZE
  2
*D30
 70
     1
 10
0.0
 20
0.0
 30
0.0
  3
*D30
  1

  0
TEXT
  5
8B0
  8
SIZE
  6
CONTINUOUS
 10
-566.0166260004042
 20
157.0460816653606
 30
0.0
 40
2.799999952316284
  1
320
 50
90.00000500895634
 41
0.6999999829701011
  7
STANDARD1
  0
LINE
  5
8B1
  8
SIZE
  6
CONTINUOUS
 10
-251.0166015625
 20
319.9860839843749
 30
0.0
 11
-567.0166015625
 21
319.9860839843749
 31
0.0
  0
LINE
  5
8B2
  8
SIZE
  6
CONTINUOUS
 10
-565.0166015625
 20
319.9860839843749
 30
0.0
 11
-565.0166015625
 21
-0.013914418406785
 31
0.0
  0
CIRCLE
  5
8B3
  8
SIZE
  6
CONTINUOUS
 10
-565.0166015625
 20
319.9860839843749
 30
0.0
 40
0.5
  0
CIRCLE
  5
8B4
  8
SIZE
  6
CONTINUOUS
 10
-565.0166015625
 20
319.9860839843749
 30
0.0
 40
0.4
  0
CIRCLE
  5
8B5
  8
SIZE
  6
CONTINUOUS
 10
-565.0166015625
 20
319.9860839843749
 30
0.0
 40
0.3
  0
CIRCLE
  5
8B6
  8
SIZE
  6
CONTINUOUS
 10
-565.0166015625
 20
319.9860839843749
 30
0.0
 40
0.2
  0
CIRCLE
  5
8B7
  8
SIZE
  6
CONTINUOUS
 10
-565.0166015625
 20
319.9860839843749
 30
0.0
 40
0.1
  0
CIRCLE
  5
8B8
  8
SIZE
  6
CONTINUOUS
 10
-565.0166015625
 20
-0.013914418406785
 30
0.0
 40
0.5
  0
CIRCLE
  5
8B9
  8
SIZE
  6
CONTINUOUS
 10
-565.0166015625
 20
-0.013914418406785
 30
0.0
 40
0.4
  0
CIRCLE
  5
8BA
  8
SIZE
  6
CONTINUOUS
 10
-565.0166015625
 20
-0.013914418406785
 30
0.0
 40
0.3
  0
CIRCLE
  5
8BB
  8
SIZE
  6
CONTINUOUS
 10
-565.0166015625
 20
-0.013914418406785
 30
0.0
 40
0.2
  0
CIRCLE
  5
8BC
  8
SIZE
  6
CONTINUOUS
 10
-565.0166015625
 20
-0.013914418406785
 30
0.0
 40
0.1
  0
POINT
  5
8BD
  8
DEFPOINTS
  6
BYBLOCK
 10
-310.0166015625
 20
-0.013914418406785
 30
0.0
  0
POINT
  5
8BE
  8
DEFPOINTS
  6
BYBLOCK
 10
-250.0166015625
 20
319.9860839843749
 30
0.0
  0
POINT
  5
8BF
  8
DEFPOINTS
  6
BYBLOCK
 10
-565.0166015625
 20
319.9860839843749
 30
0.0
  0
ENDBLK
  5
8C0
  8
SIZE
  0
BLOCK
  8
SIZE
  2
*D31
 70
     1
 10
0.0
 20
0.0
 30
0.0
  3
*D31
  1

  0
TEXT
  5
8C3
  8
SIZE
  6
CONTINUOUS
 10
-117.9565886839212
 20
-349.0139220952988
 30
0.0
 40
2.799999952316284
  1
230
 50
0.000002504478167
 41
0.6999999829701011
  7
STANDARD1
  0
LINE
  5
8C4
  8
SIZE
  6
CONTINUOUS
 10
-0.016581313684583
 20
-51.01391983032225
 30
0.0
 11
-0.016581313684583
 21
-352.0139160156251
 31
0.0
  0
LINE
  5
8C5
  8
SIZE
  6
CONTINUOUS
 10
-230.0166015625
 20
298.9860839843749
 30
0.0
 11
-230.0166015625
 21
-352.0139160156251
 31
0.0
  0
LINE
  5
8C6
  8
SIZE
  6
CONTINUOUS
 10
-0.016581313684583
 20
-350.0139160156251
 30
0.0
 11
-230.0166015625
 21
-350.0139160156251
 31
0.0
  0
CIRCLE
  5
8C7
  8
SIZE
  6
CONTINUOUS
 10
-0.016581313684583
 20
-350.0139160156251
 30
0.0
 40
0.5
  0
CIRCLE
  5
8C8
  8
SIZE
  6
CONTINUOUS
 10
-0.016581313684583
 20
-350.0139160156251
 30
0.0
 40
0.4
  0
CIRCLE
  5
8C9
  8
SIZE
  6
CONTINUOUS
 10
-0.016581313684583
 20
-350.0139160156251
 30
0.0
 40
0.3
  0
CIRCLE
  5
8CA
  8
SIZE
  6
CONTINUOUS
 10
-0.016581313684583
 20
-350.0139160156251
 30
0.0
 40
0.2
  0
CIRCLE
  5
8CB
  8
SIZE
  6
CONTINUOUS
 10
-0.016581313684583
 20
-350.0139160156251
 30
0.0
 40
0.1
  0
CIRCLE
  5
8CC
  8
SIZE
  6
CONTINUOUS
 10
-230.0166015625
 20
-350.0139160156251
 30
0.0
 40
0.5
  0
CIRCLE
  5
8CD
  8
SIZE
  6
CONTINUOUS
 10
-230.0166015625
 20
-350.0139160156251
 30
0.0
 40
0.4
  0
CIRCLE
  5
8CE
  8
SIZE
  6
CONTINUOUS
 10
-230.0166015625
 20
-350.0139160156251
 30
0.0
 40
0.3
  0
CIRCLE
  5
8CF
  8
SIZE
  6
CONTINUOUS
 10
-230.0166015625
 20
-350.0139160156251
 30
0.0
 40
0.2
  0
CIRCLE
  5
8D0
  8
SIZE
  6
CONTINUOUS
 10
-230.0166015625
 20
-350.0139160156251
 30
0.0
 40
0.1
  0
POINT
  5
8D1
  8
DEFPOINTS
  6
BYBLOCK
 10
-230.0166015625
 20
299.986083984375
 30
0.0
  0
POINT
  5
8D2
  8
DEFPOINTS
  6
BYBLOCK
 10
-0.016581313684583
 20
-50.01391983032226
 30
0.0
  0
POINT
  5
8D3
  8
DEFPOINTS
  6
BYBLOCK
 10
-0.016581313684583
 20
-350.0139160156251
 30
0.0
  0
ENDBLK
  5
8D4
  8
SIZE
  0
BLOCK
  8
SIZE
  2
*D32
 70
     1
 10
0.0
 20
0.0
 30
0.0
  3
*D32
  1

  0
TEXT
  5
8D7
  8
SIZE
  6
CONTINUOUS
 10
563.9833739995956
 20
157.0460816653606
 30
0.0
 40
2.799999952316284
  1
320
 50
90.00000500895634
 41
0.6999999829701011
  7
STANDARD1
  0
LINE
  5
8D8
  8
SIZE
  6
CONTINUOUS
 10
90.98341369628906
 20
319.9860839843749
 30
0.0
 11
566.9833984374999
 21
319.9860839843749
 31
0.0
  0
LINE
  5
8D9
  8
SIZE
  6
CONTINUOUS
 10
564.9833984375
 20
319.9860839843749
 30
0.0
 11
564.9833984375
 21
-0.013914418406785
 31
0.0
  0
CIRCLE
  5
8DA
  8
SIZE
  6
CONTINUOUS
 10
564.9833984375
 20
319.9860839843749
 30
0.0
 40
0.5
  0
CIRCLE
  5
8DB
  8
SIZE
  6
CONTINUOUS
 10
564.9833984375
 20
319.9860839843749
 30
0.0
 40
0.4
  0
CIRCLE
  5
8DC
  8
SIZE
  6
CONTINUOUS
 10
564.9833984375
 20
319.9860839843749
 30
0.0
 40
0.3
  0
CIRCLE
  5
8DD
  8
SIZE
  6
CONTINUOUS
 10
564.9833984375
 20
319.9860839843749
 30
0.0
 40
0.2
  0
CIRCLE
  5
8DE
  8
SIZE
  6
CONTINUOUS
 10
564.9833984375
 20
319.9860839843749
 30
0.0
 40
0.1
  0
CIRCLE
  5
8DF
  8
SIZE
  6
CONTINUOUS
 10
564.9833984375
 20
-0.013914418406785
 30
0.0
 40
0.5
  0
CIRCLE
  5
8E0
  8
SIZE
  6
CONTINUOUS
 10
564.9833984375
 20
-0.013914418406785
 30
0.0
 40
0.4
  0
CIRCLE
  5
8E1
  8
SIZE
  6
CONTINUOUS
 10
564.9833984375
 20
-0.013914418406785
 30
0.0
 40
0.3
  0
CIRCLE
  5
8E2
  8
SIZE
  6
CONTINUOUS
 10
564.9833984375
 20
-0.013914418406785
 30
0.0
 40
0.2
  0
CIRCLE
  5
8E3
  8
SIZE
  6
CONTINUOUS
 10
564.9833984375
 20
-0.013914418406785
 30
0.0
 40
0.1
  0
POINT
  5
8E4
  8
DEFPOINTS
  6
BYBLOCK
 10
309.9833984375
 20
-0.013914418406785
 30
0.0
  0
POINT
  5
8E5
  8
DEFPOINTS
  6
BYBLOCK
 10
89.98341369628906
 20
319.9860839843749
 30
0.0
  0
POINT
  5
8E6
  8
DEFPOINTS
  6
BYBLOCK
 10
564.9833984375
 20
319.9860839843749
 30
0.0
  0
ENDBLK
  5
8E7
  8
SIZE
  0
BLOCK
  8
SIZE
  2
*D33
 70
     1
 10
0.0
 20
0.0
 30
0.0
  3
*D33
  1

  0
TEXT
  5
8EA
  8
SIZE
  6
CONTINUOUS
 10
33.02342230240689
 20
-149.0139220952987
 30
0.0
 40
2.799999952316284
  1
70
 50
0.000002504478167
 41
0.6999999829701011
  7
STANDARD1
  0
LINE
  5
8EB
  8
SIZE
  6
CONTINUOUS
 10
-0.016581313684583
 20
-51.01391983032225
 30
0.0
 11
-0.016581313684583
 21
-152.013916015625
 31
0.0
  0
LINE
  5
8EC
  8
SIZE
  6
CONTINUOUS
 10
69.98341369628906
 20
298.9860839843749
 30
0.0
 11
69.98341369628906
 21
-152.013916015625
 31
0.0
  0
LINE
  5
8ED
  8
SIZE
  6
CONTINUOUS
 10
-0.016581313684583
 20
-150.013916015625
 30
0.0
 11
69.98341369628906
 21
-150.013916015625
 31
0.0
  0
CIRCLE
  5
8EE
  8
SIZE
  6
CONTINUOUS
 10
-0.016581313684583
 20
-150.013916015625
 30
0.0
 40
0.5
  0
CIRCLE
  5
8EF
  8
SIZE
  6
CONTINUOUS
 10
-0.016581313684583
 20
-150.013916015625
 30
0.0
 40
0.4
  0
CIRCLE
  5
8F0
  8
SIZE
  6
CONTINUOUS
 10
-0.016581313684583
 20
-150.013916015625
 30
0.0
 40
0.3
  0
CIRCLE
  5
8F1
  8
SIZE
  6
CONTINUOUS
 10
-0.016581313684583
 20
-150.013916015625
 30
0.0
 40
0.2
  0
CIRCLE
  5
8F2
  8
SIZE
  6
CONTINUOUS
 10
-0.016581313684583
 20
-150.013916015625
 30
0.0
 40
0.1
  0
CIRCLE
  5
8F3
  8
SIZE
  6
CONTINUOUS
 10
69.98341369628906
 20
-150.013916015625
 30
0.0
 40
0.5
  0
CIRCLE
  5
8F4
  8
SIZE
  6
CONTINUOUS
 10
69.98341369628906
 20
-150.013916015625
 30
0.0
 40
0.4
  0
CIRCLE
  5
8F5
  8
SIZE
  6
CONTINUOUS
 10
69.98341369628906
 20
-150.013916015625
 30
0.0
 40
0.3
  0
CIRCLE
  5
8F6
  8
SIZE
  6
CONTINUOUS
 10
69.98341369628906
 20
-150.013916015625
 30
0.0
 40
0.2
  0
CIRCLE
  5
8F7
  8
SIZE
  6
CONTINUOUS
 10
69.98341369628906
 20
-150.013916015625
 30
0.0
 40
0.1
  0
POINT
  5
8F8
  8
DEFPOINTS
  6
BYBLOCK
 10
69.98341369628906
 20
299.986083984375
 30
0.0
  0
POINT
  5
8F9
  8
DEFPOINTS
  6
BYBLOCK
 10
-0.016581313684583
 20
-50.01391983032226
 30
0.0
  0
POINT
  5
8FA
  8
DEFPOINTS
  6
BYBLOCK
 10
-0.016581313684583
 20
-150.013916015625
 30
0.0
  0
ENDBLK
  5
8FB
  8
SIZE
  0
BLOCK
  8
SIZE
  2
*D34
 70
     1
 10
0.0
 20
0.0
 30
0.0
  3
*D34
  1

  0
TEXT
  5
8FE
  8
SIZE
  6
CONTINUOUS
 10
-2.95658129294529
 20
2380.986230492592
 30
0.0
 40
2.799999952316284
  1
630
 50
0.000002504478167
 41
0.6999999829701011
  7
STANDARD1
  0
LINE
  5
8FF
  8
SIZE
  6
CONTINUOUS
 10
-315.0166015624999
 20
2030.986083984375
 30
0.0
 11
-315.0166015624999
 21
2381.986328125
 31
0.0
  0
LINE
  5
900
  8
SIZE
  6
CONTINUOUS
 10
314.9833984375001
 20
2030.986083984375
 30
0.0
 11
314.9833984375001
 21
2381.986328125
 31
0.0
  0
LINE
  5
901
  8
SIZE
  6
CONTINUOUS
 10
-315.0166015624999
 20
2379.986328125001
 30
0.0
 11
314.9833984375001
 21
2379.986328125001
 31
0.0
  0
CIRCLE
  5
902
  8
SIZE
  6
CONTINUOUS
 10
-315.0166015624999
 20
2379.986328125001
 30
0.0
 40
0.5
  0
CIRCLE
  5
903
  8
SIZE
  6
CONTINUOUS
 10
-315.0166015624999
 20
2379.986328125001
 30
0.0
 40
0.4
  0
CIRCLE
  5
904
  8
SIZE
  6
CONTINUOUS
 10
-315.0166015624999
 20
2379.986328125001
 30
0.0
 40
0.3
  0
CIRCLE
  5
905
  8
SIZE
  6
CONTINUOUS
 10
-315.0166015624999
 20
2379.986328125001
 30
0.0
 40
0.2
  0
CIRCLE
  5
906
  8
SIZE
  6
CONTINUOUS
 10
-315.0166015624999
 20
2379.986328125001
 30
0.0
 40
0.1
  0
CIRCLE
  5
907
  8
SIZE
  6
CONTINUOUS
 10
314.9833984375001
 20
2379.986328125001
 30
0.0
 40
0.5
  0
CIRCLE
  5
908
  8
SIZE
  6
CONTINUOUS
 10
314.9833984375001
 20
2379.986328125001
 30
0.0
 40
0.4
  0
CIRCLE
  5
909
  8
SIZE
  6
CONTINUOUS
 10
314.9833984375001
 20
2379.986328125001
 30
0.0
 40
0.3
  0
CIRCLE
  5
90A
  8
SIZE
  6
CONTINUOUS
 10
314.9833984375001
 20
2379.986328125001
 30
0.0
 40
0.2
  0
CIRCLE
  5
90B
  8
SIZE
  6
CONTINUOUS
 10
314.9833984375001
 20
2379.986328125001
 30
0.0
 40
0.1
  0
POINT
  5
90C
  8
DEFPOINTS
  6
BYBLOCK
 10
314.9833984375001
 20
2029.986083984375
 30
0.0
  0
POINT
  5
90D
  8
DEFPOINTS
  6
BYBLOCK
 10
-315.0166015624999
 20
2029.986083984375
 30
0.0
  0
POINT
  5
90E
  8
DEFPOINTS
  6
BYBLOCK
 10
-315.0166015624999
 20
2379.986328125001
 30
0.0
  0
ENDBLK
  5
90F
  8
SIZE
  0
BLOCK
  8
SIZE
  2
*D35
 70
     1
 10
0.0
 20
0.0
 30
0.0
  3
*D35
  1

  0
TEXT
  5
912
  8
SIZE
  6
CONTINUOUS
 10
1063.983373999595
 20
1927.046142700516
 30
0.0
 40
2.799999952316284
  1
200
 50
90.00000500895634
 41
0.6999999829701011
  7
STANDARD1
  0
LINE
  5
913
  8
SIZE
  6
CONTINUOUS
 10
315.9833984375
 20
2029.986083984375
 30
0.0
 11
1066.9833984375
 21
2029.986083984375
 31
0.0
  0
LINE
  5
914
  8
SIZE
  6
CONTINUOUS
 10
315.9833984375
 20
1829.986083984375
 30
0.0
 11
1066.9833984375
 21
1829.986083984375
 31
0.0
  0
LINE
  5
915
  8
SIZE
  6
CONTINUOUS
 10
1064.9833984375
 20
2029.986083984375
 30
0.0
 11
1064.9833984375
 21
1829.986083984375
 31
0.0
  0
CIRCLE
  5
916
  8
SIZE
  6
CONTINUOUS
 10
1064.9833984375
 20
2029.986083984375
 30
0.0
 40
0.5
  0
CIRCLE
  5
917
  8
SIZE
  6
CONTINUOUS
 10
1064.9833984375
 20
2029.986083984375
 30
0.0
 40
0.4
  0
CIRCLE
  5
918
  8
SIZE
  6
CONTINUOUS
 10
1064.9833984375
 20
2029.986083984375
 30
0.0
 40
0.3
  0
CIRCLE
  5
919
  8
SIZE
  6
CONTINUOUS
 10
1064.9833984375
 20
2029.986083984375
 30
0.0
 40
0.2
  0
CIRCLE
  5
91A
  8
SIZE
  6
CONTINUOUS
 10
1064.9833984375
 20
2029.986083984375
 30
0.0
 40
0.1
  0
CIRCLE
  5
91B
  8
SIZE
  6
CONTINUOUS
 10
1064.9833984375
 20
1829.986083984375
 30
0.0
 40
0.5
  0
CIRCLE
  5
91C
  8
SIZE
  6
CONTINUOUS
 10
1064.9833984375
 20
1829.986083984375
 30
0.0
 40
0.4
  0
CIRCLE
  5
91D
  8
SIZE
  6
CONTINUOUS
 10
1064.9833984375
 20
1829.986083984375
 30
0.0
 40
0.3
  0
CIRCLE
  5
91E
  8
SIZE
  6
CONTINUOUS
 10
1064.9833984375
 20
1829.986083984375
 30
0.0
 40
0.2
  0
CIRCLE
  5
91F
  8
SIZE
  6
CONTINUOUS
 10
1064.9833984375
 20
1829.986083984375
 30
0.0
 40
0.1
  0
POINT
  5
920
  8
DEFPOINTS
  6
BYBLOCK
 10
314.9833984375001
 20
1829.986083984375
 30
0.0
  0
POINT
  5
921
  8
DEFPOINTS
  6
BYBLOCK
 10
314.9833984375001
 20
2029.986083984375
 30
0.0
  0
POINT
  5
922
  8
DEFPOINTS
  6
BYBLOCK
 10
1064.9833984375
 20
2029.986083984375
 30
0.0
  0
ENDBLK
  5
923
  8
SIZE
  0
BLOCK
  8
SIZE
  2
*D36
 70
     1
 10
0.0
 20
0.0
 30
0.0
  3
*D36
  1

  0
TEXT
  5
926
  8
SIZE
  6
CONTINUOUS
 10
1.097472848099325
 20
-649.0138915777205
 30
0.0
 40
2.799999952316284
  1
630
 50
0.000002504478167
 41
0.6999999829701011
  7
STANDARD1
  0
LINE
  5
927
  8
SIZE
  6
CONTINUOUS
 10
314.9833984375001
 20
198.986083984375
 30
0.0
 11
314.9833984375001
 21
-652.013916015625
 31
0.0
  0
LINE
  5
928
  8
SIZE
  6
CONTINUOUS
 10
-315.0166015624999
 20
198.986083984375
 30
0.0
 11
-315.0166015624999
 21
-652.013916015625
 31
0.0
  0
LINE
  5
929
  8
SIZE
  6
CONTINUOUS
 10
314.9833984375001
 20
-650.0139160156249
 30
0.0
 11
-315.0166015624999
 21
-650.0139160156249
 31
0.0
  0
CIRCLE
  5
92A
  8
SIZE
  6
CONTINUOUS
 10
314.9833984375001
 20
-650.0139160156249
 30
0.0
 40
0.5
  0
CIRCLE
  5
92B
  8
SIZE
  6
CONTINUOUS
 10
314.9833984375001
 20
-650.0139160156249
 30
0.0
 40
0.4
  0
CIRCLE
  5
92C
  8
SIZE
  6
CONTINUOUS
 10
314.9833984375001
 20
-650.0139160156249
 30
0.0
 40
0.3
  0
CIRCLE
  5
92D
  8
SIZE
  6
CONTINUOUS
 10
314.9833984375001
 20
-650.0139160156249
 30
0.0
 40
0.2
  0
CIRCLE
  5
92E
  8
SIZE
  6
CONTINUOUS
 10
314.9833984375001
 20
-650.0139160156249
 30
0.0
 40
0.1
  0
CIRCLE
  5
92F
  8
SIZE
  6
CONTINUOUS
 10
-315.0166015624999
 20
-650.0139160156249
 30
0.0
 40
0.5
  0
CIRCLE
  5
930
  8
SIZE
  6
CONTINUOUS
 10
-315.0166015624999
 20
-650.0139160156249
 30
0.0
 40
0.4
  0
CIRCLE
  5
931
  8
SIZE
  6
CONTINUOUS
 10
-315.0166015624999
 20
-650.0139160156249
 30
0.0
 40
0.3
  0
CIRCLE
  5
932
  8
SIZE
  6
CONTINUOUS
 10
-315.0166015624999
 20
-650.0139160156249
 30
0.0
 40
0.2
  0
CIRCLE
  5
933
  8
SIZE
  6
CONTINUOUS
 10
-315.0166015624999
 20
-650.0139160156249
 30
0.0
 40
0.1
  0
POINT
  5
934
  8
DEFPOINTS
  6
BYBLOCK
 10
-315.0166015624999
 20
199.986083984375
 30
0.0
  0
POINT
  5
935
  8
DEFPOINTS
  6
BYBLOCK
 10
314.9833984375001
 20
199.986083984375
 30
0.0
  0
POINT
  5
936
  8
DEFPOINTS
  6
BYBLOCK
 10
314.9833984375001
 20
-650.0139160156249
 30
0.0
  0
ENDBLK
  5
937
  8
SIZE
  0
BLOCK
  8
0
  2
_ORIGIN
 70
     0
 10
0.0
 20
0.0
 30
0.0
  3
_ORIGIN
  1

  0
CIRCLE
  5
93A
  8
0
  6
BYBLOCK
 62
     0
 10
0.0
 20
0.0
 30
0.0
 40
0.5
  0
LINE
  5
93B
  8
0
  6
BYBLOCK
 62
     0
 10
0.0
 20
0.0
 30
0.0
 11
-1.0
 21
0.0
 31
0.0
  0
ENDBLK
  5
93C
  8
0
  0
BLOCK
  8
0
  2
*D38
 70
     1
 10
0.0
 20
0.0
 30
0.0
  3
*D38
  1

  0
LINE
  5
93F
  8
SIZE
 62
     0
 10
-315.0166015624999
 20
189.986083984375
 30
0.0
 11
-315.0166015625
 21
-660.1139160394667
 31
0.0
  0
LINE
  5
940
  8
SIZE
 62
     0
 10
314.9833984375001
 20
189.986083984375
 30
0.0
 11
314.9833984375
 21
-660.1139160394667
 31
0.0
  0
LINE
  5
941
  8
SIZE
 62
     0
 10
-305.0166015625
 20
-647.6139160394667
 30
0.0
 11
304.9833984375
 21
-647.6139160394667
 31
0.0
  0
INSERT
  5
942
  8
SIZE
 62
     0
  2
_ORIGIN
 10
-315.0166015625
 20
-647.6139160394667
 30
0.0
 41
10.0
 42
10.0
 43
10.0
 50
180.0
  0
INSERT
  5
943
  8
SIZE
 62
     0
  2
_ORIGIN
 10
314.9833984375
 20
-647.6139160394667
 30
0.0
 41
10.0
 42
10.0
 43
10.0
  0
TEXT
  5
944
  8
SIZE
 62
     0
 10
-38.41252733628139
 20
-637.6139160394667
 30
0.0
 40
30.0
  1
630
 72
     1
 11
4.03747266371861
 21
-637.6139160394667
 31
0.0
  0
POINT
  5
945
  8
DEFPOINTS
 62
     0
 10
-315.0166015624999
 20
199.986083984375
 30
0.0
  0
POINT
  5
946
  8
DEFPOINTS
 62
     0
 10
314.9833984375001
 20
199.986083984375
 30
0.0
  0
POINT
  5
947
  8
DEFPOINTS
 62
     0
 10
314.9833984375
 20
-647.6139160394667
 30
0.0
  0
ENDBLK
  5
948
  8
0
  0
BLOCK
  8
0
  2
*D39
 70
     1
 10
0.0
 20
0.0
 30
0.0
  3
*D39
  1

  0
LINE
  5
94B
  8
SIZE
 62
     0
 10
324.9833984375001
 20
1829.986083984375
 30
0.0
 11
1075.083398461342
 21
1829.986083984375
 31
0.0
  0
LINE
  5
94C
  8
SIZE
 62
     0
 10
324.9833984375001
 20
2029.986083984375
 30
0.0
 11
1075.083398461342
 21
2029.986083984375
 31
0.0
  0
LINE
  5
94D
  8
SIZE
 62
     0
 10
1062.583398461342
 20
1839.986083984374
 30
0.0
 11
1062.583398461342
 21
2019.986083984375
 31
0.0
  0
INSERT
  5
94E
  8
SIZE
 62
     0
  2
_ORIGIN
 10
1062.583398461342
 20
1829.986083984375
 30
0.0
 41
10.0
 42
10.0
 43
10.0
 50
270.0
  0
INSERT
  5
94F
  8
SIZE
 62
     0
  2
_ORIGIN
 10
1062.583398461342
 20
2029.986083984375
 30
0.0
 41
10.0
 42
10.0
 43
10.0
 50
90.0
  0
TEXT
  5
950
  8
SIZE
 62
     0
 10
1052.583398461342
 20
1890.086083861983
 30
0.0
 40
30.0
  1
200
 50
90.0
 72
     1
 11
1052.583398461342
 21
1929.986083861983
 31
0.0
  0
POINT
  5
951
  8
DEFPOINTS
 62
     0
 10
314.9833984375001
 20
1829.986083984375
 30
0.0
  0
POINT
  5
952
  8
DEFPOINTS
 62
     0
 10
314.9833984375001
 20
2029.986083984375
 30
0.0
  0
POINT
  5
953
  8
DEFPOINTS
 62
     0
 10
1062.583398461342
 20
2029.986083984375
 30
0.0
  0
ENDBLK
  5
954
  8
0
  0
BLOCK
  8
0
  2
*D40
 70
     1
 10
0.0
 20
0.0
 30
0.0
  3
*D40
  1

  0
LINE
  5
957
  8
SIZE
 62
     0
 10
314.9833984375001
 20
2039.986083984375
 30
0.0
 11
314.9833984375001
 21
2394.886328101158
 31
0.0
  0
LINE
  5
958
  8
SIZE
 62
     0
 10
-315.0166015624999
 20
2039.986083984375
 30
0.0
 11
-315.0166015624999
 21
2394.886328101158
 31
0.0
  0
LINE
  5
959
  8
SIZE
 62
     0
 10
304.9833984375001
 20
2382.386328101159
 30
0.0
 11
-305.0166015624999
 21
2382.386328101159
 31
0.0
  0
INSERT
  5
95A
  8
SIZE
 62
     0
  2
_ORIGIN
 10
314.9833984375001
 20
2382.386328101159
 30
0.0
 41
10.0
 42
10.0
 43
10.0
  0
INSERT
  5
95B
  8
SIZE
 62
     0
  2
_ORIGIN
 10
-315.0166015624999
 20
2382.386328101159
 30
0.0
 41
10.0
 42
10.0
 43
10.0
 50
180.0
  0
TEXT
  5
95C
  8
SIZE
 62
     0
 10
-42.46658137488053
 20
2392.386328101158
 30
0.0
 40
30.0
  1
630
 72
     1
 11
-0.0165813748805235
 21
2392.386328101158
 31
0.0
  0
POINT
  5
95D
  8
DEFPOINTS
 62
     0
 10
314.9833984375001
 20
2029.986083984375
 30
0.0
  0
POINT
  5
95E
  8
DEFPOINTS
 62
     0
 10
-315.0166015624999
 20
2029.986083984375
 30
0.0
  0
POINT
  5
95F
  8
DEFPOINTS
 62
     0
 10
-315.0166015624999
 20
2382.386328101159
 30
0.0
  0
ENDBLK
  5
960
  8
0
  0
BLOCK
  8
0
  2
*D41
 70
     1
 10
0.0
 20
0.0
 30
0.0
  3
*D41
  1

  0
LINE
  5
963
  8
SIZE
 62
     0
 10
69.98341369628906
 20
289.986083984375
 30
0.0
 11
69.98341369628903
 21
-160.1139160394668
 31
0.0
  0
LINE
  5
964
  8
SIZE
 62
     0
 10
-0.0165813136845836
 20
-60.01391983032226
 30
0.0
 11
-0.0165813136845898
 21
-160.1139160394668
 31
0.0
  0
LINE
  5
965
  8
SIZE
 62
     0
 10
59.98341369628903
 20
-147.6139160394668
 30
0.0
 11
9.98341868631541
 21
-147.6139160394668
 31
0.0
  0
INSERT
  5
966
  8
SIZE
 62
     0
  2
_ORIGIN
 10
69.98341369628903
 20
-147.6139160394668
 30
0.0
 41
10.0
 42
10.0
 43
10.0
  0
INSERT
  5
967
  8
SIZE
 62
     0
  2
_ORIGIN
 10
-0.016581313684589
 20
-147.6139160394668
 30
0.0
 41
10.0
 42
10.0
 43
10.0
 50
180.0
  0
TEXT
  5
968
  8
SIZE
 62
     0
 10
7.53342126448765
 20
-137.6139160394668
 30
0.0
 40
30.0
  1
70
 72
     1
 11
34.98342126448765
 21
-137.6139160394668
 31
0.0
  0
POINT
  5
969
  8
DEFPOINTS
 62
     0
 10
69.98341369628906
 20
299.986083984375
 30
0.0
  0
POINT
  5
96A
  8
DEFPOINTS
 62
     0
 10
-0.016581313684583
 20
-50.01391983032226
 30
0.0
  0
POINT
  5
96B
  8
DEFPOINTS
 62
     0
 10
-0.016581313684589
 20
-147.6139160394668
 30
0.0
  0
ENDBLK
  5
96C
  8
0
  0
BLOCK
  8
0
  2
*D42
 70
     1
 10
0.0
 20
0.0
 30
0.0
  3
*D42
  1

  0
LINE
  5
96F
  8
SIZE
 62
     0
 10
319.9833984375
 20
-0.0139144184067878
 30
0.0
 11
575.0833984613417
 21
-0.0139144184068601
 31
0.0
  0
LINE
  5
970
  8
SIZE
 62
     0
 10
99.98341369628906
 20
319.9860839843749
 30
0.0
 11
575.0833984613417
 21
319.9860839843748
 31
0.0
  0
LINE
  5
971
  8
SIZE
 62
     0
 10
562.5833984613417
 20
9.986085581593144
 30
0.0
 11
562.5833984613417
 21
309.9860839843748
 31
0.0
  0
INSERT
  5
972
  8
SIZE
 62
     0
  2
_ORIGIN
 10
562.5833984613417
 20
-0.0139144184068566
 30
0.0
 41
10.0
 42
10.0
 43
10.0
 50
270.0
  0
INSERT
  5
973
  8
SIZE
 62
     0
  2
_ORIGIN
 10
562.5833984613417
 20
319.9860839843748
 30
0.0
 41
10.0
 42
10.0
 43
10.0
 50
90.0
  0
TEXT
  5
974
  8
SIZE
 62
     0
 10
552.5833984613417
 20
117.536083861983
 30
0.0
 40
30.0
  1
320
 50
90.0
 72
     1
 11
552.5833984613417
 21
159.986083861983
 31
0.0
  0
POINT
  5
975
  8
DEFPOINTS
 62
     0
 10
309.9833984375
 20
-0.013914418406785
 30
0.0
  0
POINT
  5
976
  8
DEFPOINTS
 62
     0
 10
89.98341369628906
 20
319.9860839843749
 30
0.0
  0
POINT
  5
977
  8
DEFPOINTS
 62
     0
 10
562.5833984613417
 20
319.9860839843748
 30
0.0
  0
ENDBLK
  5
978
  8
0
  0
BLOCK
  8
0
  2
*D43
 70
     1
 10
0.0
 20
0.0
 30
0.0
  3
*D43
  1

  0
LINE
  5
97B
  8
SIZE
 62
     0
 10
-230.0166015625
 20
289.986083984375
 30
0.0
 11
-230.0166015625
 21
-360.1139160394669
 31
0.0
  0
LINE
  5
97C
  8
SIZE
 62
     0
 10
-0.0165813136845836
 20
-60.01391983032226
 30
0.0
 11
-0.016581313684602
 21
-360.1139160394668
 31
0.0
  0
LINE
  5
97D
  8
SIZE
 62
     0
 10
-220.0166015625
 20
-347.6139160394668
 30
0.0
 11
-10.0165813136846
 21
-347.6139160394668
 31
0.0
  0
INSERT
  5
97E
  8
SIZE
 62
     0
  2
_ORIGIN
 10
-230.0166015625
 20
-347.6139160394668
 30
0.0
 41
10.0
 42
10.0
 43
10.0
 50
180.0
  0
INSERT
  5
97F
  8
SIZE
 62
     0
  2
_ORIGIN
 10
-0.0165813136846012
 20
-347.6139160394668
 30
0.0
 41
10.0
 42
10.0
 43
10.0
  0
TEXT
  5
980
  8
SIZE
 62
     0
 10
-157.4665863649069
 20
-337.6139160394668
 30
0.0
 40
30.0
  1
230
 72
     1
 11
-115.0165863649069
 21
-337.6139160394668
 31
0.0
  0
POINT
  5
981
  8
DEFPOINTS
 62
     0
 10
-230.0166015625
 20
299.986083984375
 30
0.0
  0
POINT
  5
982
  8
DEFPOINTS
 62
     0
 10
-0.016581313684583
 20
-50.01391983032226
 30
0.0
  0
POINT
  5
983
  8
DEFPOINTS
 62
     0
 10
-0.0165813136846012
 20
-347.6139160394668
 30
0.0
  0
ENDBLK
  5
984
  8
0
  0
BLOCK
  8
0
  2
*D44
 70
     1
 10
0.0
 20
0.0
 30
0.0
  3
*D44
  1

  0
LINE
  5
987
  8
SIZE
 62
     0
 10
-320.0166015624999
 20
-0.0139144184067822
 30
0.0
 11
-579.9166015386581
 21
-0.0139144184067086
 31
0.0
  0
LINE
  5
988
  8
SIZE
 62
     0
 10
-260.0166015625
 20
319.9860839843749
 30
0.0
 11
-579.916601538658
 21
319.986083984375
 31
0.0
  0
LINE
  5
989
  8
SIZE
 62
     0
 10
-567.4166015386581
 20
9.986085581593288
 30
0.0
 11
-567.416601538658
 21
309.986083984375
 31
0.0
  0
INSERT
  5
98A
  8
SIZE
 62
     0
  2
_ORIGIN
 10
-567.4166015386581
 20
-0.0139144184067121
 30
0.0
 41
10.0
 42
10.0
 43
10.0
 50
270.0
  0
INSERT
  5
98B
  8
SIZE
 62
     0
  2
_ORIGIN
 10
-567.416601538658
 20
319.986083984375
 30
0.0
 41
10.0
 42
10.0
 43
10.0
 50
90.0
  0
TEXT
  5
98C
  8
SIZE
 62
     0
 10
-577.4166015386581
 20
117.5360838619829
 30
0.0
 40
30.0
  1
320
 50
90.0
 72
     1
 11
-577.4166015386581
 21
159.986083861983
 31
0.0
  0
POINT
  5
98D
  8
DEFPOINTS
 62
     0
 10
-310.0166015625
 20
-0.013914418406785
 30
0.0
  0
POINT
  5
98E
  8
DEFPOINTS
 62
     0
 10
-250.0166015625
 20
319.9860839843749
 30
0.0
  0
POINT
  5
98F
  8
DEFPOINTS
 62
     0
 10
-567.416601538658
 20
319.986083984375
 30
0.0
  0
ENDBLK
  5
990
  8
0
  0
BLOCK
  8
0
  2
*D45
 70
     1
 10
0.0
 20
0.0
 30
0.0
  3
*D45
  1

  0
LINE
  5
993
  8
SIZE
 62
     0
 10
-275.0166015625
 20
369.9860839843751
 30
0.0
 11
-275.0166015625
 21
-460.1139160394668
 31
0.0
  0
LINE
  5
994
  8
SIZE
 62
     0
 10
-0.0165813136845836
 20
-60.01391983032226
 30
0.0
 11
-0.0165813136846081
 21
-460.1139160394668
 31
0.0
  0
LINE
  5
995
  8
SIZE
 62
     0
 10
-265.0166015625
 20
-447.6139160394668
 30
0.0
 11
-10.0165813136846
 21
-447.6139160394668
 31
0.0
  0
INSERT
  5
996
  8
SIZE
 62
     0
  2
_ORIGIN
 10
-275.0166015625
 20
-447.6139160394668
 30
0.0
 41
10.0
 42
10.0
 43
10.0
 50
180.0
  0
INSERT
  5
997
  8
SIZE
 62
     0
  2
_ORIGIN
 10
-0.0165813136846074
 20
-447.6139160394668
 30
0.0
 41
10.0
 42
10.0
 43
10.0
  0
TEXT
  5
998
  8
SIZE
 62
     0
 10
-182.5166016236959
 20
-437.6139160394668
 30
0.0
 40
30.0
  1
275
 72
     1
 11
-137.5166016236959
 21
-437.6139160394668
 31
0.0
  0
POINT
  5
999
  8
DEFPOINTS
 62
     0
 10
-275.0166015625
 20
379.9860839843751
 30
0.0
  0
POINT
  5
99A
  8
DEFPOINTS
 62
     0
 10
-0.016581313684583
 20
-50.01391983032226
 30
0.0
  0
POINT
  5
99B
  8
DEFPOINTS
 62
     0
 10
-0.0165813136846074
 20
-447.6139160394668
 30
0.0
  0
ENDBLK
  5
99C
  8
0
  0
BLOCK
  8
0
  2
*D46
 70
     1
 10
0.0
 20
0.0
 30
0.0
  3
*D46
  1

  0
LINE
  5
99F
  8
SIZE
 62
     0
 10
-180.0166015625
 20
369.9860839843751
 30
0.0
 11
-180.0166015625
 21
-160.1139160394668
 31
0.0
  0
LINE
  5
9A0
  8
SIZE
 62
     0
 10
-0.0165813136845836
 20
-60.01391983032226
 30
0.0
 11
-0.0165813136845898
 21
-160.1139160394668
 31
0.0
  0
LINE
  5
9A1
  8
SIZE
 62
     0
 10
-170.0166015625
 20
-147.6139160394668
 30
0.0
 11
-10.01658131368459
 21
-147.6139160394668
 31
0.0
  0
INSERT
  5
9A2
  8
SIZE
 62
     0
  2
_ORIGIN
 10
-180.0166015625
 20
-147.6139160394668
 30
0.0
 41
10.0
 42
10.0
 43
10.0
 50
180.0
  0
INSERT
  5
9A3
  8
SIZE
 62
     0
  2
_ORIGIN
 10
-0.016581313684589
 20
-147.6139160394668
 30
0.0
 41
10.0
 42
10.0
 43
10.0
  0
TEXT
  5
9A4
  8
SIZE
 62
     0
 10
-127.2165863649069
 20
-137.6139160394668
 30
0.0
 40
30.0
  1
180
 72
     1
 11
-90.01658636490689
 21
-137.6139160394668
 31
0.0
  0
POINT
  5
9A5
  8
DEFPOINTS
 62
     0
 10
-180.0166015625
 20
379.9860839843751
 30
0.0
  0
POINT
  5
9A6
  8
DEFPOINTS
 62
     0
 10
-0.016581313684583
 20
-50.01391983032226
 30
0.0
  0
POINT
  5
9A7
  8
DEFPOINTS
 62
     0
 10
-0.016581313684589
 20
-147.6139160394668
 30
0.0
  0
ENDBLK
  5
9A8
  8
0
  0
BLOCK
  8
0
  2
*D47
 70
     1
 10
0.0
 20
0.0
 30
0.0
  3
*D47
  1

  0
LINE
  5
9AB
  8
SIZE
 62
     0
 10
324.9833984375001
 20
-0.0139144184067878
 30
0.0
 11
775.0833984613417
 21
-0.0139144184069154
 31
0.0
  0
LINE
  5
9AC
  8
SIZE
 62
     0
 10
324.9833984375001
 20
399.986083984375
 30
0.0
 11
775.0833984613417
 21
399.986083984375
 31
0.0
  0
LINE
  5
9AD
  8
SIZE
 62
     0
 10
762.5833984613417
 20
9.98608558159309
 30
0.0
 11
762.5833984613417
 21
389.986083984375
 31
0.0
  0
INSERT
  5
9AE
  8
SIZE
 62
     0
  2
_ORIGIN
 10
762.5833984613417
 20
-0.0139144184069118
 30
0.0
 41
10.0
 42
10.0
 43
10.0
 50
270.0
  0
INSERT
  5
9AF
  8
SIZE
 62
     0
  2
_ORIGIN
 10
762.5833984613417
 20
399.986083984375
 30
0.0
 41
10.0
 42
10.0
 43
10.0
 50
90.0
  0
TEXT
  5
9B0
  8
SIZE
 62
     0
 10
752.5833984613417
 20
160.0860838619831
 30
0.0
 40
30.0
  1
400
 50
90.0
 72
     1
 11
752.5833984613417
 21
199.9860838619831
 31
0.0
  0
POINT
  5
9B1
  8
DEFPOINTS
 62
     0
 10
314.9833984375001
 20
-0.013914418406785
 30
0.0
  0
POINT
  5
9B2
  8
DEFPOINTS
 62
     0
 10
314.9833984375001
 20
399.986083984375
 30
0.0
  0
POINT
  5
9B3
  8
DEFPOINTS
 62
     0
 10
762.5833984613417
 20
399.986083984375
 30
0.0
  0
ENDBLK
  5
9B4
  8
0
  0
BLOCK
  8
0
  2
*D48
 70
     1
 10
0.0
 20
0.0
 30
0.0
  3
*D48
  1

  0
LINE
  5
9B7
  8
SIZE
 62
     0
 10
284.9833984375
 20
-0.0139144184067878
 30
0.0
 11
675.0833984613417
 21
-0.0139144184068984
 31
0.0
  0
LINE
  5
9B8
  8
SIZE
 62
     0
 10
284.9833984375
 20
359.986083984375
 30
0.0
 11
675.083398461342
 21
359.9860839843748
 31
0.0
  0
LINE
  5
9B9
  8
SIZE
 62
     0
 10
662.5833984613417
 20
9.986085581593105
 30
0.0
 11
662.583398461342
 21
349.9860839843748
 31
0.0
  0
INSERT
  5
9BA
  8
SIZE
 62
     0
  2
_ORIGIN
 10
662.5833984613417
 20
-0.0139144184068948
 30
0.0
 41
10.0
 42
10.0
 43
10.0
 50
270.0
  0
INSERT
  5
9BB
  8
SIZE
 62
     0
  2
_ORIGIN
 10
662.583398461342
 20
359.9860839843748
 30
0.0
 41
10.0
 42
10.0
 43
10.0
 50
90.0
  0
TEXT
  5
9BC
  8
SIZE
 62
     0
 10
652.5833984613417
 20
137.5360838619831
 30
0.0
 40
30.0
  1
360
 50
90.0
 72
     1
 11
652.5833984613417
 21
179.9860838619831
 31
0.0
  0
POINT
  5
9BD
  8
DEFPOINTS
 62
     0
 10
274.9833984375
 20
-0.013914418406785
 30
0.0
  0
POINT
  5
9BE
  8
DEFPOINTS
 62
     0
 10
274.9833984375
 20
359.986083984375
 30
0.0
  0
POINT
  5
9BF
  8
DEFPOINTS
 62
     0
 10
662.583398461342
 20
359.9860839843748
 30
0.0
  0
ENDBLK
  5
9C0
  8
0
  0
BLOCK
  8
0
  2
*D49
 70
     1
 10
0.0
 20
0.0
 30
0.0
  3
*D49
  1

  0
LINE
  5
9C3
  8
SIZE
 62
     0
 10
277.9833984375
 20
-0.0139144184067878
 30
0.0
 11
475.0834289789199
 21
-0.0139144184068437
 31
0.0
  0
LINE
  5
9C4
  8
SIZE
 62
     0
 10
138.0065155029297
 20
172.486083984375
 30
0.0
 11
475.08342897892
 21
172.4860839843749
 31
0.0
  0
LINE
  5
9C5
  8
SIZE
 62
     0
 10
462.5834289789199
 20
9.98608558159316
 30
0.0
 11
462.58342897892
 21
162.4860839843749
 31
0.0
  0
INSERT
  5
9C6
  8
SIZE
 62
     0
  2
_ORIGIN
 10
462.5834289789199
 20
-0.0139144184068401
 30
0.0
 41
10.0
 42
10.0
 43
10.0
 50
270.0
  0
INSERT
  5
9C7
  8
SIZE
 62
     0
  2
_ORIGIN
 10
462.58342897892
 20
172.4860839843749
 30
0.0
 41
10.0
 42
10.0
 43
10.0
 50
90.0
  0
TEXT
  5
9C8
  8
SIZE
 62
     0
 10
452.5834289789199
 20
46.48609149137761
 30
0.0
 40
30.0
  1
172
 50
90.0
 72
     1
 11
452.5834289789199
 21
86.2360914913776
 31
0.0
  0
POINT
  5
9C9
  8
DEFPOINTS
 62
     0
 10
267.9833984375
 20
-0.013914418406785
 30
0.0
  0
POINT
  5
9CA
  8
DEFPOINTS
 62
     0
 10
128.0065155029297
 20
172.486083984375
 30
0.0
  0
POINT
  5
9CB
  8
DEFPOINTS
 62
     0
 10
462.58342897892
 20
172.4860839843749
 30
0.0
  0
ENDBLK
  5
9CC
  8
0
  0
BLOCK
  8
0
  2
*D50
 70
     1
 10
0.0
 20
0.0
 30
0.0
  3
*D50
  1

  0
LINE
  5
9CF
  8
SIZE
 62
     0
 10
108.0065002441406
 20
142.486083984375
 30
0.0
 11
108.0065002441406
 21
-260.1139160394668
 31
0.0
  0
LINE
  5
9D0
  8
SIZE
 62
     0
 10
-0.0165813136845836
 20
-60.01391983032226
 30
0.0
 11
-0.0165813136845959
 21
-260.1139160394668
 31
0.0
  0
LINE
  5
9D1
  8
SIZE
 62
     0
 10
98.00650024414061
 20
-247.6139160394668
 30
0.0
 11
9.983418686315405
 21
-247.6139160394668
 31
0.0
  0
INSERT
  5
9D2
  8
SIZE
 62
     0
  2
_ORIGIN
 10
108.0065002441406
 20
-247.6139160394668
 30
0.0
 41
10.0
 42
10.0
 43
10.0
  0
INSERT
  5
9D3
  8
SIZE
 62
     0
  2
_ORIGIN
 10
-0.0165813136845951
 20
-247.6139160394668
 30
0.0
 41
10.0
 42
10.0
 43
10.0
 50
180.0
  0
TEXT
  5
9D4
  8
SIZE
 62
     0
 10
16.79496453841342
 20
-237.6139160394668
 30
0.0
 40
30.0
  1
108
 72
     1
 11
53.99496453841343
 21
-237.6139160394668
 31
0.0
  0
POINT
  5
9D5
  8
DEFPOINTS
 62
     0
 10
108.0065002441406
 20
152.486083984375
 30
0.0
  0
POINT
  5
9D6
  8
DEFPOINTS
 62
     0
 10
-0.016581313684583
 20
-50.01391983032226
 30
0.0
  0
POINT
  5
9D7
  8
DEFPOINTS
 62
     0
 10
-0.0165813136845951
 20
-247.6139160394668
 30
0.0
  0
ENDBLK
  5
9D8
  8
0
  0
BLOCK
  8
0
  2
*D51
 70
     1
 10
0.0
 20
0.0
 30
0.0
  3
*D51
  1

  0
LINE
  5
9DB
  8
SIZE
 62
     0
 10
-320.0166015624999
 20
-0.0139144184067822
 30
0.0
 11
-479.9165710210799
 21
-0.0139144184067369
 31
0.0
  0
LINE
  5
9DC
  8
SIZE
 62
     0
 10
-218.0166015625
 20
154.986083984375
 30
0.0
 11
-479.9165710210799
 21
154.986083984375
 31
0.0
  0
LINE
  5
9DD
  8
SIZE
 62
     0
 10
-467.4165710210799
 20
9.986085581593258
 30
0.0
 11
-467.4165710210799
 21
144.9860839843751
 31
0.0
  0
INSERT
  5
9DE
  8
SIZE
 62
     0
  2
_ORIGIN
 10
-467.4165710210799
 20
-0.0139144184067404
 30
0.0
 41
10.0
 42
10.0
 43
10.0
 50
270.0
  0
INSERT
  5
9DF
  8
SIZE
 62
     0
  2
_ORIGIN
 10
-467.4165710210799
 20
154.986083984375
 30
0.0
 41
10.0
 42
10.0
 43
10.0
 50
90.0
  0
TEXT
  5
9E0
  8
SIZE
 62
     0
 10
-477.4165710210799
 20
37.73609149137762
 30
0.0
 40
30.0
  1
155
 50
90.0
 72
     1
 11
-477.4165710210799
 21
77.48609149137762
 31
0.0
  0
POINT
  5
9E1
  8
DEFPOINTS
 62
     0
 10
-310.0166015625
 20
-0.013914418406785
 30
0.0
  0
POINT
  5
9E2
  8
DEFPOINTS
 62
     0
 10
-208.0166015625
 20
154.986083984375
 30
0.0
  0
POINT
  5
9E3
  8
DEFPOINTS
 62
     0
 10
-467.4165710210799
 20
154.986083984375
 30
0.0
  0
ENDBLK
  5
9E4
  8
0
  0
BLOCK
  8
0
  2
*D52
 70
     1
 10
0.0
 20
0.0
 30
0.0
  3
*D52
  1

  0
LINE
  5
9E7
  8
SIZE
 62
     0
 10
-188.0166015625
 20
124.986083984375
 30
0.0
 11
-188.0166015625
 21
-260.1139160394668
 31
0.0
  0
LINE
  5
9E8
  8
SIZE
 62
     0
 10
-0.0165813136845836
 20
-60.01391983032226
 30
0.0
 11
-0.0165813136845959
 21
-260.1139160394668
 31
0.0
  0
LINE
  5
9E9
  8
SIZE
 62
     0
 10
-178.0166015625
 20
-247.6139160394668
 30
0.0
 11
-10.01658131368459
 21
-247.6139160394668
 31
0.0
  0
INSERT
  5
9EA
  8
SIZE
 62
     0
  2
_ORIGIN
 10
-188.0166015625
 20
-247.6139160394668
 30
0.0
 41
10.0
 42
10.0
 43
10.0
 50
180.0
  0
INSERT
  5
9EB
  8
SIZE
 62
     0
  2
_ORIGIN
 10
-0.0165813136845951
 20
-247.6139160394668
 30
0.0
 41
10.0
 42
10.0
 43
10.0
  0
TEXT
  5
9EC
  8
SIZE
 62
     0
 10
-133.7665863649069
 20
-237.6139160394668
 30
0.0
 40
30.0
  1
188
 72
     1
 11
-94.01658636490689
 21
-237.6139160394668
 31
0.0
  0
POINT
  5
9ED
  8
DEFPOINTS
 62
     0
 10
-188.0166015625
 20
134.986083984375
 30
0.0
  0
POINT
  5
9EE
  8
DEFPOINTS
 62
     0
 10
-0.016581313684583
 20
-50.01391983032226
 30
0.0
  0
POINT
  5
9EF
  8
DEFPOINTS
 62
     0
 10
-0.0165813136845951
 20
-247.6139160394668
 30
0.0
  0
ENDBLK
  5
9F0
  8
0
  0
BLOCK
  8
0
  2
*D53
 70
     1
 10
0.0
 20
0.0
 30
0.0
  3
*D53
  1

  0
LINE
  5
9F3
  8
SIZE
 62
     0
 10
-248.0166015625
 20
-30.01391410827637
 30
0.0
 11
-248.0166015625
 21
-560.1139160394667
 31
0.0
  0
LINE
  5
9F4
  8
SIZE
 62
     0
 10
247.9833984375
 20
-30.01391410827637
 30
0.0
 11
247.9833984375
 21
-560.1139160394667
 31
0.0
  0
LINE
  5
9F5
  8
SIZE
 62
     0
 10
-238.0166015625
 20
-547.6139160394667
 30
0.0
 11
237.9833984375
 21
-547.6139160394667
 31
0.0
  0
INSERT
  5
9F6
  8
SIZE
 62
     0
  2
_ORIGIN
 10
-248.0166015625
 20
-547.6139160394667
 30
0.0
 41
10.0
 42
10.0
 43
10.0
 50
180.0
  0
INSERT
  5
9F7
  8
SIZE
 62
     0
  2
_ORIGIN
 10
247.9833984375
 20
-547.6139160394667
 30
0.0
 41
10.0
 42
10.0
 43
10.0
  0
TEXT
  5
9F8
  8
SIZE
 62
     0
 10
-43.08655542294368
 20
-537.6139160394667
 30
0.0
 40
30.0
  1
496
 72
     1
 11
1.913444577056318
 21
-537.6139160394667
 31
0.0
  0
POINT
  5
9F9
  8
DEFPOINTS
 62
     0
 10
-248.0166015625
 20
-20.01391410827637
 30
0.0
  0
POINT
  5
9FA
  8
DEFPOINTS
 62
     0
 10
247.9833984375
 20
-20.01391410827637
 30
0.0
  0
POINT
  5
9FB
  8
DEFPOINTS
 62
     0
 10
247.9833984375
 20
-547.6139160394667
 30
0.0
  0
ENDBLK
  5
9FC
  8
0
  0
BLOCK
  8
0
  2
*D54
 70
     1
 10
0.0
 20
0.0
 30
0.0
  3
*D54
  1

  0
LINE
  5
9FF
  8
SIZE
 62
     0
 10
29.98341941833496
 20
1882.986083984375
 30
0.0
 11
29.98341941833498
 21
2144.886328101158
 31
0.0
  0
LINE
  5
A00
  8
SIZE
 62
     0
 10
-30.01658058166504
 20
1882.986083984375
 30
0.0
 11
-30.01658058166502
 21
2144.886328101158
 31
0.0
  0
LINE
  5
A01
  8
SIZE
 62
     0
 10
19.98341941833497
 20
2132.386328101159
 30
0.0
 11
-20.01658058166503
 21
2132.386328101159
 31
0.0
  0
INSERT
  5
A02
  8
SIZE
 62
     0
  2
_ORIGIN
 10
29.98341941833498
 20
2132.386328101159
 30
0.0
 41
10.0
 42
10.0
 43
10.0
  0
INSERT
  5
A03
  8
SIZE
 62
     0
  2
_ORIGIN
 10
-30.01658058166503
 20
2132.386328101159
 30
0.0
 41
10.0
 42
10.0
 43
10.0
 50
180.0
  0
TEXT
  5
A04
  8
SIZE
 62
     0
 10
-27.46658058166503
 20
2142.386328101158
 30
0.0
 40
30.0
  1
60
 72
     1
 11
-0.0165805816650249
 21
2142.386328101158
 31
0.0
  0
POINT
  5
A05
  8
DEFPOINTS
 62
     0
 10
29.98341941833496
 20
1872.986083984375
 30
0.0
  0
POINT
  5
A06
  8
DEFPOINTS
 62
     0
 10
-30.01658058166504
 20
1872.986083984375
 30
0.0
  0
POINT
  5
A07
  8
DEFPOINTS
 62
     0
 10
-30.01658058166503
 20
2132.386328101159
 30
0.0
  0
ENDBLK
  5
A08
  8
0
  0
BLOCK
  8
0
  2
*D55
 70
     1
 10
0.0
 20
0.0
 30
0.0
  3
*D55
  1

  0
LINE
  5
A0B
  8
SIZE
 62
     0
 10
-60.0165786743164
 20
1852.986083984375
 30
0.0
 11
-879.9166015386576
 21
1852.986083984375
 31
0.0
  0
LINE
  5
A0C
  8
SIZE
 62
     0
 10
-320.0166015624999
 20
-0.0139144184067822
 30
0.0
 11
-879.9166015386583
 21
-0.0139144184066236
 31
0.0
  0
LINE
  5
A0D
  8
SIZE
 62
     0
 10
-867.4166015386576
 20
1842.986083984375
 30
0.0
 11
-867.4166015386583
 21
9.986085581593372
 31
0.0
  0
INSERT
  5
A0E
  8
SIZE
 62
     0
  2
_ORIGIN
 10
-867.4166015386576
 20
1852.986083984375
 30
0.0
 41
10.0
 42
10.0
 43
10.0
 50
90.0
  0
INSERT
  5
A0F
  8
SIZE
 62
     0
  2
_ORIGIN
 10
-867.4166015386583
 20
-0.0139144184066271
 30
0.0
 41
10.0
 42
10.0
 43
10.0
 50
270.0
  0
TEXT
  5
A10
  8
SIZE
 62
     0
 10
-877.4166015386583
 20
871.736083861983
 30
0.0
 40
30.0
  1
1853
 50
90.0
 72
     1
 11
-877.4166015386583
 21
926.486083861983
 31
0.0
  0
POINT
  5
A11
  8
DEFPOINTS
 62
     0
 10
-50.0165786743164
 20
1852.986083984375
 30
0.0
  0
POINT
  5
A12
  8
DEFPOINTS
 62
     0
 10
-310.0166015625
 20
-0.013914418406785
 30
0.0
  0
POINT
  5
A13
  8
DEFPOINTS
 62
     0
 10
-867.4166015386583
 20
-0.0139144184066271
 30
0.0
  0
ENDBLK
  5
A14
  8
0
  0
BLOCK
  8
0
  2
*D56
 70
     1
 10
0.0
 20
0.0
 30
0.0
  3
*D56
  1

  0
LINE
  5
A17
  8
SIZE
 62
     0
 10
254.9833984375
 20
329.9860839843749
 30
0.0
 11
254.9833984374999
 21
-360.1139160394669
 31
0.0
  0
LINE
  5
A18
  8
SIZE
 62
     0
 10
-0.0165813136845836
 20
-60.01391983032226
 30
0.0
 11
-0.016581313684602
 21
-360.1139160394668
 31
0.0
  0
LINE
  5
A19
  8
SIZE
 62
     0
 10
244.9833984375
 20
-347.6139160394668
 30
0.0
 11
9.9834186863154
 21
-347.6139160394668
 31
0.0
  0
INSERT
  5
A1A
  8
SIZE
 62
     0
  2
_ORIGIN
 10
254.9833984375
 20
-347.6139160394668
 30
0.0
 41
10.0
 42
10.0
 43
10.0
  0
INSERT
  5
A1B
  8
SIZE
 62
     0
  2
_ORIGIN
 10
-0.0165813136846012
 20
-347.6139160394668
 30
0.0
 41
10.0
 42
10.0
 43
10.0
 50
180.0
  0
TEXT
  5
A1C
  8
SIZE
 62
     0
 10
82.4834212644876
 20
-337.6139160394668
 30
0.0
 40
30.0
  1
255
 72
     1
 11
127.4834212644876
 21
-337.6139160394668
 31
0.0
  0
POINT
  5
A1D
  8
DEFPOINTS
 62
     0
 10
254.9833984375
 20
339.9860839843749
 30
0.0
  0
POINT
  5
A1E
  8
DEFPOINTS
 62
     0
 10
-0.016581313684583
 20
-50.01391983032226
 30
0.0
  0
POINT
  5
A1F
  8
DEFPOINTS
 62
     0
 10
-0.0165813136846012
 20
-347.6139160394668
 30
0.0
  0
ENDBLK
  5
A20
  8
0
  0
BLOCK
  8
0
  2
*D57
 70
     1
 10
0.0
 20
0.0
 30
0.0
  3
*D57
  1

  0
LINE
  5
A23
  8
SIZE
 62
     0
 10
-320.0166015624999
 20
-0.0139144184067822
 30
0.0
 11
-679.9166015386581
 21
-0.0139144184066802
 31
0.0
  0
LINE
  5
A24
  8
SIZE
 62
     0
 10
-325.0166015625
 20
399.986083984375
 30
0.0
 11
-679.916601538658
 21
399.9860839843752
 31
0.0
  0
LINE
  5
A25
  8
SIZE
 62
     0
 10
-667.4166015386581
 20
9.986085581593313
 30
0.0
 11
-667.416601538658
 21
389.9860839843752
 31
0.0
  0
INSERT
  5
A26
  8
SIZE
 62
     0
  2
_ORIGIN
 10
-667.4166015386581
 20
-0.0139144184066838
 30
0.0
 41
10.0
 42
10.0
 43
10.0
 50
270.0
  0
INSERT
  5
A27
  8
SIZE
 62
     0
  2
_ORIGIN
 10
-667.416601538658
 20
399.9860839843752
 30
0.0
 41
10.0
 42
10.0
 43
10.0
 50
90.0
  0
TEXT
  5
A28
  8
SIZE
 62
     0
 10
-677.4166015386581
 20
160.0860838619831
 30
0.0
 40
30.0
  1
400
 50
90.0
 72
     1
 11
-677.4166015386581
 21
199.9860838619831
 31
0.0
  0
POINT
  5
A29
  8
DEFPOINTS
 62
     0
 10
-310.0166015625
 20
-0.013914418406785
 30
0.0
  0
POINT
  5
A2A
  8
DEFPOINTS
 62
     0
 10
-315.0166015624999
 20
399.986083984375
 30
0.0
  0
POINT
  5
A2B
  8
DEFPOINTS
 62
     0
 10
-667.416601538658
 20
399.9860839843752
 30
0.0
  0
ENDBLK
  5
A2C
  8
0
  0
BLOCK
  8
0
  2
*D58
 70
     1
 10
0.0
 20
0.0
 30
0.0
  3
*D58
  1

  0
LINE
  5
A2F
  8
SIZE
 62
     0
 10
-283.0166015625
 20
786.986083984375
 30
0.0
 11
-779.9166015386579
 21
786.9860839843751
 31
0.0
  0
LINE
  5
A30
  8
SIZE
 62
     0
 10
-283.0166015625
 20
656.986083984375
 30
0.0
 11
-779.916601538658
 21
656.9860839843751
 31
0.0
  0
LINE
  5
A31
  8
SIZE
 62
     0
 10
-767.4166015386579
 20
776.986083984375
 30
0.0
 11
-767.416601538658
 21
666.986083984375
 31
0.0
  0
INSERT
  5
A32
  8
SIZE
 62
     0
  2
_ORIGIN
 10
-767.4166015386579
 20
786.986083984375
 30
0.0
 41
10.0
 42
10.0
 43
10.0
 50
90.0
  0
INSERT
  5
A33
  8
SIZE
 62
     0
  2
_ORIGIN
 10
-767.416601538658
 20
656.986083984375
 30
0.0
 41
10.0
 42
10.0
 43
10.0
 50
270.0
  0
TEXT
  5
A34
  8
SIZE
 62
     0
 10
-777.4166015386581
 20
684.786083861983
 30
0.0
 40
30.0
  1
130
 50
90.0
 72
     1
 11
-777.4166015386581
 21
721.986083861983
 31
0.0
  0
POINT
  5
A35
  8
DEFPOINTS
 62
     0
 10
-273.0166015625
 20
786.986083984375
 30
0.0
  0
POINT
  5
A36
  8
DEFPOINTS
 62
     0
 10
-273.0166015625
 20
656.986083984375
 30
0.0
  0
POINT
  5
A37
  8
DEFPOINTS
 62
     0
 10
-767.416601538658
 20
656.986083984375
 30
0.0
  0
ENDBLK
  5
A38
  8
0
  0
BLOCK
  8
0
  2
*D59
 70
     1
 10
0.0
 20
0.0
 30
0.0
  3
*D59
  1

  0
LINE
  5
A3B
  8
SIZE
 62
     0
 10
-315.0166015624999
 20
205.986083984375
 30
0.0
 11
-315.0166015624999
 21
901.8860839605331
 31
0.0
  0
LINE
  5
A3C
  8
SIZE
 62
     0
 10
-281.0166015625
 20
788.9860839843749
 30
0.0
 11
-281.0166015625
 21
901.8860839605331
 31
0.0
  0
LINE
  5
A3D
  8
SIZE
 62
     0
 10
-271.0166015625
 20
889.3860839605331
 30
0.0
 11
-261.0166015625
 21
889.3860839605331
 31
0.0
  0
LINE
  5
A3E
  8
SIZE
 62
     0
 10
-325.0166015624999
 20
889.3860839605331
 30
0.0
 11
-431.9941406861959
 21
889.3860839605331
 31
0.0
  0
LINE
  5
A3F
  8
SIZE
 62
     0
 10
-281.0166015625
 20
889.3860839605331
 30
0.0
 11
-315.0166015624999
 21
889.3860839605331
 31
0.0
  0
INSERT
  5
A40
  8
SIZE
 62
     0
  2
_ORIGIN
 10
-281.0166015625
 20
889.3860839605331
 30
0.0
 41
10.0
 42
10.0
 43
10.0
 50
180.0
  0
INSERT
  5
A41
  8
SIZE
 62
     0
  2
_ORIGIN
 10
-315.0166015624999
 20
889.3860839605331
 30
0.0
 41
10.0
 42
10.0
 43
10.0
  0
TEXT
  5
A42
  8
SIZE
 62
     0
 10
-426.9941406861959
 20
899.3860839605331
 30
0.0
 40
30.0
  1
34
 72
     1
 11
-396.9941406861959
 21
899.3860839605331
 31
0.0
  0
POINT
  5
A43
  8
DEFPOINTS
 62
     0
 10
-315.0166015624999
 20
195.986083984375
 30
0.0
  0
POINT
  5
A44
  8
DEFPOINTS
 62
     0
 10
-281.0166015625
 20
778.986083984375
 30
0.0
  0
POINT
  5
A45
  8
DEFPOINTS
 62
     0
 10
-281.0166015625
 20
889.3860839605331
 30
0.0
  0
ENDBLK
  5
A46
  8
0
  0
BLOCK
  8
0
  2
*D60
 70
     1
 10
0.0
 20
0.0
 30
0.0
  3
*D60
  1

  0
LINE
  5
A49
  8
SIZE
 62
     0
 10
-124.0165863037109
 20
788.9860839843749
 30
0.0
 11
-124.0165863037109
 21
901.8860839605331
 31
0.0
  0
LINE
  5
A4A
  8
SIZE
 62
     0
 10
-281.0166015625
 20
788.9860839843749
 30
0.0
 11
-281.0166015625
 21
901.8860839605331
 31
0.0
  0
LINE
  5
A4B
  8
SIZE
 62
     0
 10
-134.0165863037109
 20
889.3860839605331
 30
0.0
 11
-271.0166015625
 21
889.3860839605331
 31
0.0
  0
INSERT
  5
A4C
  8
SIZE
 62
     0
  2
_ORIGIN
 10
-124.0165863037109
 20
889.3860839605331
 30
0.0
 41
10.0
 42
10.0
 43
10.0
  0
INSERT
  5
A4D
  8
SIZE
 62
     0
  2
_ORIGIN
 10
-281.0166015625
 20
889.3860839605331
 30
0.0
 41
10.0
 42
10.0
 43
10.0
 50
180.0
  0
TEXT
  5
A4E
  8
SIZE
 62
     0
 10
-242.266601623696
 20
899.3860839605331
 30
0.0
 40
30.0
  1
157
 72
     1
 11
-202.516601623696
 21
899.3860839605331
 31
0.0
  0
POINT
  5
A4F
  8
DEFPOINTS
 62
     0
 10
-124.0165863037109
 20
778.986083984375
 30
0.0
  0
POINT
  5
A50
  8
DEFPOINTS
 62
     0
 10
-281.0166015625
 20
778.986083984375
 30
0.0
  0
POINT
  5
A51
  8
DEFPOINTS
 62
     0
 10
-281.0166015625
 20
889.3860839605331
 30
0.0
  0
ENDBLK
  5
A52
  8
0
  0
BLOCK
  8
0
  2
*D61
 70
     1
 10
0.0
 20
0.0
 30
0.0
  3
*D61
  1

  0
LINE
  5
A55
  8
SIZE
 62
     0
 10
-283.0166015625
 20
656.986083984375
 30
0.0
 11
-779.916601538658
 21
656.9860839843751
 31
0.0
  0
LINE
  5
A56
  8
SIZE
 62
     0
 10
-287.0166015625
 20
431.986083984375
 30
0.0
 11
-779.916601538658
 21
431.9860839843752
 31
0.0
  0
LINE
  5
A57
  8
SIZE
 62
     0
 10
-767.416601538658
 20
646.9860839843749
 30
0.0
 11
-767.416601538658
 21
441.9860839843752
 31
0.0
  0
INSERT
  5
A58
  8
SIZE
 62
     0
  2
_ORIGIN
 10
-767.416601538658
 20
656.986083984375
 30
0.0
 41
10.0
 42
10.0
 43
10.0
 50
90.0
  0
INSERT
  5
A59
  8
SIZE
 62
     0
  2
_ORIGIN
 10
-767.416601538658
 20
431.9860839843752
 30
0.0
 41
10.0
 42
10.0
 43
10.0
 50
270.0
  0
TEXT
  5
A5A
  8
SIZE
 62
     0
 10
-777.4166015386581
 20
499.486083861983
 30
0.0
 40
30.0
  1
225
 50
90.0
 72
     1
 11
-777.4166015386581
 21
544.486083861983
 31
0.0
  0
POINT
  5
A5B
  8
DEFPOINTS
 62
     0
 10
-273.0166015625
 20
656.986083984375
 30
0.0
  0
POINT
  5
A5C
  8
DEFPOINTS
 62
     0
 10
-277.0166015625
 20
431.986083984375
 30
0.0
  0
POINT
  5
A5D
  8
DEFPOINTS
 62
     0
 10
-767.416601538658
 20
431.9860839843752
 30
0.0
  0
ENDBLK
  5
A5E
  8
0
  0
BLOCK
  8
0
  2
*D62
 70
     1
 10
0.0
 20
0.0
 30
0.0
  3
*D62
  1

  0
LINE
  5
A61
  8
SIZE
 62
     0
 10
-285.0166015625
 20
449.986083984375
 30
0.0
 11
-285.0166015625
 21
516.8860839605331
 31
0.0
  0
LINE
  5
A62
  8
SIZE
 62
     0
 10
-315.0166015624999
 20
205.986083984375
 30
0.0
 11
-315.0166015624999
 21
516.8860839605331
 31
0.0
  0
LINE
  5
A63
  8
SIZE
 62
     0
 10
-275.0166015625
 20
504.3860839605331
 30
0.0
 11
-265.0166015625
 21
504.3860839605331
 31
0.0
  0
LINE
  5
A64
  8
SIZE
 62
     0
 10
-325.0166015625
 20
504.3860839605331
 30
0.0
 11
-419.1373291627583
 21
504.3860839605331
 31
0.0
  0
LINE
  5
A65
  8
SIZE
 62
     0
 10
-285.0166015625
 20
504.3860839605331
 30
0.0
 11
-315.0166015624999
 21
504.3860839605331
 31
0.0
  0
INSERT
  5
A66
  8
SIZE
 62
     0
  2
_ORIGIN
 10
-285.0166015625
 20
504.3860839605331
 30
0.0
 41
10.0
 42
10.0
 43
10.0
 50
180.0
  0
INSERT
  5
A67
  8
SIZE
 62
     0
  2
_ORIGIN
 10
-315.0166015624999
 20
504.3860839605331
 30
0.0
 41
10.0
 42
10.0
 43
10.0
  0
TEXT
  5
A68
  8
SIZE
 62
     0
 10
-414.0873291627584
 20
514.3860839605331
 30
0.0
 40
30.0
  1
30
 72
     1
 11
-386.6373291627584
 21
514.3860839605331
 31
0.0
  0
POINT
  5
A69
  8
DEFPOINTS
 62
     0
 10
-285.0166015625
 20
439.986083984375
 30
0.0
  0
POINT
  5
A6A
  8
DEFPOINTS
 62
     0
 10
-315.0166015624999
 20
195.986083984375
 30
0.0
  0
POINT
  5
A6B
  8
DEFPOINTS
 62
     0
 10
-315.0166015624999
 20
504.3860839605331
 30
0.0
  0
ENDBLK
  5
A6C
  8
0
  0
BLOCK
  8
0
  2
*D63
 70
     1
 10
0.0
 20
0.0
 30
0.0
  3
*D63
  1

  0
LINE
  5
A6F
  8
SIZE
 62
     0
 10
324.9833984375001
 20
1829.986083984375
 30
0.0
 11
975.083398461342
 21
1829.986083984375
 31
0.0
  0
LINE
  5
A70
  8
SIZE
 62
     0
 10
324.9833984375001
 20
199.986083984375
 30
0.0
 11
975.0833984613416
 21
199.9860839843748
 31
0.0
  0
LINE
  5
A71
  8
SIZE
 62
     0
 10
962.583398461342
 20
1819.986083984375
 30
0.0
 11
962.5833984613416
 21
209.9860839843748
 31
0.0
  0
INSERT
  5
A72
  8
SIZE
 62
     0
  2
_ORIGIN
 10
962.583398461342
 20
1829.986083984375
 30
0.0
 41
10.0
 42
10.0
 43
10.0
 50
90.0
  0
INSERT
  5
A73
  8
SIZE
 62
     0
  2
_ORIGIN
 10
962.5833984613416
 20
199.9860839843748
 30
0.0
 41
10.0
 42
10.0
 43
10.0
 50
270.0
  0
TEXT
  5
A74
  8
SIZE
 62
     0
 10
952.5833984613419
 20
962.786083861983
 30
0.0
 40
30.0
  1
1630
 50
90.0
 72
     1
 11
952.5833984613419
 21
1014.986083861983
 31
0.0
  0
POINT
  5
A75
  8
DEFPOINTS
 62
     0
 10
314.9833984375001
 20
1829.986083984375
 30
0.0
  0
POINT
  5
A76
  8
DEFPOINTS
 62
     0
 10
314.9833984375001
 20
199.986083984375
 30
0.0
  0
POINT
  5
A77
  8
DEFPOINTS
 62
     0
 10
962.5833984613416
 20
199.9860839843748
 30
0.0
  0
ENDBLK
  5
A78
  8
0
  0
BLOCK
  8
0
  2
*D64
 70
     1
 10
0.0
 20
0.0
 30
0.0
  3
*D64
  1

  0
LINE
  5
A7B
  8
SIZE
 62
     0
 10
324.9833984375001
 20
199.986083984375
 30
0.0
 11
975.0833984613417
 21
199.9860839843748
 31
0.0
  0
LINE
  5
A7C
  8
SIZE
 62
     0
 10
319.9833984375
 20
-0.0139144184067878
 30
0.0
 11
975.0833984613416
 21
-0.0139144184069734
 31
0.0
  0
LINE
  5
A7D
  8
SIZE
 62
     0
 10
962.5833984613417
 20
189.9860839843748
 30
0.0
 11
962.5833984613417
 21
9.98608558159303
 31
0.0
  0
INSERT
  5
A7E
  8
SIZE
 62
     0
  2
_ORIGIN
 10
962.5833984613417
 20
199.9860839843748
 30
0.0
 41
10.0
 42
10.0
 43
10.0
 50
90.0
  0
INSERT
  5
A7F
  8
SIZE
 62
     0
  2
_ORIGIN
 10
962.5833984613417
 20
-0.0139144184069699
 30
0.0
 41
10.0
 42
10.0
 43
10.0
 50
270.0
  0
TEXT
  5
A80
  8
SIZE
 62
     0
 10
952.5833984613417
 20
60.08609149137766
 30
0.0
 40
30.0
  1
200
 50
90.0
 72
     1
 11
952.5833984613417
 21
99.98609149137764
 31
0.0
  0
POINT
  5
A81
  8
DEFPOINTS
 62
     0
 10
314.9833984375001
 20
199.986083984375
 30
0.0
  0
POINT
  5
A82
  8
DEFPOINTS
 62
     0
 10
309.9833984375
 20
-0.013914418406785
 30
0.0
  0
POINT
  5
A83
  8
DEFPOINTS
 62
     0
 10
962.5833984613417
 20
-0.0139144184069699
 30
0.0
  0
ENDBLK
  5
A84
  8
0
  0
BLOCK
  8
0
  2
*D65
 70
     1
 10
0.0
 20
0.0
 30
0.0
  3
*D65
  1

  0
LINE
  5
A87
  8
SIZE
 62
     0
 10
44.98342132568359
 20
1879.986083984375
 30
0.0
 11
44.98342132568362
 21
2244.886328101158
 31
0.0
  0
LINE
  5
A88
  8
SIZE
 62
     0
 10
-45.0165786743164
 20
1879.986083984375
 30
0.0
 11
-45.01657867431638
 21
2244.886328101158
 31
0.0
  0
LINE
  5
A89
  8
SIZE
 62
     0
 10
34.98342132568363
 20
2232.386328101158
 30
0.0
 11
-35.01657867431639
 21
2232.386328101158
 31
0.0
  0
INSERT
  5
A8A
  8
SIZE
 62
     0
  2
_ORIGIN
 10
44.98342132568362
 20
2232.386328101158
 30
0.0
 41
10.0
 42
10.0
 43
10.0
  0
INSERT
  5
A8B
  8
SIZE
 62
     0
  2
_ORIGIN
 10
-45.01657867431638
 20
2232.386328101158
 30
0.0
 41
10.0
 42
10.0
 43
10.0
 50
180.0
  0
TEXT
  5
A8C
  8
SIZE
 62
     0
 10
-27.46658137488053
 20
2242.386328101159
 30
0.0
 40
30.0
  1
90
 72
     1
 11
-0.016581374880527
 21
2242.386328101159
 31
0.0
  0
POINT
  5
A8D
  8
DEFPOINTS
 62
     0
 10
44.98342132568359
 20
1869.986083984375
 30
0.0
  0
POINT
  5
A8E
  8
DEFPOINTS
 62
     0
 10
-45.0165786743164
 20
1869.986083984375
 30
0.0
  0
POINT
  5
A8F
  8
DEFPOINTS
 62
     0
 10
-45.01657867431638
 20
2232.386328101158
 30
0.0
  0
ENDBLK
  5
A90
  8
0
  0
BLOCK
  8
0
  2
*D66
 70
     1
 10
0.0
 20
0.0
 30
0.0
  3
*D66
  1

  0
LINE
  5
A93
  8
SIZE
 62
     0
 10
139.9833984375
 20
1665.986083984375
 30
0.0
 11
139.9833984375
 21
1509.886083960533
 31
0.0
  0
LINE
  5
A94
  8
SIZE
 62
     0
 10
269.9833984375
 20
1665.986083984375
 30
0.0
 11
269.9833984375
 21
1509.886083960533
 31
0.0
  0
LINE
  5
A95
  8
SIZE
 62
     0
 10
149.9833984375
 20
1522.386083960533
 30
0.0
 11
259.9833984375
 21
1522.386083960533
 31
0.0
  0
INSERT
  5
A96
  8
SIZE
 62
     0
  2
_ORIGIN
 10
139.9833984375
 20
1522.386083960533
 30
0.0
 41
10.0
 42
10.0
 43
10.0
 50
180.0
  0
INSERT
  5
A97
  8
SIZE
 62
     0
  2
_ORIGIN
 10
269.9833984375
 20
1522.386083960533
 30
0.0
 41
10.0
 42
10.0
 43
10.0
  0
TEXT
  5
A98
  8
SIZE
 62
     0
 10
167.783398376304
 20
1532.386083960533
 30
0.0
 40
30.0
  1
130
 72
     1
 11
204.983398376304
 21
1532.386083960533
 31
0.0
  0
POINT
  5
A99
  8
DEFPOINTS
 62
     0
 10
139.9833984375
 20
1675.986083984375
 30
0.0
  0
POINT
  5
A9A
  8
DEFPOINTS
 62
     0
 10
269.9833984375
 20
1675.986083984375
 30
0.0
  0
POINT
  5
A9B
  8
DEFPOINTS
 62
     0
 10
269.9833984375
 20
1522.386083960533
 30
0.0
  0
ENDBLK
  5
A9C
  8
0
  0
BLOCK
  8
0
  2
*D67
 70
     1
 10
0.0
 20
0.0
 30
0.0
  3
*D67
  1

  0
LINE
  5
A9F
  8
SIZE
 62
     0
 10
-114.0165863037109
 20
449.986083984375
 30
0.0
 11
-114.0165863037109
 21
516.8860839605331
 31
0.0
  0
LINE
  5
AA0
  8
SIZE
 62
     0
 10
-285.0166015625
 20
449.986083984375
 30
0.0
 11
-285.0166015625
 21
516.8860839605331
 31
0.0
  0
LINE
  5
AA1
  8
SIZE
 62
     0
 10
-124.0165863037109
 20
504.3860839605331
 30
0.0
 11
-275.0166015625
 21
504.3860839605331
 31
0.0
  0
INSERT
  5
AA2
  8
SIZE
 62
     0
  2
_ORIGIN
 10
-114.0165863037109
 20
504.3860839605331
 30
0.0
 41
10.0
 42
10.0
 43
10.0
  0
INSERT
  5
AA3
  8
SIZE
 62
     0
  2
_ORIGIN
 10
-285.0166015625
 20
504.3860839605331
 30
0.0
 41
10.0
 42
10.0
 43
10.0
 50
180.0
  0
TEXT
  5
AA4
  8
SIZE
 62
     0
 10
-234.0166016236959
 20
514.3860839605331
 30
0.0
 40
30.0
  1
171
 72
     1
 11
-199.5166016236959
 21
514.3860839605331
 31
0.0
  0
POINT
  5
AA5
  8
DEFPOINTS
 62
     0
 10
-114.0165863037109
 20
439.986083984375
 30
0.0
  0
POINT
  5
AA6
  8
DEFPOINTS
 62
     0
 10
-285.0166015625
 20
439.986083984375
 30
0.0
  0
POINT
  5
AA7
  8
DEFPOINTS
 62
     0
 10
-285.0166015625
 20
504.3860839605331
 30
0.0
  0
ENDBLK
  5
AA8
  8
0
  0
BLOCK
  8
0
  2
*D68
 70
     1
 10
0.0
 20
0.0
 30
0.0
  3
*D68
  1

  0
LINE
  5
AAB
  8
SIZE
 62
     0
 10
-287.0166015625
 20
431.986083984375
 30
0.0
 11
-679.916601538658
 21
431.9860839843752
 31
0.0
  0
LINE
  5
AAC
  8
SIZE
 62
     0
 10
-287.0166015625
 20
651.986083984375
 30
0.0
 11
-679.916601538658
 21
651.986083984375
 31
0.0
  0
LINE
  5
AAD
  8
SIZE
 62
     0
 10
-667.416601538658
 20
441.9860839843751
 30
0.0
 11
-667.416601538658
 21
641.986083984375
 31
0.0
  0
INSERT
  5
AAE
  8
SIZE
 62
     0
  2
_ORIGIN
 10
-667.416601538658
 20
431.9860839843752
 30
0.0
 41
10.0
 42
10.0
 43
10.0
 50
270.0
  0
INSERT
  5
AAF
  8
SIZE
 62
     0
  2
_ORIGIN
 10
-667.416601538658
 20
651.986083984375
 30
0.0
 41
10.0
 42
10.0
 43
10.0
 50
90.0
  0
TEXT
  5
AB0
  8
SIZE
 62
     0
 10
-677.4166015386581
 20
499.5360838619831
 30
0.0
 40
30.0
  1
220
 50
90.0
 72
     1
 11
-677.4166015386581
 21
541.9860838619832
 31
0.0
  0
POINT
  5
AB1
  8
DEFPOINTS
 62
     0
 10
-277.0166015625
 20
431.986083984375
 30
0.0
  0
POINT
  5
AB2
  8
DEFPOINTS
 62
     0
 10
-277.0166015625
 20
651.986083984375
 30
0.0
  0
POINT
  5
AB3
  8
DEFPOINTS
 62
     0
 10
-667.416601538658
 20
651.986083984375
 30
0.0
  0
ENDBLK
  5
AB4
  8
0
  0
BLOCK
  8
0
  2
*D69
 70
     1
 10
0.0
 20
0.0
 30
0.0
  3
*D69
  1

  0
LINE
  5
AB7
  8
SIZE
 62
     0
 10
319.9834289550781
 20
-0.0139146875590118
 30
0.0
 11
875.0833984613417
 21
-0.0139146875591691
 31
0.0
  0
LINE
  5
AB8
  8
SIZE
 62
     0
 10
273.9834289550781
 20
1669.986083984375
 30
0.0
 11
875.083398461342
 21
1669.986083984374
 31
0.0
  0
LINE
  5
AB9
  8
SIZE
 62
     0
 10
862.5833984613417
 20
9.986085312440833
 30
0.0
 11
862.583398461342
 21
1659.986083984375
 31
0.0
  0
INSERT
  5
ABA
  8
SIZE
 62
     0
  2
_ORIGIN
 10
862.5833984613417
 20
-0.0139146875591656
 30
0.0
 41
10.0
 42
10.0
 43
10.0
 50
270.0
  0
INSERT
  5
ABB
  8
SIZE
 62
     0
  2
_ORIGIN
 10
862.583398461342
 20
1669.986083984374
 30
0.0
 41
10.0
 42
10.0
 43
10.0
 50
90.0
  0
TEXT
  5
ABC
  8
SIZE
 62
     0
 10
852.5833984613417
 20
782.786083861983
 30
0.0
 40
30.0
  1
1670
 50
90.0
 72
     1
 11
852.5833984613417
 21
834.986083861983
 31
0.0
  0
POINT
  5
ABD
  8
DEFPOINTS
 62
     0
 10
309.9834289550781
 20
-0.013914687559009
 30
0.0
  0
POINT
  5
ABE
  8
DEFPOINTS
 62
     0
 10
263.9834289550781
 20
1669.986083984375
 30
0.0
  0
POINT
  5
ABF
  8
DEFPOINTS
 62
     0
 10
862.583398461342
 20
1669.986083984374
 30
0.0
  0
ENDBLK
  5
AC0
  8
0
  0
BLOCK
  8
0
  2
*D70
 70
     1
 10
0.0
 20
0.0
 30
0.0
  3
*D70
  1

  0
LINE
  5
AC3
  8
SIZE
 62
     0
 10
273.9833984375
 20
1669.986083984375
 30
0.0
 11
875.083398461342
 21
1669.986083984374
 31
0.0
  0
LINE
  5
AC4
  8
SIZE
 62
     0
 10
273.9833984375
 20
1787.986083984375
 30
0.0
 11
875.083398461342
 21
1787.986083984375
 31
0.0
  0
LINE
  5
AC5
  8
SIZE
 62
     0
 10
862.583398461342
 20
1679.986083984375
 30
0.0
 11
862.583398461342
 21
1777.986083984375
 31
0.0
  0
INSERT
  5
AC6
  8
SIZE
 62
     0
  2
_ORIGIN
 10
862.583398461342
 20
1669.986083984374
 30
0.0
 41
10.0
 42
10.0
 43
10.0
 50
270.0
  0
INSERT
  5
AC7
  8
SIZE
 62
     0
  2
_ORIGIN
 10
862.583398461342
 20
1787.986083984375
 30
0.0
 41
10.0
 42
10.0
 43
10.0
 50
90.0
  0
TEXT
  5
AC8
  8
SIZE
 62
     0
 10
852.5833984613417
 20
1694.486083861983
 30
0.0
 40
30.0
  1
118
 50
90.0
 72
     1
 11
852.5833984613417
 21
1728.986083861983
 31
0.0
  0
POINT
  5
AC9
  8
DEFPOINTS
 62
     0
 10
263.9833984375
 20
1669.986083984375
 30
0.0
  0
POINT
  5
ACA
  8
DEFPOINTS
 62
     0
 10
263.9833984375
 20
1787.986083984375
 30
0.0
  0
POINT
  5
ACB
  8
DEFPOINTS
 62
     0
 10
862.583398461342
 20
1787.986083984375
 30
0.0
  0
ENDBLK
  5
ACC
  8
0
  0
BLOCK
  8
0
  2
*D71
 70
     1
 10
0.0
 20
0.0
 30
0.0
  3
*D71
  1

  0
LINE
  5
ACF
  8
SIZE
 62
     0
 10
314.9834289550781
 20
1819.986083984375
 30
0.0
 11
314.9834289550781
 21
1509.886083960533
 31
0.0
  0
LINE
  5
AD0
  8
SIZE
 62
     0
 10
269.9834289550781
 20
1665.986083984375
 30
0.0
 11
269.9834289550781
 21
1509.886083960533
 31
0.0
  0
LINE
  5
AD1
  8
SIZE
 62
     0
 10
279.9834289550781
 20
1522.386083960533
 30
0.0
 11
304.9834289550781
 21
1522.386083960533
 31
0.0
  0
LINE
  5
AD2
  8
SIZE
 62
     0
 10
314.9834289550781
 20
1522.386083960533
 30
0.0
 11
429.6788939817728
 21
1522.386083960533
 31
0.0
  0
INSERT
  5
AD3
  8
SIZE
 62
     0
  2
_ORIGIN
 10
269.9834289550781
 20
1522.386083960533
 30
0.0
 41
10.0
 42
10.0
 43
10.0
 50
180.0
  0
INSERT
  5
AD4
  8
SIZE
 62
     0
  2
_ORIGIN
 10
314.9834289550781
 20
1522.386083960533
 30
0.0
 41
10.0
 42
10.0
 43
10.0
  0
TEXT
  5
AD5
  8
SIZE
 62
     0
 10
364.6788939817728
 20
1532.386083960533
 30
0.0
 40
30.0
  1
45
 72
     1
 11
394.6788939817728
 21
1532.386083960533
 31
0.0
  0
POINT
  5
AD6
  8
DEFPOINTS
 62
     0
 10
314.9834289550781
 20
1829.986083984375
 30
0.0
  0
POINT
  5
AD7
  8
DEFPOINTS
 62
     0
 10
269.9834289550781
 20
1675.986083984375
 30
0.0
  0
POINT
  5
AD8
  8
DEFPOINTS
 62
     0
 10
269.9834289550781
 20
1522.386083960533
 30
0.0
  0
ENDBLK
  5
AD9
  8
0
  0
BLOCK
  8
0
  2
*D72
 70
     1
 10
0.0
 20
0.0
 30
0.0
  3
*D72
  1

  0
LINE
  5
ADC
  8
SIZE
 62
     0
 10
-50.01658248901367
 20
1874.986083984375
 30
0.0
 11
-979.9166015386575
 21
1874.986083984375
 31
0.0
  0
LINE
  5
ADD
  8
SIZE
 62
     0
 10
-294.5165710449219
 20
-0.0139146875590062
 30
0.0
 11
-979.9166015386578
 21
-0.013914687558812
 31
0.0
  0
LINE
  5
ADE
  8
SIZE
 62
     0
 10
-967.4166015386575
 20
1864.986083984375
 30
0.0
 11
-967.4166015386578
 21
9.986085312441185
 31
0.0
  0
INSERT
  5
ADF
  8
SIZE
 62
     0
  2
_ORIGIN
 10
-967.4166015386575
 20
1874.986083984375
 30
0.0
 41
10.0
 42
10.0
 43
10.0
 50
90.0
  0
INSERT
  5
AE0
  8
SIZE
 62
     0
  2
_ORIGIN
 10
-967.4166015386578
 20
-0.0139146875588156
 30
0.0
 41
10.0
 42
10.0
 43
10.0
 50
270.0
  0
TEXT
  5
AE1
  8
SIZE
 62
     0
 10
-977.4166015386578
 20
882.7360838619832
 30
0.0
 40
30.0
  1
1875
 50
90.0
 72
     1
 11
-977.4166015386578
 21
937.4860838619832
 31
0.0
  0
POINT
  5
AE2
  8
DEFPOINTS
 62
     0
 10
-40.01658248901367
 20
1874.986083984375
 30
0.0
  0
POINT
  5
AE3
  8
DEFPOINTS
 62
     0
 10
-284.5165710449219
 20
-0.013914687559009
 30
0.0
  0
POINT
  5
AE4
  8
DEFPOINTS
 62
     0
 10
-967.4166015386578
 20
-0.0139146875588156
 30
0.0
  0
ENDBLK
  5
AE5
  8
0
  0
BLOCK
  8
0
  2
*D73
 70
     1
 10
0.0
 20
0.0
 30
0.0
  3
*D73
  1

  0
LINE
  5
AE8
  8
SIZE
 62
     0
 10
324.9834289550781
 20
1829.986083984375
 30
0.0
 11
1075.083398461342
 21
1829.986083984375
 31
0.0
  0
LINE
  5
AE9
  8
SIZE
 62
     0
 10
294.4834289550781
 20
-0.0139146875590118
 30
0.0
 11
1075.083398461342
 21
-0.013914687559233
 31
0.0
  0
LINE
  5
AEA
  8
SIZE
 62
     0
 10
1062.583398461342
 20
1819.986083984375
 30
0.0
 11
1062.583398461342
 21
9.986085312440771
 31
0.0
  0
INSERT
  5
AEB
  8
SIZE
 62
     0
  2
_ORIGIN
 10
1062.583398461342
 20
1829.986083984375
 30
0.0
 41
10.0
 42
10.0
 43
10.0
 50
90.0
  0
INSERT
  5
AEC
  8
SIZE
 62
     0
  2
_ORIGIN
 10
1062.583398461342
 20
-0.0139146875592294
 30
0.0
 41
10.0
 42
10.0
 43
10.0
 50
270.0
  0
TEXT
  5
AED
  8
SIZE
 62
     0
 10
1052.583398461342
 20
862.786083861983
 30
0.0
 40
30.0
  1
1830
 50
90.0
 72
     1
 11
1052.583398461342
 21
914.986083861983
 31
0.0
  0
POINT
  5
AEE
  8
DEFPOINTS
 62
     0
 10
314.9834289550781
 20
1829.986083984375
 30
0.0
  0
POINT
  5
AEF
  8
DEFPOINTS
 62
     0
 10
284.4834289550781
 20
-0.013914687559009
 30
0.0
  0
POINT
  5
AF0
  8
DEFPOINTS
 62
     0
 10
1062.583398461342
 20
-0.0139146875592294
 30
0.0
  0
ENDBLK
  5
AF1
  8
0
  0
BLOCK
  8
0
  2
*D74
 70
     1
 10
0.0
 20
0.0
 30
0.0
  3
*D74
  1

  0
LINE
  5
AF4
  8
SIZE
 62
     0
 10
-294.5165710449219
 20
-0.0139146875590062
 30
0.0
 11
-779.9166015386581
 21
-0.0139146875588687
 31
0.0
  0
LINE
  5
AF5
  8
SIZE
 62
     0
 10
-287.0165710449219
 20
431.986083984375
 30
0.0
 11
-779.916601538658
 21
431.9860839843752
 31
0.0
  0
LINE
  5
AF6
  8
SIZE
 62
     0
 10
-767.4166015386581
 20
9.986085312441128
 30
0.0
 11
-767.416601538658
 21
421.9860839843752
 31
0.0
  0
INSERT
  5
AF7
  8
SIZE
 62
     0
  2
_ORIGIN
 10
-767.4166015386581
 20
-0.0139146875588722
 30
0.0
 41
10.0
 42
10.0
 43
10.0
 50
270.0
  0
INSERT
  5
AF8
  8
SIZE
 62
     0
  2
_ORIGIN
 10
-767.416601538658
 20
431.9860839843752
 30
0.0
 41
10.0
 42
10.0
 43
10.0
 50
90.0
  0
TEXT
  5
AF9
  8
SIZE
 62
     0
 10
-777.4166015386581
 20
170.9860838619831
 30
0.0
 40
30.0
  1
432
 50
90.0
 72
     1
 11
-777.4166015386581
 21
215.9860838619831
 31
0.0
  0
POINT
  5
AFA
  8
DEFPOINTS
 62
     0
 10
-284.5165710449219
 20
-0.013914687559009
 30
0.0
  0
POINT
  5
AFB
  8
DEFPOINTS
 62
     0
 10
-277.0165710449219
 20
431.986083984375
 30
0.0
  0
POINT
  5
AFC
  8
DEFPOINTS
 62
     0
 10
-767.416601538658
 20
431.9860839843752
 30
0.0
  0
ENDBLK
  5
AFD
  8
0
  0
ENDSEC
  0
SECTION
  2
ENTITIES
  0
LINE
  5
AFE
  8
OUTLINE
  6
CONTINUOUS
 10
314.9999999999999
 20
1830.0
 30
0.0
 11
314.9999999999999
 21
200.0
 31
0.0
  0
LINE
  5
AFF
  8
OUTLINE
  6
CONTINUOUS
 10
-36.49999999999979
 20
200.0
 30
0.0
 11
-36.49999999999977
 21
0.0
 31
0.0
  0
LINE
  5
B00
  8
OUTLINE
  6
CONTINUOUS
 10
-284.4999999999998
 20
-0.000000000000057
 30
0.0
 11
-211.4999999999997
 21
0.0
 31
0.0
  0
LINE
  5
B01
  8
OUTLINE
  6
CONTINUOUS
 10
-211.4999999999998
 20
200.0
 30
0.0
 11
-211.4999999999997
 21
0.0
 31
0.0
  0
LINE
  5
B02
  8
OUTLINE
  6
CONTINUOUS
 10
-284.4999999999998
 20
200.0
 30
0.0
 11
-284.4999999999998
 21
-0.000000000000057
 31
0.0
  0
LINE
  5
B03
  8
OUTLINE
  6
CONTINUOUS
 10
36.50000000000002
 20
0.0
 30
0.0
 11
-36.49999999999977
 21
0.0
 31
0.0
  0
LINE
  5
B04
  8
OUTLINE
  6
CONTINUOUS
 10
36.50000000000002
 20
200.0
 30
0.0
 11
36.50000000000002
 21
0.0
 31
0.0
  0
LINE
  5
B05
  8
OUTLINE
  6
CONTINUOUS
 10
211.5
 20
200.0
 30
0.0
 11
211.5
 21
0.0
 31
0.0
  0
LINE
  5
B06
  8
OUTLINE
  6
CONTINUOUS
 10
284.5000000000001
 20
200.0
 30
0.0
 11
284.5000000000001
 21
0.0
 31
0.0
  0
LINE
  5
B07
  8
OUTLINE
  6
CONTINUOUS
 10
-314.9999999999999
 20
1830.0
 30
0.0
 11
-314.9999999999999
 21
200.0
 31
0.0
  0
LINE
  5
B08
  8
OUTLINE
  6
CONTINUOUS
 10
314.9999999999999
 20
1830.0
 30
0.0
 11
-314.9999999999999
 21
1830.0
 31
0.0
  0
LINE
  5
B09
  8
OUTLINE
  6
CONTINUOUS
 10
314.9999999999999
 20
200.0
 30
0.0
 11
-314.9999999999999
 21
200.0
 31
0.0
  0
LINE
  5
B0A
  8
OUTLINE
  6
CONTINUOUS
 10
284.5000000000001
 20
0.0
 30
0.0
 11
211.5
 21
0.0
 31
0.0
  0
LINE
  5
B0B
  8
OUTLINE
  6
CONTINUOUS
 10
314.9999999999999
 20
399.9999999999999
 30
0.0
 11
-314.9999999999999
 21
399.9999999999999
 31
0.0
  0
LINE
  5
B0C
  8
DETAIL
  6
CONTINUOUS
 10
217.0165813342655
 20
3.213914687612696
 30
0.0
 11
279.0165813342655
 21
3.213914687612696
 31
0.0
  0
LINE
  5
B0D
  8
DETAIL
  6
CONTINUOUS
 10
279.0165813342655
 20
0.013914687612671
 30
0.0
 11
279.0165813342655
 21
3.213914687612696
 31
0.0
  0
LINE
  5
B0E
  8
DETAIL
  6
CONTINUOUS
 10
217.0165813342655
 20
0.013914687612671
 30
0.0
 11
217.0165813342655
 21
3.213914687612696
 31
0.0
  0
LINE
  5
B0F
  8
DETAIL
  6
CONTINUOUS
 10
-30.98341866573435
 20
3.213914687612696
 30
0.0
 11
31.01658133426566
 21
3.213914687612696
 31
0.0
  0
LINE
  5
B10
  8
DETAIL
  6
CONTINUOUS
 10
31.01658133426566
 20
0.013914687612671
 30
0.0
 11
31.01658133426566
 21
3.213914687612696
 31
0.0
  0
LINE
  5
B11
  8
DETAIL
  6
CONTINUOUS
 10
-30.98341866573438
 20
0.013914687612667
 30
0.0
 11
-30.98341866573438
 21
3.213914687612692
 31
0.0
  0
LINE
  5
B12
  8
DETAIL
  6
CONTINUOUS
 10
-278.9834186657342
 20
0.013914687612646
 30
0.0
 11
-278.9834186657342
 21
3.213914687612671
 31
0.0
  0
LINE
  5
B13
  8
DETAIL
  6
CONTINUOUS
 10
-278.9834186657342
 20
3.213914687612668
 30
0.0
 11
-216.9834186657343
 21
3.213914687612668
 31
0.0
  0
LINE
  5
B14
  8
DETAIL
  6
CONTINUOUS
 10
-216.9834186657343
 20
0.013914687612643
 30
0.0
 11
-216.9834186657343
 21
3.213914687612668
 31
0.0
  0
LINE
  5
B15
  8
DETAIL
  6
CONTINUOUS
 10
-122.0
 20
431.9999999999999
 30
0.0
 11
-276.9999999999999
 21
431.9999999999999
 31
0.0
  0
LINE
  5
B16
  8
DETAIL
  6
CONTINUOUS
 10
-122.0
 20
652.0000000000001
 30
0.0
 11
-276.9999999999999
 21
652.0000000000001
 31
0.0
  0
LINE
  5
B17
  8
DETAIL
  6
CONTINUOUS
 10
-114.0
 20
644.0000000000001
 30
0.0
 11
-114.0
 21
439.9999999999999
 31
0.0
  0
LINE
  5
B18
  8
DETAIL
  6
CONTINUOUS
 10
-284.9999999999999
 20
644.0000000000001
 30
0.0
 11
-284.9999999999999
 21
439.9999999999999
 31
0.0
  0
ARC
  5
B19
  8
DETAIL
  6
CONTINUOUS
 10
-122.0
 20
644.0000000000001
 30
0.0
 40
8.0
 50
0.0
 51
90.0
  0
ARC
  5
B1A
  8
DETAIL
  6
CONTINUOUS
 10
-276.9999999999999
 20
644.0000000000001
 30
0.0
 40
8.0
 50
90.0
 51
180.0
  0
ARC
  5
B1B
  8
DETAIL
  6
CONTINUOUS
 10
-276.9999999999999
 20
439.9999999999999
 30
0.0
 40
8.0
 50
180.0
 51
270.0
  0
ARC
  5
B1C
  8
DETAIL
  6
CONTINUOUS
 10
-122.0
 20
439.9999999999999
 30
0.0
 40
8.0
 50
270.0
 51
0.0
  0
LINE
  5
B1D
  8
DETAIL
  6
CONTINUOUS
 10
-216.5
 20
594.5000000000001
 30
0.0
 11
-210.8578166916004
 21
594.5000000000001
 31
0.0
  0
LINE
  5
B1E
  8
DETAIL
  6
CONTINUOUS
 10
-216.5
 20
609.5000000000001
 30
0.0
 11
-182.5
 21
609.5000000000001
 31
0.0
  0
LINE
  5
B1F
  8
DETAIL
  6
CONTINUOUS
 10
-179.5
 20
606.5000000000001
 30
0.0
 11
-179.5
 21
597.5000000000001
 31
0.0
  0
LINE
  5
B20
  8
DETAIL
  6
CONTINUOUS
 10
-219.5
 20
606.5000000000001
 30
0.0
 11
-219.5
 21
597.5000000000001
 31
0.0
  0
ARC
  5
B21
  8
DETAIL
  6
CONTINUOUS
 10
-199.5
 20
577.5000000000001
 30
0.0
 40
20.00000000000003
 50
60.40815420604933
 51
119.5918457939507
  0
LINE
  5
B22
  8
DETAIL
  6
CONTINUOUS
 10
-182.5
 20
594.5000000000001
 30
0.0
 11
-188.1421833083995
 21
594.5000000000001
 31
0.0
  0
ARC
  5
B23
  8
DETAIL
  6
CONTINUOUS
 10
-182.5
 20
606.5000000000001
 30
0.0
 40
3.0
 50
0.0
 51
90.0
  0
ARC
  5
B24
  8
DETAIL
  6
CONTINUOUS
 10
-188.1421833083995
 20
597.5000000000001
 30
0.0
 40
2.999999999999966
 50
240.408154206049
 51
270.0
  0
ARC
  5
B25
  8
DETAIL
  6
CONTINUOUS
 10
-182.5
 20
597.5000000000001
 30
0.0
 40
3.0
 50
270.0
 51
0.0
  0
ARC
  5
B26
  8
DETAIL
  6
CONTINUOUS
 10
-210.8578166916004
 20
597.5000000000001
 30
0.0
 40
3.0
 50
270.0
 51
299.591845793951
  0
ARC
  5
B27
  8
DETAIL
  6
CONTINUOUS
 10
-216.5
 20
606.5000000000001
 30
0.0
 40
3.0
 50
90.0
 51
180.0
  0
ARC
  5
B28
  8
DETAIL
  6
CONTINUOUS
 10
-216.5
 20
597.5000000000001
 30
0.0
 40
3.0
 50
180.0
 51
270.0
  0
LINE
  5
B29
  8
DETAIL
  6
CONTINUOUS
 10
93.70000000000039
 20
192.0000000000001
 30
0.0
 11
177.6999999999998
 21
192.0000000000001
 31
0.0
  0
LINE
  5
B2A
  8
DETAIL
  6
CONTINUOUS
 10
145.9999999999999
 20
1788.0
 30
0.0
 11
264.0000000000001
 21
1788.0
 31
0.0
  0
LINE
  5
B2B
  8
DETAIL
  6
CONTINUOUS
 10
270.0000000000001
 20
1782.0
 30
0.0
 11
270.0000000000001
 21
1676.0
 31
0.0
  0
LINE
  5
B2C
  8
DETAIL
  6
CONTINUOUS
 10
140.0
 20
1782.0
 30
0.0
 11
140.0
 21
1676.0
 31
0.0
  0
ARC
  5
B2D
  8
DETAIL
  6
CONTINUOUS
 10
264.0000000000001
 20
1782.0
 30
0.0
 40
6.0
 50
0.0
 51
90.0
  0
ARC
  5
B2E
  8
DETAIL
  6
CONTINUOUS
 10
145.9999999999999
 20
1782.0
 30
0.0
 40
6.0
 50
90.0
 51
180.0
  0
LINE
  5
B2F
  8
DETAIL
  6
CONTINUOUS
 10
145.9999999999999
 20
1782.0
 30
0.0
 11
264.0000000000001
 21
1782.0
 31
0.0
  0
LINE
  5
B30
  8
DETAIL
  6
CONTINUOUS
 10
145.9999999999999
 20
1670.0
 30
0.0
 11
264.0000000000001
 21
1670.0
 31
0.0
  0
ARC
  5
B31
  8
DETAIL
  6
CONTINUOUS
 10
264.0000000000001
 20
1676.0
 30
0.0
 40
6.0
 50
270.0
 51
0.0
  0
ARC
  5
B32
  8
DETAIL
  6
CONTINUOUS
 10
145.9999999999999
 20
1676.0
 30
0.0
 40
6.0
 50
180.0
 51
270.0
  0
LINE
  5
B33
  8
DETAIL
  6
CONTINUOUS
 10
264.0000000000001
 20
1782.0
 30
0.0
 11
264.0000000000001
 21
1674.0
 31
0.0
  0
LINE
  5
B34
  8
DETAIL
  6
CONTINUOUS
 10
145.9999999999999
 20
1782.0
 30
0.0
 11
145.9999999999999
 21
1674.0
 31
0.0
  0
LINE
  5
B35
  8
DETAIL
  6
CONTINUOUS
 10
147.9999999999999
 20
1685.0
 30
0.0
 11
262.0000000000001
 21
1685.0
 31
0.0
  0
LINE
  5
B36
  8
DETAIL
  6
CONTINUOUS
 10
147.9999999999999
 20
1672.0
 30
0.0
 11
262.0000000000001
 21
1672.0
 31
0.0
  0
ARC
  5
B37
  8
DETAIL
  6
CONTINUOUS
 10
262.0000000000001
 20
1674.0
 30
0.0
 40
2.0
 50
270.0
 51
0.0
  0
ARC
  5
B38
  8
DETAIL
  6
CONTINUOUS
 10
147.9999999999999
 20
1674.0
 30
0.0
 40
2.0
 50
180.0
 51
270.0
  0
ARC
  5
B39
  8
DETAIL
  6
CONTINUOUS
 10
262.0000000000001
 20
1687.0
 30
0.0
 40
2.0
 50
270.0
 51
0.0
  0
ARC
  5
B3A
  8
DETAIL
  6
CONTINUOUS
 10
147.9999999999999
 20
1687.0
 30
0.0
 40
2.0
 50
180.0
 51
270.0
  0
CIRCLE
  5
B3B
  8
DETAIL
  6
CONTINUOUS
 10
-202.5000000000001
 20
673.5000000000001
 30
0.0
 40
8.0
  0
ARC
  5
B3C
  8
DETAIL
  6
CONTINUOUS
 10
-272.9999999999999
 20
776.0000000000001
 30
0.0
 40
2.0
 50
90.0
 51
180.0
  0
ARC
  5
B3D
  8
DETAIL
  6
CONTINUOUS
 10
-132.0
 20
776.0000000000001
 30
0.0
 40
2.0
 50
0.0
 51
90.0
  0
ARC
  5
B3E
  8
DETAIL
  6
CONTINUOUS
 10
-266.9999999999999
 20
671.0000000000001
 30
0.0
 40
8.0
 50
180.0
 51
270.0
  0
ARC
  5
B3F
  8
DETAIL
  6
CONTINUOUS
 10
-138.0
 20
671.0000000000001
 30
0.0
 40
8.0
 50
270.0
 51
0.0
  0
LINE
  5
B40
  8
DETAIL
  6
CONTINUOUS
 10
-266.9999999999999
 20
663.0000000000001
 30
0.0
 11
-138.0
 21
663.0000000000001
 31
0.0
  0
LINE
  5
B41
  8
DETAIL
  6
CONTINUOUS
 10
-272.9999999999999
 20
778.0000000000001
 30
0.0
 11
-132.0
 21
778.0000000000001
 31
0.0
  0
LINE
  5
B42
  8
DETAIL
  6
CONTINUOUS
 10
-274.9999999999999
 20
776.0000000000001
 30
0.0
 11
-274.9999999999999
 21
671.0000000000001
 31
0.0
  0
LINE
  5
B43
  8
DETAIL
  6
CONTINUOUS
 10
-130.0
 20
776.0000000000001
 30
0.0
 11
-130.0
 21
671.0000000000001
 31
0.0
  0
LINE
  5
B44
  8
DETAIL
  6
CONTINUOUS
 10
121.2000000000002
 20
143.0000000000002
 30
0.0
 11
121.2000000000002
 21
188.5000000000003
 31
0.0
  0
LINE
  5
B45
  8
DETAIL
  6
CONTINUOUS
 10
112.3532124826824
 20
163.5000000000002
 30
0.0
 11
121.2000000000002
 21
163.5000000000002
 31
0.0
  0
LINE
  5
B46
  8
DETAIL
  6
CONTINUOUS
 10
110.6211616751135
 20
150.0000000000002
 30
0.0
 11
121.2000000000002
 21
150.0000000000002
 31
0.0
  0
LINE
  5
B47
  8
DETAIL
  6
CONTINUOUS
 10
157.2000000000002
 20
143.0000000000002
 30
0.0
 11
157.2000000000002
 21
188.5000000000003
 31
0.0
  0
LINE
  5
B48
  8
DETAIL
  6
CONTINUOUS
 10
110.6211616751135
 20
139.0000000000002
 30
0.0
 11
153.2000000000002
 21
139.0000000000002
 31
0.0
  0
LINE
  5
B49
  8
DETAIL
  6
CONTINUOUS
 10
107.6999999999999
 20
188.5000000000003
 30
0.0
 11
170.7000000000002
 21
188.5000000000003
 31
0.0
  0
LINE
  5
B4A
  8
DETAIL
  6
CONTINUOUS
 10
170.7000000000002
 20
188.5000000000003
 30
0.0
 11
170.7000000000002
 21
192.0000000000003
 31
0.0
  0
ARC
  5
B4B
  8
DETAIL
  6
CONTINUOUS
 10
153.2000000000002
 20
143.0000000000002
 30
0.0
 40
4.0
 50
270.0
 51
0.0
  0
LINE
  5
B4C
  8
DETAIL
  6
CONTINUOUS
 10
-200.6874999999982
 20
155.0
 30
0.0
 11
-175.3124999999982
 21
155.0
 31
0.0
  0
ARC
  5
B4D
  8
DETAIL
  6
CONTINUOUS
 10
-39.99999999999999
 20
1870.0
 30
0.0
 40
5.0
 50
90.0
 51
180.0
  0
ARC
  5
B4E
  8
DETAIL
  6
CONTINUOUS
 10
40.00000000000001
 20
1870.0
 30
0.0
 40
5.0
 50
0.0
 51
90.0
  0
LINE
  5
B4F
  8
DETAIL
  6
CONTINUOUS
 10
40.00000000000001
 20
1875.0
 30
0.0
 11
-39.99999999999999
 21
1875.0
 31
0.0
  0
LINE
  5
B50
  8
DETAIL
  6
CONTINUOUS
 10
-44.99999999999999
 20
1830.0
 30
0.0
 11
-44.99999999999999
 21
1870.0
 31
0.0
  0
LINE
  5
B51
  8
DETAIL
  6
CONTINUOUS
 10
45.0
 20
1830.0
 30
0.0
 11
45.0
 21
1870.0
 31
0.0
  0
LINE
  5
B52
  8
DETAIL
  6
CONTINUOUS
 10
284.5000000000001
 20
0.0
 30
0.0
 11
211.5
 21
0.0
 31
0.0
  0
LINE
  5
B53
  8
DETAIL
  6
CONTINUOUS
 10
314.9999999999999
 20
200.0
 30
0.0
 11
-314.9999999999999
 21
200.0
 31
0.0
  0
LINE
  5
B54
  8
DETAIL
  6
CONTINUOUS
 10
314.9999999999999
 20
1830.0
 30
0.0
 11
-314.9999999999999
 21
1830.0
 31
0.0
  0
LINE
  5
B55
  8
DETAIL
  6
CONTINUOUS
 10
314.9999999999999
 20
200.0
 30
0.0
 11
314.9999999999999
 21
1830.0
 31
0.0
  0
LINE
  5
B56
  8
DETAIL
  6
CONTINUOUS
 10
-314.9999999999999
 20
1826.0
 30
0.0
 11
-314.9999999999999
 21
196.0
 31
0.0
  0
LINE
  5
B57
  8
DETAIL
  6
CONTINUOUS
 10
284.5000000000001
 20
200.0
 30
0.0
 11
284.5000000000001
 21
0.0
 31
0.0
  0
LINE
  5
B58
  8
DETAIL
  6
CONTINUOUS
 10
211.5
 20
200.0
 30
0.0
 11
211.5
 21
0.0
 31
0.0
  0
LINE
  5
B59
  8
DETAIL
  6
CONTINUOUS
 10
36.50000000000002
 20
200.0
 30
0.0
 11
36.50000000000002
 21
0.0
 31
0.0
  0
LINE
  5
B5A
  8
DETAIL
  6
CONTINUOUS
 10
36.50000000000002
 20
0.0
 30
0.0
 11
-36.49999999999977
 21
0.0
 31
0.0
  0
LINE
  5
B5B
  8
DETAIL
  6
CONTINUOUS
 10
-284.4999999999998
 20
200.0
 30
0.0
 11
-284.4999999999998
 21
-0.000000000000057
 31
0.0
  0
LINE
  5
B5C
  8
DETAIL
  6
CONTINUOUS
 10
-211.4999999999999
 20
183.5000000000015
 30
0.0
 11
-211.4999999999997
 21
0.0
 31
0.0
  0
LINE
  5
B5D
  8
DETAIL
  6
CONTINUOUS
 10
-284.4999999999998
 20
-0.000000000000057
 30
0.0
 11
-211.4999999999997
 21
0.0
 31
0.0
  0
LINE
  5
B5E
  8
DETAIL
  6
CONTINUOUS
 10
-36.49999999999979
 20
200.0
 30
0.0
 11
-36.49999999999977
 21
0.0
 31
0.0
  0
LINE
  5
B5F
  8
DETAIL
  6
CONTINUOUS
 10
-124.0
 20
779.0000000000001
 30
0.0
 11
-124.0
 21
665.0000000000001
 31
0.0
  0
ARC
  5
B60
  8
DETAIL
  6
CONTINUOUS
 10
-132.0
 20
779.0000000000001
 30
0.0
 40
7.999999999999972
 50
0.0
 51
90.0
  0
ARC
  5
B61
  8
DETAIL
  6
CONTINUOUS
 10
-272.9999999999999
 20
779.0000000000001
 30
0.0
 40
8.0
 50
90.0
 51
180.0
  0
LINE
  5
B62
  8
DETAIL
  6
CONTINUOUS
 10
-132.0
 20
657.0000000000001
 30
0.0
 11
-272.9999999999999
 21
657.0000000000001
 31
0.0
  0
ARC
  5
B63
  8
DETAIL
  6
CONTINUOUS
 10
-132.0
 20
665.0000000000001
 30
0.0
 40
8.0
 50
270.0
 51
0.0
  0
LINE
  5
B64
  8
DETAIL
  6
CONTINUOUS
 10
-280.9999999999999
 20
779.0000000000001
 30
0.0
 11
-280.9999999999999
 21
665.0000000000001
 31
0.0
  0
ARC
  5
B65
  8
DETAIL
  6
CONTINUOUS
 10
-272.9999999999999
 20
665.0000000000001
 30
0.0
 40
8.0
 50
180.0
 51
270.0
  0
LINE
  5
B66
  8
DETAIL
  6
CONTINUOUS
 10
-272.9999999999999
 20
787.0000000000001
 30
0.0
 11
-132.0
 21
787.0000000000001
 31
0.0
  0
LINE
  5
B67
  8
DETAIL
  6
CONTINUOUS
 10
314.9999999999999
 20
1804.0
 30
0.0
 11
-314.9999999999999
 21
1804.0
 31
0.0
  0
LINE
  5
B68
  8
DETAIL
  6
CONTINUOUS
 10
45.0
 20
1830.0
 30
0.0
 11
45.0
 21
1870.0
 31
0.0
  0
LINE
  5
B69
  8
DETAIL
  6
CONTINUOUS
 10
-44.99999999999999
 20
1830.0
 30
0.0
 11
-44.99999999999999
 21
1870.0
 31
0.0
  0
LINE
  5
B6A
  8
DETAIL
  6
CONTINUOUS
 10
40.00000000000001
 20
1875.0
 30
0.0
 11
-39.99999999999999
 21
1875.0
 31
0.0
  0
ARC
  5
B6B
  8
DETAIL
  6
CONTINUOUS
 10
40.00000000000001
 20
1870.0
 30
0.0
 40
5.0
 50
0.0
 51
90.0
  0
ARC
  5
B6C
  8
DETAIL
  6
CONTINUOUS
 10
-39.99999999999999
 20
1870.0
 30
0.0
 40
5.0
 50
90.0
 51
180.0
  0
LINE
  5
B6D
  8
DETAIL
  6
CONTINUOUS
 10
-163.9999999999982
 20
184.0
 30
0.0
 11
-211.9999999999982
 21
183.9999999999995
 31
0.0
  0
LINE
  5
B6E
  8
DETAIL
  6
CONTINUOUS
 10
-167.9999999999985
 20
180.0
 30
0.0
 11
-163.9999999999982
 21
184.0000000000007
 31
0.0
  0
LINE
  5
B6F
  8
DETAIL
  6
CONTINUOUS
 10
-163.9999999999982
 20
200.0
 30
0.0
 11
-163.9999999999982
 21
184.0000000000007
 31
0.0
  0
LINE
  5
B70
  8
DETAIL
  6
CONTINUOUS
 10
-207.9999999999987
 20
180.0
 30
0.0
 11
-167.9999999999985
 21
180.0
 31
0.0
  0
LINE
  5
B71
  8
DETAIL
  6
CONTINUOUS
 10
-207.9999999999987
 20
180.0
 30
0.0
 11
-211.9999999999982
 21
183.9999999999998
 31
0.0
  0
LINE
  5
B72
  8
DETAIL
  6
CONTINUOUS
 10
-211.9999999999982
 20
200.0
 30
0.0
 11
-211.9999999999982
 21
183.9999999999998
 31
0.0
  0
LINE
  5
B73
  8
DETAIL
  6
CONTINUOUS
 10
-205.7830545538418
 20
180.0
 30
0.0
 11
-205.7830545538418
 21
167.0
 31
0.0
  0
LINE
  5
B74
  8
DETAIL
  6
CONTINUOUS
 10
-170.2169454461646
 20
180.0
 30
0.0
 11
-170.2169454461646
 21
167.0
 31
0.0
  0
LINE
  5
B75
  8
DETAIL
  6
CONTINUOUS
 10
-205.7830545538418
 20
167.0
 30
0.0
 11
-170.2169454461646
 21
167.0
 31
0.0
  0
LINE
  5
B76
  8
DETAIL
  6
CONTINUOUS
 10
-175.1249999999982
 20
155.0
 30
0.0
 11
-174.3749999999982
 21
167.0
 31
0.0
  0
LINE
  5
B77
  8
DETAIL
  6
CONTINUOUS
 10
-200.8749999999991
 20
155.0
 30
0.0
 11
-201.6249999999991
 21
167.0
 31
0.0
  0
LINE
  5
B78
  8
DETAIL
  6
CONTINUOUS
 10
314.9999999999999
 20
399.9999999999999
 30
0.0
 11
-314.9999999999999
 21
399.9999999999999
 31
0.0
  0
LINE
  5
B79
  8
DETAIL
  6
CONTINUOUS
 10
244.15
 20
359.9999999999999
 30
0.0
 11
244.15
 21
399.9999999999999
 31
0.0
  0
LINE
  5
B7A
  8
DETAIL
  6
CONTINUOUS
 10
265.85
 20
359.9999999999999
 30
0.0
 11
244.15
 21
359.9999999999999
 31
0.0
  0
LINE
  5
B7B
  8
DETAIL
  6
CONTINUOUS
 10
265.85
 20
359.9999999999999
 30
0.0
 11
265.85
 21
399.9999999999999
 31
0.0
  0
LINE
  5
B7C
  8
DETAIL
  6
CONTINUOUS
 10
265.85
 20
367.9999999999999
 30
0.0
 11
265.85
 21
399.9999999999999
 31
0.0
  0
LINE
  5
B7D
  8
DETAIL
  6
CONTINUOUS
 10
56.40000000000002
 20
319.9999999999999
 30
0.0
 11
56.40000000000002
 21
399.9999999999999
 31
0.0
  0
LINE
  5
B7E
  8
DETAIL
  6
CONTINUOUS
 10
83.59999999999997
 20
319.9999999999999
 30
0.0
 11
83.60000000000012
 21
399.9999999999999
 31
0.0
  0
LINE
  5
B7F
  8
DETAIL
  6
CONTINUOUS
 10
83.6
 20
319.9999999999999
 30
0.0
 11
56.40000000000002
 21
319.9999999999999
 31
0.0
  0
LINE
  5
B80
  8
DETAIL
  6
CONTINUOUS
 10
-243.6
 20
319.9999999999999
 30
0.0
 11
-243.6
 21
399.9999999999999
 31
0.0
  0
LINE
  5
B81
  8
DETAIL
  6
CONTINUOUS
 10
-216.3999999999999
 20
319.9999999999999
 30
0.0
 11
-216.3999999999997
 21
399.9999999999999
 31
0.0
  0
LINE
  5
B82
  8
DETAIL
  6
CONTINUOUS
 10
-216.3999999999999
 20
319.9999999999999
 30
0.0
 11
-243.6
 21
319.9999999999999
 31
0.0
  0
LINE
  5
B83
  8
DETAIL
  6
CONTINUOUS
 10
107.6999999999999
 20
188.5000000000003
 30
0.0
 11
107.6999999999999
 21
192.0000000000003
 31
0.0
  0
LINE
  5
B84
  8
DETAIL
  6
CONTINUOUS
 10
112.3532124826824
 20
181.5000000000003
 30
0.0
 11
121.2000000000002
 21
181.5000000000003
 31
0.0
  0
ARC
  5
B85
  8
DETAIL
  6
CONTINUOUS
 10
125.1999999999999
 20
143.0000000000002
 30
0.0
 40
4.0
 50
180.0
 51
270.0
  0
LINE
  5
B86
  8
DETAIL
  6
CONTINUOUS
 10
177.6999999999998
 20
192.0000000000001
 30
0.0
 11
185.7
 21
200.0
 31
0.0
  0
LINE
  5
B87
  8
DETAIL
  6
CONTINUOUS
 10
93.70000000000039
 20
192.0000000000001
 30
0.0
 11
85.70000000000014
 21
200.0
 31
0.0
  0
POLYLINE
  5
B88
  8
DETAIL
  6
CONTINUOUS
 66
     1
 10
0.0
 20
0.0
 30
0.0
  0
VERTEX
  5
E08
  8
DETAIL
  6
CONTINUOUS
 10
110.6211616751135
 20
150.0000000000002
 30
0.0
  0
VERTEX
  5
E09
  8
DETAIL
  6
CONTINUOUS
 10
110.0846632895692
 20
149.894319042218
 30
0.0
  0
VERTEX
  5
E0A
  8
DETAIL
  6
CONTINUOUS
 10
109.5687822361096
 20
149.5813374288123
 30
0.0
  0
VERTEX
  5
E0B
  8
DETAIL
  6
CONTINUOUS
 10
109.0933435343096
 20
149.0730828676642
 30
0.0
  0
VERTEX
  5
E0C
  8
DETAIL
  6
CONTINUOUS
 10
108.6766180268506
 20
148.3890872965262
 30
0.0
  0
VERTEX
  5
E0D
  8
DETAIL
  6
CONTINUOUS
 10
108.3346202412816
 20
147.555636281608
 30
0.0
  0
VERTEX
  5
E0E
  8
DETAIL
  6
CONTINUOUS
 10
108.0804929607075
 20
146.6047588780082
 30
0.0
  0
VERTEX
  5
E0F
  8
DETAIL
  6
CONTINUOUS
 10
107.9240021540047
 20
145.5729967710889
 30
0.0
  0
VERTEX
  5
E10
  8
DETAIL
  6
CONTINUOUS
 10
107.8711616751136
 20
144.5000000000002
 30
0.0
  0
VERTEX
  5
E11
  8
DETAIL
  6
CONTINUOUS
 10
107.9240021540047
 20
143.4270032289115
 30
0.0
  0
VERTEX
  5
E12
  8
DETAIL
  6
CONTINUOUS
 10
108.0804929607075
 20
142.3952411219922
 30
0.0
  0
VERTEX
  5
E13
  8
DETAIL
  6
CONTINUOUS
 10
108.3346202412816
 20
141.4443637183924
 30
0.0
  0
VERTEX
  5
E14
  8
DETAIL
  6
CONTINUOUS
 10
108.6766180268506
 20
140.6109127034742
 30
0.0
  0
VERTEX
  5
E15
  8
DETAIL
  6
CONTINUOUS
 10
109.0933435343096
 20
139.9269171323362
 30
0.0
  0
VERTEX
  5
E16
  8
DETAIL
  6
CONTINUOUS
 10
109.5687822361096
 20
139.4186625711881
 30
0.0
  0
VERTEX
  5
E17
  8
DETAIL
  6
CONTINUOUS
 10
110.0846632895692
 20
139.1056809577825
 30
0.0
  0
VERTEX
  5
E18
  8
DETAIL
  6
CONTINUOUS
 10
110.6211616751135
 20
139.0000000000002
 30
0.0
  0
SEQEND
  5
E2D
  8
DETAIL
  6
CONTINUOUS
  0
POLYLINE
  5
B9B
  8
DETAIL
  6
CONTINUOUS
 66
     1
 10
0.0
 20
0.0
 30
0.0
  0
VERTEX
  5
E19
  8
DETAIL
  6
CONTINUOUS
 10
111.8335966791713
 20
163.5602014750352
 30
0.0
  0
VERTEX
  5
E1A
  8
DETAIL
  6
CONTINUOUS
 10
112.3532124826824
 20
163.5000000000002
 30
0.0
  0
SEQEND
  5
E2E
  8
DETAIL
  6
CONTINUOUS
  0
POLYLINE
  5
B9F
  8
DETAIL
  6
CONTINUOUS
 66
     1
 10
0.0
 20
0.0
 30
0.0
  0
VERTEX
  5
E1B
  8
DETAIL
  6
CONTINUOUS
 10
107.5612052484084
 20
180.4464876937343
 30
0.0
  0
VERTEX
  5
E1C
  8
DETAIL
  6
CONTINUOUS
 10
106.8038516869867
 20
180.1193094168896
 30
0.0
  0
VERTEX
  5
E1D
  8
DETAIL
  6
CONTINUOUS
 10
106.0922457446525
 20
179.5062423535351
 30
0.0
  0
VERTEX
  5
E1E
  8
DETAIL
  6
CONTINUOUS
 10
105.4530880248589
 20
178.6302897693476
 30
0.0
  0
VERTEX
  5
E1F
  8
DETAIL
  6
CONTINUOUS
 10
104.9103607568216
 20
177.52431881903
 30
0.0
  0
VERTEX
  5
E20
  8
DETAIL
  6
CONTINUOUS
 10
104.4844279435721
 20
176.2298273176205
 30
0.0
  0
VERTEX
  5
E21
  8
DETAIL
  6
CONTINUOUS
 10
104.1912712716982
 20
174.7953866754974
 30
0.0
  0
VERTEX
  5
E22
  8
DETAIL
  6
CONTINUOUS
 10
104.0418904526688
 20
173.274819420669
 30
0.0
  0
VERTEX
  5
E23
  8
DETAIL
  6
CONTINUOUS
 10
104.0418904959072
 20
171.7251796906571
 30
0.0
  0
VERTEX
  5
E24
  8
DETAIL
  6
CONTINUOUS
 10
104.1912713997911
 20
170.2046124691733
 30
0.0
  0
VERTEX
  5
E25
  8
DETAIL
  6
CONTINUOUS
 10
104.4844281517133
 20
168.7701718924879
 30
0.0
  0
VERTEX
  5
E26
  8
DETAIL
  6
CONTINUOUS
 10
104.9103610372012
 20
167.4756804861544
 30
0.0
  0
VERTEX
  5
E27
  8
DETAIL
  6
CONTINUOUS
 10
105.4530883669567
 20
166.3697096569833
 30
0.0
  0
VERTEX
  5
E28
  8
DETAIL
  6
CONTINUOUS
 10
106.0922461356323
 20
165.4937572154673
 30
0.0
  0
VERTEX
  5
E29
  8
DETAIL
  6
CONTINUOUS
 10
106.8038521121784
 20
164.880690310956
 30
0.0
  0
VERTEX
  5
E2A
  8
DETAIL
  6
CONTINUOUS
 10
107.5612056918582
 20
164.5535122031663
 30
0.0
  0
SEQEND
  5
E2F
  8
DETAIL
  6
CONTINUOUS
  0
LINE
  5
BB1
  8
DETAIL
  6
CONTINUOUS
 10
107.5612052484086
 20
180.4464876937344
 30
0.0
 11
111.833597240412
 21
181.4397986554511
 31
0.0
  0
LINE
  5
BB2
  8
DETAIL
  6
CONTINUOUS
 10
111.8335972404117
 20
163.5602013445493
 30
0.0
 11
107.5612052484084
 21
164.5535123062662
 31
0.0
  0
POLYLINE
  5
BB3
  8
DETAIL
  6
CONTINUOUS
 66
     1
 10
0.0
 20
0.0
 30
0.0
  0
VERTEX
  5
E2B
  8
DETAIL
  6
CONTINUOUS
 10
112.3532124826824
 20
181.5000000000003
 30
0.0
  0
VERTEX
  5
E2C
  8
DETAIL
  6
CONTINUOUS
 10
111.8335972404117
 20
181.4397986554511
 30
0.0
  0
SEQEND
  5
E30
  8
DETAIL
  6
CONTINUOUS
  0
LINE
  5
BB7
  8
BASIS
  6
DASHDOT
 10
0.0
 20
1925.0
 30
0.0
 11
0.000000000000241
 21
-49.99999999999999
 31
0.0
  0
LINE
  5
BB8
  8
SIZE
  6
CONTINUOUS
 62
    30
 10
-294.4999897106563
 20
0.0000000000536648
 30
0.0
 11
-779.9000202043926
 21
0.0000000000538023
 31
0.0
  0
LINE
  5
BB9
  8
SIZE
  6
CONTINUOUS
 62
    30
 10
-286.9999897106563
 20
431.9999986719877
 30
0.0
 11
-779.9000202043925
 21
431.9999986719879
 31
0.0
  0
LINE
  5
BBA
  8
SIZE
  6
CONTINUOUS
 62
    30
 10
-767.4000202043926
 20
10.0000000000538
 30
0.0
 11
-767.4000202043925
 21
421.9999986719879
 31
0.0
  0
CIRCLE
  5
BBB
  8
SIZE
  6
CONTINUOUS
 62
    30
 10
-767.4000202043926
 20
0.0000000000537988
 30
0.0
 40
5.0
  0
LINE
  5
BBC
  8
SIZE
  6
CONTINUOUS
 62
    30
 10
-767.4000202043926
 20
0.0000000000537988
 30
0.0
 11
-767.4000202043926
 21
10.0000000000538
 31
0.0
  0
CIRCLE
  5
BBD
  8
SIZE
  6
CONTINUOUS
 62
    30
 10
-767.4000202043925
 20
431.9999986719879
 30
0.0
 40
5.0
  0
LINE
  5
BBE
  8
SIZE
  6
CONTINUOUS
 62
    30
 10
-767.4000202043925
 20
431.9999986719879
 30
0.0
 11
-767.4000202043925
 21
421.9999986719879
 31
0.0
  0
TEXT
  5
BBF
  8
SIZE
  6
CONTINUOUS
 62
    30
 10
-777.4000202043926
 20
173.1428556924529
 30
0.0
 40
30.0
  1
432
 50
90.0
 72
     1
 11
-777.4000202043926
 21
215.9999985495958
 31
0.0
  0
POINT
  5
BC0
  8
DEFPOINTS
  6
CONTINUOUS
 62
    30
 10
-284.4999897106563
 20
0.000000000053662
 30
0.0
  0
POINT
  5
BC1
  8
DEFPOINTS
  6
CONTINUOUS
 62
    30
 10
-276.9999897106563
 20
431.9999986719877
 30
0.0
  0
POINT
  5
BC2
  8
DEFPOINTS
  6
CONTINUOUS
 62
    30
 10
-767.4000202043925
 20
431.9999986719879
 30
0.0
  0
LINE
  5
BC3
  8
SIZE
  6
CONTINUOUS
 62
    30
 10
325.0000102893437
 20
1829.999998671988
 30
0.0
 11
1075.099979795608
 21
1829.999998671988
 31
0.0
  0
LINE
  5
BC4
  8
SIZE
  6
CONTINUOUS
 62
    30
 10
294.5000102893437
 20
0.0000000000536592
 30
0.0
 11
1075.099979795608
 21
0.000000000053438
 31
0.0
  0
LINE
  5
BC5
  8
SIZE
  6
CONTINUOUS
 62
    30
 10
1062.599979795608
 20
1819.999998671988
 30
0.0
 11
1062.599979795608
 21
10.00000000005344
 31
0.0
  0
CIRCLE
  5
BC6
  8
SIZE
  6
CONTINUOUS
 62
    30
 10
1062.599979795608
 20
1829.999998671988
 30
0.0
 40
5.0
  0
LINE
  5
BC7
  8
SIZE
  6
CONTINUOUS
 62
    30
 10
1062.599979795608
 20
1829.999998671988
 30
0.0
 11
1062.599979795608
 21
1819.999998671988
 31
0.0
  0
CIRCLE
  5
BC8
  8
SIZE
  6
CONTINUOUS
 62
    30
 10
1062.599979795608
 20
0.0000000000534416
 30
0.0
 40
5.0
  0
LINE
  5
BC9
  8
SIZE
  6
CONTINUOUS
 62
    30
 10
1062.599979795608
 20
0.0000000000534416
 30
0.0
 11
1062.599979795608
 21
10.00000000005344
 31
0.0
  0
TEXT
  5
BCA
  8
SIZE
  6
CONTINUOUS
 62
    30
 10
1052.599979795608
 20
855.7142842638814
 30
0.0
 40
30.0
  1
1830
 50
90.0
 72
     1
 11
1052.599979795608
 21
914.9999985495957
 31
0.0
  0
POINT
  5
BCB
  8
DEFPOINTS
  6
CONTINUOUS
 62
    30
 10
315.0000102893437
 20
1829.999998671988
 30
0.0
  0
POINT
  5
BCC
  8
DEFPOINTS
  6
CONTINUOUS
 62
    30
 10
284.5000102893437
 20
0.000000000053662
 30
0.0
  0
POINT
  5
BCD
  8
DEFPOINTS
  6
CONTINUOUS
 62
    30
 10
1062.599979795608
 20
0.0000000000534416
 30
0.0
  0
LINE
  5
BCE
  8
SIZE
  6
CONTINUOUS
 62
    30
 10
-50.00000115474813
 20
1874.999998671988
 30
0.0
 11
-979.9000202043919
 21
1874.999998671988
 31
0.0
  0
LINE
  5
BCF
  8
SIZE
  6
CONTINUOUS
 62
    30
 10
-294.4999897106563
 20
0.0000000000536648
 30
0.0
 11
-979.9000202043923
 21
0.000000000053859
 31
0.0
  0
LINE
  5
BD0
  8
SIZE
  6
CONTINUOUS
 62
    30
 10
-967.4000202043919
 20
1864.999998671988
 30
0.0
 11
-967.4000202043923
 21
10.00000000005386
 31
0.0
  0
CIRCLE
  5
BD1
  8
SIZE
  6
CONTINUOUS
 62
    30
 10
-967.4000202043919
 20
1874.999998671988
 30
0.0
 40
5.0
  0
LINE
  5
BD2
  8
SIZE
  6
CONTINUOUS
 62
    30
 10
-967.4000202043919
 20
1874.999998671988
 30
0.0
 11
-967.4000202043919
 21
1864.999998671988
 31
0.0
  0
CIRCLE
  5
BD3
  8
SIZE
  6
CONTINUOUS
 62
    30
 10
-967.4000202043923
 20
0.0000000000538554
 30
0.0
 40
5.0
  0
LINE
  5
BD4
  8
SIZE
  6
CONTINUOUS
 62
    30
 10
-967.4000202043923
 20
0.0000000000538554
 30
0.0
 11
-967.4000202043923
 21
10.00000000005386
 31
0.0
  0
TEXT
  5
BD5
  8
SIZE
  6
CONTINUOUS
 62
    30
 10
-977.4000202043923
 20
878.2142842638815
 30
0.0
 40
30.0
  1
1875
 50
90.0
 72
     1
 11
-977.4000202043923
 21
937.4999985495958
 31
0.0
  0
POINT
  5
BD6
  8
DEFPOINTS
  6
CONTINUOUS
 62
    30
 10
-40.00000115474813
 20
1874.999998671988
 30
0.0
  0
POINT
  5
BD7
  8
DEFPOINTS
  6
CONTINUOUS
 62
    30
 10
-284.4999897106563
 20
0.000000000053662
 30
0.0
  0
POINT
  5
BD8
  8
DEFPOINTS
  6
CONTINUOUS
 62
    30
 10
-967.4000202043923
 20
0.0000000000538554
 30
0.0
  0
LINE
  5
BD9
  8
SIZE
  6
CONTINUOUS
 62
    30
 10
315.0000102893437
 20
1819.999998671988
 30
0.0
 11
315.0000102893437
 21
1509.899998648146
 31
0.0
  0
LINE
  5
BDA
  8
SIZE
  6
CONTINUOUS
 62
    30
 10
270.0000102893437
 20
1665.999998671988
 30
0.0
 11
270.0000102893437
 21
1509.899998648146
 31
0.0
  0
LINE
  5
BDB
  8
SIZE
  6
CONTINUOUS
 62
    30
 10
280.0000102893437
 20
1522.399998648146
 30
0.0
 11
305.0000102893437
 21
1522.399998648146
 31
0.0
  0
LINE
  5
BDC
  8
SIZE
  6
CONTINUOUS
 62
    30
 10
315.0000102893437
 20
1522.399998648146
 30
0.0
 11
429.6954753160383
 21
1522.399998648146
 31
0.0
  0
CIRCLE
  5
BDD
  8
SIZE
  6
CONTINUOUS
 62
    30
 10
270.0000102893437
 20
1522.399998648146
 30
0.0
 40
5.0
  0
LINE
  5
BDE
  8
SIZE
  6
CONTINUOUS
 62
    30
 10
270.0000102893437
 20
1522.399998648146
 30
0.0
 11
280.0000102893437
 21
1522.399998648146
 31
0.0
  0
CIRCLE
  5
BDF
  8
SIZE
  6
CONTINUOUS
 62
    30
 10
315.0000102893437
 20
1522.399998648146
 30
0.0
 40
5.0
  0
LINE
  5
BE0
  8
SIZE
  6
CONTINUOUS
 62
    30
 10
315.0000102893437
 20
1522.399998648146
 30
0.0
 11
305.0000102893437
 21
1522.399998648146
 31
0.0
  0
TEXT
  5
BE1
  8
SIZE
  6
CONTINUOUS
 62
    30
 10
366.1240467446098
 20
1532.399998648146
 30
0.0
 40
30.0
  1
45
 72
     1
 11
394.6954753160383
 21
1532.399998648146
 31
0.0
  0
POINT
  5
BE2
  8
DEFPOINTS
  6
CONTINUOUS
 62
    30
 10
315.0000102893437
 20
1829.999998671988
 30
0.0
  0
POINT
  5
BE3
  8
DEFPOINTS
  6
CONTINUOUS
 62
    30
 10
270.0000102893437
 20
1675.999998671988
 30
0.0
  0
POINT
  5
BE4
  8
DEFPOINTS
  6
CONTINUOUS
 62
    30
 10
270.0000102893437
 20
1522.399998648146
 30
0.0
  0
LINE
  5
BE5
  8
SIZE
  6
CONTINUOUS
 62
    30
 10
273.9999797717655
 20
1669.999998671988
 30
0.0
 11
875.0999797956075
 21
1669.999998671987
 31
0.0
  0
LINE
  5
BE6
  8
SIZE
  6
CONTINUOUS
 62
    30
 10
273.9999797717655
 20
1787.999998671988
 30
0.0
 11
875.0999797956075
 21
1787.999998671988
 31
0.0
  0
LINE
  5
BE7
  8
SIZE
  6
CONTINUOUS
 62
    30
 10
862.5999797956075
 20
1679.999998671988
 30
0.0
 11
862.5999797956075
 21
1777.999998671988
 31
0.0
  0
CIRCLE
  5
BE8
  8
SIZE
  6
CONTINUOUS
 62
    30
 10
862.5999797956075
 20
1669.999998671987
 30
0.0
 40
5.0
  0
LINE
  5
BE9
  8
SIZE
  6
CONTINUOUS
 62
    30
 10
862.5999797956075
 20
1669.999998671987
 30
0.0
 11
862.5999797956075
 21
1679.999998671987
 31
0.0
  0
CIRCLE
  5
BEA
  8
SIZE
  6
CONTINUOUS
 62
    30
 10
862.5999797956075
 20
1787.999998671988
 30
0.0
 40
5.0
  0
LINE
  5
BEB
  8
SIZE
  6
CONTINUOUS
 62
    30
 10
862.5999797956075
 20
1787.999998671988
 30
0.0
 11
862.5999797956075
 21
1777.999998671988
 31
0.0
  0
TEXT
  5
BEC
  8
SIZE
  6
CONTINUOUS
 62
    30
 10
852.5999797956073
 20
1683.999998549596
 30
0.0
 40
30.0
  1
118
 50
90.0
 72
     1
 11
852.5999797956073
 21
1728.999998549596
 31
0.0
  0
POINT
  5
BED
  8
DEFPOINTS
  6
CONTINUOUS
 62
    30
 10
263.9999797717655
 20
1669.999998671988
 30
0.0
  0
POINT
  5
BEE
  8
DEFPOINTS
  6
CONTINUOUS
 62
    30
 10
263.9999797717655
 20
1787.999998671988
 30
0.0
  0
POINT
  5
BEF
  8
DEFPOINTS
  6
CONTINUOUS
 62
    30
 10
862.5999797956075
 20
1787.999998671988
 30
0.0
  0
LINE
  5
BF0
  8
SIZE
  6
CONTINUOUS
 62
    30
 10
320.0000102893437
 20
0.0000000000536592
 30
0.0
 11
875.0999797956073
 21
0.0000000000535019
 31
0.0
  0
LINE
  5
BF1
  8
SIZE
  6
CONTINUOUS
 62
    30
 10
274.0000102893437
 20
1669.999998671988
 30
0.0
 11
875.0999797956075
 21
1669.999998671987
 31
0.0
  0
LINE
  5
BF2
  8
SIZE
  6
CONTINUOUS
 62
    30
 10
862.5999797956073
 20
10.0000000000535
 30
0.0
 11
862.5999797956075
 21
1659.999998671988
 31
0.0
  0
CIRCLE
  5
BF3
  8
SIZE
  6
CONTINUOUS
 62
    30
 10
862.5999797956073
 20
0.0000000000535054
 30
0.0
 40
5.0
  0
LINE
  5
BF4
  8
SIZE
  6
CONTINUOUS
 62
    30
 10
862.5999797956073
 20
0.0000000000535054
 30
0.0
 11
862.5999797956073
 21
10.00000000005351
 31
0.0
  0
CIRCLE
  5
BF5
  8
SIZE
  6
CONTINUOUS
 62
    30
 10
862.5999797956075
 20
1669.999998671987
 30
0.0
 40
5.0
  0
LINE
  5
BF6
  8
SIZE
  6
CONTINUOUS
 62
    30
 10
862.5999797956075
 20
1669.999998671987
 30
0.0
 11
862.5999797956075
 21
1659.999998671987
 31
0.0
  0
TEXT
  5
BF7
  8
SIZE
  6
CONTINUOUS
 62
    30
 10
852.5999797956073
 20
775.7142842638814
 30
0.0
 40
30.0
  1
1670
 50
90.0
 72
     1
 11
852.5999797956073
 21
834.9999985495957
 31
0.0
  0
POINT
  5
BF8
  8
DEFPOINTS
  6
CONTINUOUS
 62
    30
 10
310.0000102893437
 20
0.000000000053662
 30
0.0
  0
POINT
  5
BF9
  8
DEFPOINTS
  6
CONTINUOUS
 62
    30
 10
264.0000102893437
 20
1669.999998671988
 30
0.0
  0
POINT
  5
BFA
  8
DEFPOINTS
  6
CONTINUOUS
 62
    30
 10
862.5999797956075
 20
1669.999998671987
 30
0.0
  0
LINE
  5
BFB
  8
SIZE
  6
CONTINUOUS
 62
    30
 10
-287.0000202282345
 20
431.9999986719877
 30
0.0
 11
-679.9000202043925
 21
431.9999986719879
 31
0.0
  0
LINE
  5
BFC
  8
SIZE
  6
CONTINUOUS
 62
    30
 10
-287.0000202282345
 20
651.9999986719877
 30
0.0
 11
-679.9000202043925
 21
651.9999986719877
 31
0.0
  0
LINE
  5
BFD
  8
SIZE
  6
CONTINUOUS
 62
    30
 10
-667.4000202043925
 20
441.9999986719878
 30
0.0
 11
-667.4000202043925
 21
641.9999986719877
 31
0.0
  0
CIRCLE
  5
BFE
  8
SIZE
  6
CONTINUOUS
 62
    30
 10
-667.4000202043925
 20
431.9999986719879
 30
0.0
 40
5.0
  0
LINE
  5
BFF
  8
SIZE
  6
CONTINUOUS
 62
    30
 10
-667.4000202043925
 20
431.9999986719879
 30
0.0
 11
-667.4000202043925
 21
441.9999986719879
 31
0.0
  0
CIRCLE
  5
C00
  8
SIZE
  6
CONTINUOUS
 62
    30
 10
-667.4000202043925
 20
651.9999986719877
 30
0.0
 40
5.0
  0
LINE
  5
C01
  8
SIZE
  6
CONTINUOUS
 62
    30
 10
-667.4000202043925
 20
651.9999986719877
 30
0.0
 11
-667.4000202043925
 21
641.9999986719877
 31
0.0
  0
TEXT
  5
C02
  8
SIZE
  6
CONTINUOUS
 62
    30
 10
-677.4000202043926
 20
499.1428556924529
 30
0.0
 40
30.0
  1
220
 50
90.0
 72
     1
 11
-677.4000202043926
 21
541.9999985495958
 31
0.0
  0
POINT
  5
C03
  8
DEFPOINTS
  6
CONTINUOUS
 62
    30
 10
-277.0000202282345
 20
431.9999986719877
 30
0.0
  0
POINT
  5
C04
  8
DEFPOINTS
  6
CONTINUOUS
 62
    30
 10
-277.0000202282345
 20
651.9999986719877
 30
0.0
  0
POINT
  5
C05
  8
DEFPOINTS
  6
CONTINUOUS
 62
    30
 10
-667.4000202043925
 20
651.9999986719877
 30
0.0
  0
LINE
  5
C06
  8
SIZE
  6
CONTINUOUS
 62
    30
 10
-114.0000049694454
 20
449.9999986719877
 30
0.0
 11
-114.0000049694454
 21
516.8999986481458
 31
0.0
  0
LINE
  5
C07
  8
SIZE
  6
CONTINUOUS
 62
    30
 10
-285.0000202282345
 20
449.9999986719877
 30
0.0
 11
-285.0000202282345
 21
516.8999986481458
 31
0.0
  0
LINE
  5
C08
  8
SIZE
  6
CONTINUOUS
 62
    30
 10
-124.0000049694454
 20
504.3999986481458
 30
0.0
 11
-275.0000202282345
 21
504.3999986481458
 31
0.0
  0
CIRCLE
  5
C09
  8
SIZE
  6
CONTINUOUS
 62
    30
 10
-114.0000049694454
 20
504.3999986481458
 30
0.0
 40
5.0
  0
LINE
  5
C0A
  8
SIZE
  6
CONTINUOUS
 62
    30
 10
-114.0000049694454
 20
504.3999986481458
 30
0.0
 11
-124.0000049694454
 21
504.3999986481458
 31
0.0
  0
CIRCLE
  5
C0B
  8
SIZE
  6
CONTINUOUS
 62
    30
 10
-285.0000202282345
 20
504.3999986481458
 30
0.0
 40
5.0
  0
LINE
  5
C0C
  8
SIZE
  6
CONTINUOUS
 62
    30
 10
-285.0000202282345
 20
504.3999986481458
 30
0.0
 11
-275.0000202282345
 21
504.3999986481458
 31
0.0
  0
TEXT
  5
C0D
  8
SIZE
  6
CONTINUOUS
 62
    30
 10
-240.2143060037161
 20
514.3999986481458
 30
0.0
 40
30.0
  1
171
 72
     1
 11
-199.5000202894304
 21
514.3999986481458
 31
0.0
  0
POINT
  5
C0E
  8
DEFPOINTS
  6
CONTINUOUS
 62
    30
 10
-114.0000049694454
 20
439.9999986719877
 30
0.0
  0
POINT
  5
C0F
  8
DEFPOINTS
  6
CONTINUOUS
 62
    30
 10
-285.0000202282345
 20
439.9999986719877
 30
0.0
  0
POINT
  5
C10
  8
DEFPOINTS
  6
CONTINUOUS
 62
    30
 10
-285.0000202282345
 20
504.3999986481458
 30
0.0
  0
LINE
  5
C11
  8
SIZE
  6
CONTINUOUS
 62
    30
 10
139.9999797717655
 20
1665.999998671988
 30
0.0
 11
139.9999797717655
 21
1509.899998648146
 31
0.0
  0
LINE
  5
C12
  8
SIZE
  6
CONTINUOUS
 62
    30
 10
269.9999797717655
 20
1665.999998671988
 30
0.0
 11
269.9999797717655
 21
1509.899998648146
 31
0.0
  0
LINE
  5
C13
  8
SIZE
  6
CONTINUOUS
 62
    30
 10
149.9999797717655
 20
1522.399998648146
 30
0.0
 11
259.9999797717655
 21
1522.399998648146
 31
0.0
  0
CIRCLE
  5
C14
  8
SIZE
  6
CONTINUOUS
 62
    30
 10
139.9999797717655
 20
1522.399998648146
 30
0.0
 40
5.0
  0
LINE
  5
C15
  8
SIZE
  6
CONTINUOUS
 62
    30
 10
139.9999797717655
 20
1522.399998648146
 30
0.0
 11
149.9999797717655
 21
1522.399998648146
 31
0.0
  0
CIRCLE
  5
C16
  8
SIZE
  6
CONTINUOUS
 62
    30
 10
269.9999797717655
 20
1522.399998648146
 30
0.0
 40
5.0
  0
LINE
  5
C17
  8
SIZE
  6
CONTINUOUS
 62
    30
 10
269.9999797717655
 20
1522.399998648146
 30
0.0
 11
259.9999797717655
 21
1522.399998648146
 31
0.0
  0
TEXT
  5
C18
  8
SIZE
  6
CONTINUOUS
 62
    30
 10
159.9999797105695
 20
1532.399998648146
 30
0.0
 40
30.0
  1
130
 72
     1
 11
204.9999797105695
 21
1532.399998648146
 31
0.0
  0
POINT
  5
C19
  8
DEFPOINTS
  6
CONTINUOUS
 62
    30
 10
139.9999797717655
 20
1675.999998671988
 30
0.0
  0
POINT
  5
C1A
  8
DEFPOINTS
  6
CONTINUOUS
 62
    30
 10
269.9999797717655
 20
1675.999998671988
 30
0.0
  0
POINT
  5
C1B
  8
DEFPOINTS
  6
CONTINUOUS
 62
    30
 10
269.9999797717655
 20
1522.399998648146
 30
0.0
  0
LINE
  5
C1C
  8
SIZE
  6
CONTINUOUS
 62
    30
 10
45.00000265994912
 20
1879.999998671988
 30
0.0
 11
45.00000265994916
 21
2244.900242788771
 31
0.0
  0
LINE
  5
C1D
  8
SIZE
  6
CONTINUOUS
 62
    30
 10
-44.99999734005086
 20
1879.999998671988
 30
0.0
 11
-44.99999734005084
 21
2244.900242788771
 31
0.0
  0
LINE
  5
C1E
  8
SIZE
  6
CONTINUOUS
 62
    30
 10
35.00000265994917
 20
2232.400242788771
 30
0.0
 11
-34.99999734005085
 21
2232.400242788771
 31
0.0
  0
CIRCLE
  5
C1F
  8
SIZE
  6
CONTINUOUS
 62
    30
 10
45.00000265994916
 20
2232.400242788771
 30
0.0
 40
5.0
  0
LINE
  5
C20
  8
SIZE
  6
CONTINUOUS
 62
    30
 10
45.00000265994916
 20
2232.400242788771
 30
0.0
 11
35.00000265994916
 21
2232.400242788771
 31
0.0
  0
CIRCLE
  5
C21
  8
SIZE
  6
CONTINUOUS
 62
    30
 10
-44.99999734005084
 20
2232.400242788771
 30
0.0
 40
5.0
  0
LINE
  5
C22
  8
SIZE
  6
CONTINUOUS
 62
    30
 10
-44.99999734005084
 20
2232.400242788771
 30
0.0
 11
-34.99999734005084
 21
2232.400242788771
 31
0.0
  0
TEXT
  5
C23
  8
SIZE
  6
CONTINUOUS
 62
    30
 10
-28.57142861204356
 20
2242.400242788772
 30
0.0
 40
30.0
  1
90
 72
     1
 11
-0.000000040614989
 21
2242.400242788772
 31
0.0
  0
POINT
  5
C24
  8
DEFPOINTS
  6
CONTINUOUS
 62
    30
 10
45.00000265994912
 20
1869.999998671988
 30
0.0
  0
POINT
  5
C25
  8
DEFPOINTS
  6
CONTINUOUS
 62
    30
 10
-44.99999734005086
 20
1869.999998671988
 30
0.0
  0
POINT
  5
C26
  8
DEFPOINTS
  6
CONTINUOUS
 62
    30
 10
-44.99999734005084
 20
2232.400242788771
 30
0.0
  0
LINE
  5
C27
  8
SIZE
  6
CONTINUOUS
 62
    30
 10
324.9999797717657
 20
199.9999986719877
 30
0.0
 11
975.0999797956073
 21
199.9999986719875
 31
0.0
  0
LINE
  5
C28
  8
SIZE
  6
CONTINUOUS
 62
    30
 10
319.9999797717655
 20
0.0000002692058832
 30
0.0
 11
975.0999797956072
 21
0.0000002692056976
 31
0.0
  0
LINE
  5
C29
  8
SIZE
  6
CONTINUOUS
 62
    30
 10
962.5999797956073
 20
189.9999986719875
 30
0.0
 11
962.5999797956073
 21
10.0000002692057
 31
0.0
  0
CIRCLE
  5
C2A
  8
SIZE
  6
CONTINUOUS
 62
    30
 10
962.5999797956073
 20
199.9999986719875
 30
0.0
 40
5.0
  0
LINE
  5
C2B
  8
SIZE
  6
CONTINUOUS
 62
    30
 10
962.5999797956073
 20
199.9999986719875
 30
0.0
 11
962.5999797956073
 21
189.9999986719875
 31
0.0
  0
CIRCLE
  5
C2C
  8
SIZE
  6
CONTINUOUS
 62
    30
 10
962.5999797956073
 20
0.0000002692057011
 30
0.0
 40
5.0
  0
LINE
  5
C2D
  8
SIZE
  6
CONTINUOUS
 62
    30
 10
962.5999797956073
 20
0.0000002692057011
 30
0.0
 11
962.5999797956073
 21
10.0000002692057
 31
0.0
  0
TEXT
  5
C2E
  8
SIZE
  6
CONTINUOUS
 62
    30
 10
952.5999797956073
 20
57.14286332184744
 30
0.0
 40
30.0
  1
200
 50
90.0
 72
     1
 11
952.5999797956073
 21
100.0000061789903
 31
0.0
  0
POINT
  5
C2F
  8
DEFPOINTS
  6
CONTINUOUS
 62
    30
 10
314.9999797717657
 20
199.9999986719877
 30
0.0
  0
POINT
  5
C30
  8
DEFPOINTS
  6
CONTINUOUS
 62
    30
 10
309.9999797717655
 20
0.000000269205886
 30
0.0
  0
POINT
  5
C31
  8
DEFPOINTS
  6
CONTINUOUS
 62
    30
 10
962.5999797956073
 20
0.0000002692057011
 30
0.0
  0
LINE
  5
C32
  8
SIZE
  6
CONTINUOUS
 62
    30
 10
324.9999797717657
 20
1829.999998671988
 30
0.0
 11
975.0999797956075
 21
1829.999998671988
 31
0.0
  0
LINE
  5
C33
  8
SIZE
  6
CONTINUOUS
 62
    30
 10
324.9999797717657
 20
199.9999986719877
 30
0.0
 11
975.0999797956072
 21
199.9999986719875
 31
0.0
  0
LINE
  5
C34
  8
SIZE
  6
CONTINUOUS
 62
    30
 10
962.5999797956075
 20
1819.999998671988
 30
0.0
 11
962.5999797956072
 21
209.9999986719875
 31
0.0
  0
CIRCLE
  5
C35
  8
SIZE
  6
CONTINUOUS
 62
    30
 10
962.5999797956075
 20
1829.999998671988
 30
0.0
 40
5.0
  0
LINE
  5
C36
  8
SIZE
  6
CONTINUOUS
 62
    30
 10
962.5999797956075
 20
1829.999998671988
 30
0.0
 11
962.5999797956075
 21
1819.999998671988
 31
0.0
  0
CIRCLE
  5
C37
  8
SIZE
  6
CONTINUOUS
 62
    30
 10
962.5999797956072
 20
199.9999986719875
 30
0.0
 40
5.0
  0
LINE
  5
C38
  8
SIZE
  6
CONTINUOUS
 62
    30
 10
962.5999797956072
 20
199.9999986719875
 30
0.0
 11
962.5999797956072
 21
209.9999986719875
 31
0.0
  0
TEXT
  5
C39
  8
SIZE
  6
CONTINUOUS
 62
    30
 10
952.5999797956074
 20
955.7142842638814
 30
0.0
 40
30.0
  1
1630
 50
90.0
 72
     1
 11
952.5999797956074
 21
1014.999998549596
 31
0.0
  0
POINT
  5
C3A
  8
DEFPOINTS
  6
CONTINUOUS
 62
    30
 10
314.9999797717657
 20
1829.999998671988
 30
0.0
  0
POINT
  5
C3B
  8
DEFPOINTS
  6
CONTINUOUS
 62
    30
 10
314.9999797717657
 20
199.9999986719877
 30
0.0
  0
POINT
  5
C3C
  8
DEFPOINTS
  6
CONTINUOUS
 62
    30
 10
962.5999797956072
 20
199.9999986719875
 30
0.0
  0
LINE
  5
C3D
  8
SIZE
  6
CONTINUOUS
 62
    30
 10
-285.0000202282345
 20
449.9999986719877
 30
0.0
 11
-285.0000202282345
 21
516.8999986481458
 31
0.0
  0
LINE
  5
C3E
  8
SIZE
  6
CONTINUOUS
 62
    30
 10
-315.0000202282343
 20
205.9999986719877
 30
0.0
 11
-315.0000202282343
 21
516.8999986481458
 31
0.0
  0
LINE
  5
C3F
  8
SIZE
  6
CONTINUOUS
 62
    30
 10
-275.0000202282345
 20
504.3999986481458
 30
0.0
 11
-265.0000202282345
 21
504.3999986481458
 31
0.0
  0
LINE
  5
C40
  8
SIZE
  6
CONTINUOUS
 62
    30
 10
-325.0000202282345
 20
504.3999986481458
 30
0.0
 11
-419.1207478284928
 21
504.3999986481458
 31
0.0
  0
LINE
  5
C41
  8
SIZE
  6
CONTINUOUS
 62
    30
 10
-285.0000202282345
 20
504.3999986481458
 30
0.0
 11
-315.0000202282343
 21
504.3999986481458
 31
0.0
  0
CIRCLE
  5
C42
  8
SIZE
  6
CONTINUOUS
 62
    30
 10
-285.0000202282345
 20
504.3999986481458
 30
0.0
 40
5.0
  0
LINE
  5
C43
  8
SIZE
  6
CONTINUOUS
 62
    30
 10
-285.0000202282345
 20
504.3999986481458
 30
0.0
 11
-275.0000202282345
 21
504.3999986481458
 31
0.0
  0
CIRCLE
  5
C44
  8
SIZE
  6
CONTINUOUS
 62
    30
 10
-315.0000202282343
 20
504.3999986481458
 30
0.0
 40
5.0
  0
LINE
  5
C45
  8
SIZE
  6
CONTINUOUS
 62
    30
 10
-315.0000202282343
 20
504.3999986481458
 30
0.0
 11
-325.0000202282343
 21
504.3999986481458
 31
0.0
  0
TEXT
  5
C46
  8
SIZE
  6
CONTINUOUS
 62
    30
 10
-415.1921763999214
 20
514.3999986481458
 30
0.0
 40
30.0
  1
30
 72
     1
 11
-386.6207478284929
 21
514.3999986481458
 31
0.0
  0
POINT
  5
C47
  8
DEFPOINTS
  6
CONTINUOUS
 62
    30
 10
-285.0000202282345
 20
439.9999986719877
 30
0.0
  0
POINT
  5
C48
  8
DEFPOINTS
  6
CONTINUOUS
 62
    30
 10
-315.0000202282343
 20
195.9999986719877
 30
0.0
  0
POINT
  5
C49
  8
DEFPOINTS
  6
CONTINUOUS
 62
    30
 10
-315.0000202282343
 20
504.3999986481458
 30
0.0
  0
LINE
  5
C4A
  8
SIZE
  6
CONTINUOUS
 62
    30
 10
-283.0000202282345
 20
656.9999986719877
 30
0.0
 11
-779.9000202043925
 21
656.9999986719878
 31
0.0
  0
LINE
  5
C4B
  8
SIZE
  6
CONTINUOUS
 62
    30
 10
-287.0000202282345
 20
431.9999986719877
 30
0.0
 11
-779.9000202043925
 21
431.9999986719879
 31
0.0
  0
LINE
  5
C4C
  8
SIZE
  6
CONTINUOUS
 62
    30
 10
-767.4000202043925
 20
646.9999986719876
 30
0.0
 11
-767.4000202043925
 21
441.9999986719879
 31
0.0
  0
CIRCLE
  5
C4D
  8
SIZE
  6
CONTINUOUS
 62
    30
 10
-767.4000202043925
 20
656.9999986719877
 30
0.0
 40
5.0
  0
LINE
  5
C4E
  8
SIZE
  6
CONTINUOUS
 62
    30
 10
-767.4000202043925
 20
656.9999986719877
 30
0.0
 11
-767.4000202043925
 21
646.9999986719877
 31
0.0
  0
CIRCLE
  5
C4F
  8
SIZE
  6
CONTINUOUS
 62
    30
 10
-767.4000202043925
 20
431.9999986719879
 30
0.0
 40
5.0
  0
LINE
  5
C50
  8
SIZE
  6
CONTINUOUS
 62
    30
 10
-767.4000202043925
 20
431.9999986719879
 30
0.0
 11
-767.4000202043925
 21
441.9999986719879
 31
0.0
  0
TEXT
  5
C51
  8
SIZE
  6
CONTINUOUS
 62
    30
 10
-777.4000202043926
 20
501.6428556924528
 30
0.0
 40
30.0
  1
225
 50
90.0
 72
     1
 11
-777.4000202043926
 21
544.4999985495957
 31
0.0
  0
POINT
  5
C52
  8
DEFPOINTS
  6
CONTINUOUS
 62
    30
 10
-273.0000202282345
 20
656.9999986719877
 30
0.0
  0
POINT
  5
C53
  8
DEFPOINTS
  6
CONTINUOUS
 62
    30
 10
-277.0000202282345
 20
431.9999986719877
 30
0.0
  0
POINT
  5
C54
  8
DEFPOINTS
  6
CONTINUOUS
 62
    30
 10
-767.4000202043925
 20
431.9999986719879
 30
0.0
  0
LINE
  5
C55
  8
SIZE
  6
CONTINUOUS
 62
    30
 10
-124.0000049694454
 20
788.9999986719876
 30
0.0
 11
-124.0000049694454
 21
901.8999986481458
 31
0.0
  0
LINE
  5
C56
  8
SIZE
  6
CONTINUOUS
 62
    30
 10
-281.0000202282345
 20
788.9999986719876
 30
0.0
 11
-281.0000202282345
 21
901.8999986481458
 31
0.0
  0
LINE
  5
C57
  8
SIZE
  6
CONTINUOUS
 62
    30
 10
-134.0000049694454
 20
889.3999986481458
 30
0.0
 11
-271.0000202282345
 21
889.3999986481458
 31
0.0
  0
CIRCLE
  5
C58
  8
SIZE
  6
CONTINUOUS
 62
    30
 10
-124.0000049694454
 20
889.3999986481458
 30
0.0
 40
5.0
  0
LINE
  5
C59
  8
SIZE
  6
CONTINUOUS
 62
    30
 10
-124.0000049694454
 20
889.3999986481458
 30
0.0
 11
-134.0000049694453
 21
889.3999986481458
 31
0.0
  0
CIRCLE
  5
C5A
  8
SIZE
  6
CONTINUOUS
 62
    30
 10
-281.0000202282345
 20
889.3999986481458
 30
0.0
 40
5.0
  0
LINE
  5
C5B
  8
SIZE
  6
CONTINUOUS
 62
    30
 10
-281.0000202282345
 20
889.3999986481458
 30
0.0
 11
-271.0000202282345
 21
889.3999986481458
 31
0.0
  0
TEXT
  5
C5C
  8
SIZE
  6
CONTINUOUS
 62
    30
 10
-247.5000202894305
 20
899.3999986481458
 30
0.0
 40
30.0
  1
157
 72
     1
 11
-202.5000202894305
 21
899.3999986481458
 31
0.0
  0
POINT
  5
C5D
  8
DEFPOINTS
  6
CONTINUOUS
 62
    30
 10
-124.0000049694454
 20
778.9999986719877
 30
0.0
  0
POINT
  5
C5E
  8
DEFPOINTS
  6
CONTINUOUS
 62
    30
 10
-281.0000202282345
 20
778.9999986719877
 30
0.0
  0
POINT
  5
C5F
  8
DEFPOINTS
  6
CONTINUOUS
 62
    30
 10
-281.0000202282345
 20
889.3999986481458
 30
0.0
  0
LINE
  5
C60
  8
SIZE
  6
CONTINUOUS
 62
    30
 10
-315.0000202282343
 20
205.9999986719877
 30
0.0
 11
-315.0000202282343
 21
901.8999986481458
 31
0.0
  0
LINE
  5
C61
  8
SIZE
  6
CONTINUOUS
 62
    30
 10
-281.0000202282345
 20
788.9999986719876
 30
0.0
 11
-281.0000202282345
 21
901.8999986481458
 31
0.0
  0
LINE
  5
C62
  8
SIZE
  6
CONTINUOUS
 62
    30
 10
-271.0000202282345
 20
889.3999986481458
 30
0.0
 11
-261.0000202282345
 21
889.3999986481458
 31
0.0
  0
LINE
  5
C63
  8
SIZE
  6
CONTINUOUS
 62
    30
 10
-325.0000202282343
 20
889.3999986481458
 30
0.0
 11
-431.9775593519304
 21
889.3999986481458
 31
0.0
  0
LINE
  5
C64
  8
SIZE
  6
CONTINUOUS
 62
    30
 10
-281.0000202282345
 20
889.3999986481458
 30
0.0
 11
-315.0000202282343
 21
889.3999986481458
 31
0.0
  0
CIRCLE
  5
C65
  8
SIZE
  6
CONTINUOUS
 62
    30
 10
-281.0000202282345
 20
889.3999986481458
 30
0.0
 40
5.0
  0
LINE
  5
C66
  8
SIZE
  6
CONTINUOUS
 62
    30
 10
-281.0000202282345
 20
889.3999986481458
 30
0.0
 11
-271.0000202282345
 21
889.3999986481458
 31
0.0
  0
CIRCLE
  5
C67
  8
SIZE
  6
CONTINUOUS
 62
    30
 10
-315.0000202282343
 20
889.3999986481458
 30
0.0
 40
5.0
  0
LINE
  5
C68
  8
SIZE
  6
CONTINUOUS
 62
    30
 10
-315.0000202282343
 20
889.3999986481458
 30
0.0
 11
-325.0000202282343
 21
889.3999986481458
 31
0.0
  0
TEXT
  5
C69
  8
SIZE
  6
CONTINUOUS
 62
    30
 10
-426.2632736376447
 20
899.3999986481458
 30
0.0
 40
30.0
  1
34
 72
     1
 11
-396.9775593519304
 21
899.3999986481458
 31
0.0
  0
POINT
  5
C6A
  8
DEFPOINTS
  6
CONTINUOUS
 62
    30
 10
-315.0000202282343
 20
195.9999986719877
 30
0.0
  0
POINT
  5
C6B
  8
DEFPOINTS
  6
CONTINUOUS
 62
    30
 10
-281.0000202282345
 20
778.9999986719877
 30
0.0
  0
POINT
  5
C6C
  8
DEFPOINTS
  6
CONTINUOUS
 62
    30
 10
-281.0000202282345
 20
889.3999986481458
 30
0.0
  0
LINE
  5
C6D
  8
SIZE
  6
CONTINUOUS
 62
    30
 10
-283.0000202282345
 20
786.9999986719877
 30
0.0
 11
-779.9000202043924
 21
786.9999986719878
 31
0.0
  0
LINE
  5
C6E
  8
SIZE
  6
CONTINUOUS
 62
    30
 10
-283.0000202282345
 20
656.9999986719877
 30
0.0
 11
-779.9000202043925
 21
656.9999986719878
 31
0.0
  0
LINE
  5
C6F
  8
SIZE
  6
CONTINUOUS
 62
    30
 10
-767.4000202043924
 20
776.9999986719877
 30
0.0
 11
-767.4000202043925
 21
666.9999986719877
 31
0.0
  0
CIRCLE
  5
C70
  8
SIZE
  6
CONTINUOUS
 62
    30
 10
-767.4000202043924
 20
786.9999986719877
 30
0.0
 40
5.0
  0
LINE
  5
C71
  8
SIZE
  6
CONTINUOUS
 62
    30
 10
-767.4000202043924
 20
786.9999986719877
 30
0.0
 11
-767.4000202043924
 21
776.9999986719877
 31
0.0
  0
CIRCLE
  5
C72
  8
SIZE
  6
CONTINUOUS
 62
    30
 10
-767.4000202043925
 20
656.9999986719877
 30
0.0
 40
5.0
  0
LINE
  5
C73
  8
SIZE
  6
CONTINUOUS
 62
    30
 10
-767.4000202043925
 20
656.9999986719877
 30
0.0
 11
-767.4000202043925
 21
666.9999986719877
 31
0.0
  0
TEXT
  5
C74
  8
SIZE
  6
CONTINUOUS
 62
    30
 10
-777.4000202043926
 20
676.9999985495957
 30
0.0
 40
30.0
  1
130
 50
90.0
 72
     1
 11
-777.4000202043926
 21
721.9999985495957
 31
0.0
  0
POINT
  5
C75
  8
DEFPOINTS
  6
CONTINUOUS
 62
    30
 10
-273.0000202282345
 20
786.9999986719877
 30
0.0
  0
POINT
  5
C76
  8
DEFPOINTS
  6
CONTINUOUS
 62
    30
 10
-273.0000202282345
 20
656.9999986719877
 30
0.0
  0
POINT
  5
C77
  8
DEFPOINTS
  6
CONTINUOUS
 62
    30
 10
-767.4000202043925
 20
656.9999986719877
 30
0.0
  0
LINE
  5
C78
  8
SIZE
  6
CONTINUOUS
 62
    30
 10
-320.0000202282343
 20
0.0000002692058888
 30
0.0
 11
-679.9000202043926
 21
0.0000002692059908
 31
0.0
  0
LINE
  5
C79
  8
SIZE
  6
CONTINUOUS
 62
    30
 10
-325.0000202282345
 20
399.9999986719877
 30
0.0
 11
-679.9000202043925
 21
399.9999986719879
 31
0.0
  0
LINE
  5
C7A
  8
SIZE
  6
CONTINUOUS
 62
    30
 10
-667.4000202043926
 20
10.00000026920598
 30
0.0
 11
-667.4000202043925
 21
389.9999986719879
 31
0.0
  0
CIRCLE
  5
C7B
  8
SIZE
  6
CONTINUOUS
 62
    30
 10
-667.4000202043926
 20
0.0000002692059872
 30
0.0
 40
5.0
  0
LINE
  5
C7C
  8
SIZE
  6
CONTINUOUS
 62
    30
 10
-667.4000202043926
 20
0.0000002692059872
 30
0.0
 11
-667.4000202043926
 21
10.00000026920599
 31
0.0
  0
CIRCLE
  5
C7D
  8
SIZE
  6
CONTINUOUS
 62
    30
 10
-667.4000202043925
 20
399.9999986719879
 30
0.0
 40
5.0
  0
LINE
  5
C7E
  8
SIZE
  6
CONTINUOUS
 62
    30
 10
-667.4000202043925
 20
399.9999986719879
 30
0.0
 11
-667.4000202043925
 21
389.9999986719879
 31
0.0
  0
TEXT
  5
C7F
  8
SIZE
  6
CONTINUOUS
 62
    30
 10
-677.4000202043926
 20
157.1428556924529
 30
0.0
 40
30.0
  1
400
 50
90.0
 72
     1
 11
-677.4000202043926
 21
199.9999985495958
 31
0.0
  0
POINT
  5
C80
  8
DEFPOINTS
  6
CONTINUOUS
 62
    30
 10
-310.0000202282345
 20
0.000000269205886
 30
0.0
  0
POINT
  5
C81
  8
DEFPOINTS
  6
CONTINUOUS
 62
    30
 10
-315.0000202282343
 20
399.9999986719877
 30
0.0
  0
POINT
  5
C82
  8
DEFPOINTS
  6
CONTINUOUS
 62
    30
 10
-667.4000202043925
 20
399.9999986719879
 30
0.0
  0
LINE
  5
C83
  8
SIZE
  6
CONTINUOUS
 62
    30
 10
254.9999797717655
 20
329.9999986719876
 30
0.0
 11
254.9999797717654
 21
-360.1000013518542
 31
0.0
  0
LINE
  5
C84
  8
SIZE
  6
CONTINUOUS
 62
    30
 10
0.0000000205809544
 20
-60.00000514270959
 30
0.0
 11
0.000000020580936
 21
-360.1000013518541
 31
0.0
  0
LINE
  5
C85
  8
SIZE
  6
CONTINUOUS
 62
    30
 10
244.9999797717655
 20
-347.6000013518541
 30
0.0
 11
10.00000002058094
 21
-347.6000013518541
 31
0.0
  0
CIRCLE
  5
C86
  8
SIZE
  6
CONTINUOUS
 62
    30
 10
254.9999797717655
 20
-347.6000013518541
 30
0.0
 40
5.0
  0
LINE
  5
C87
  8
SIZE
  6
CONTINUOUS
 62
    30
 10
254.9999797717655
 20
-347.6000013518541
 30
0.0
 11
244.9999797717655
 21
-347.6000013518541
 31
0.0
  0
CIRCLE
  5
C88
  8
SIZE
  6
CONTINUOUS
 62
    30
 10
0.0000000205809368
 20
-347.6000013518541
 30
0.0
 40
5.0
  0
LINE
  5
C89
  8
SIZE
  6
CONTINUOUS
 62
    30
 10
0.0000000205809368
 20
-347.6000013518541
 30
0.0
 11
10.00000002058094
 21
-347.6000013518541
 31
0.0
  0
TEXT
  5
C8A
  8
SIZE
  6
CONTINUOUS
 62
    30
 10
84.64285974161028
 20
-337.6000013518541
 30
0.0
 40
30.0
  1
255
 72
     1
 11
127.5000025987531
 21
-337.6000013518541
 31
0.0
  0
POINT
  5
C8B
  8
DEFPOINTS
  6
CONTINUOUS
 62
    30
 10
254.9999797717655
 20
339.9999986719876
 30
0.0
  0
POINT
  5
C8C
  8
DEFPOINTS
  6
CONTINUOUS
 62
    30
 10
0.000000020580955
 20
-50.00000514270959
 30
0.0
  0
POINT
  5
C8D
  8
DEFPOINTS
  6
CONTINUOUS
 62
    30
 10
0.0000000205809368
 20
-347.6000013518541
 30
0.0
  0
LINE
  5
C8E
  8
SIZE
  6
CONTINUOUS
 62
    30
 10
-59.99999734005086
 20
1852.999998671988
 30
0.0
 11
-879.900020204392
 21
1852.999998671988
 31
0.0
  0
LINE
  5
C8F
  8
SIZE
  6
CONTINUOUS
 62
    30
 10
-320.0000202282343
 20
0.0000002692058888
 30
0.0
 11
-879.9000202043927
 21
0.0000002692060474
 31
0.0
  0
LINE
  5
C90
  8
SIZE
  6
CONTINUOUS
 62
    30
 10
-867.400020204392
 20
1842.999998671988
 30
0.0
 11
-867.4000202043927
 21
10.00000026920604
 31
0.0
  0
CIRCLE
  5
C91
  8
SIZE
  6
CONTINUOUS
 62
    30
 10
-867.400020204392
 20
1852.999998671988
 30
0.0
 40
5.0
  0
LINE
  5
C92
  8
SIZE
  6
CONTINUOUS
 62
    30
 10
-867.400020204392
 20
1852.999998671988
 30
0.0
 11
-867.400020204392
 21
1842.999998671988
 31
0.0
  0
CIRCLE
  5
C93
  8
SIZE
  6
CONTINUOUS
 62
    30
 10
-867.4000202043927
 20
0.0000002692060439
 30
0.0
 40
5.0
  0
LINE
  5
C94
  8
SIZE
  6
CONTINUOUS
 62
    30
 10
-867.4000202043927
 20
0.0000002692060439
 30
0.0
 11
-867.4000202043927
 21
10.00000026920604
 31
0.0
  0
TEXT
  5
C95
  8
SIZE
  6
CONTINUOUS
 62
    30
 10
-877.4000202043927
 20
867.2142842638814
 30
0.0
 40
30.0
  1
1853
 50
90.0
 72
     1
 11
-877.4000202043927
 21
926.4999985495957
 31
0.0
  0
POINT
  5
C96
  8
DEFPOINTS
  6
CONTINUOUS
 62
    30
 10
-49.99999734005086
 20
1852.999998671988
 30
0.0
  0
POINT
  5
C97
  8
DEFPOINTS
  6
CONTINUOUS
 62
    30
 10
-310.0000202282345
 20
0.000000269205886
 30
0.0
  0
POINT
  5
C98
  8
DEFPOINTS
  6
CONTINUOUS
 62
    30
 10
-867.4000202043927
 20
0.0000002692060439
 30
0.0
  0
LINE
  5
C99
  8
SIZE
  6
CONTINUOUS
 62
    30
 10
30.0000007526005
 20
1882.999998671988
 30
0.0
 11
30.00000075260052
 21
2144.900242788771
 31
0.0
  0
LINE
  5
C9A
  8
SIZE
  6
CONTINUOUS
 62
    30
 10
-29.9999992473995
 20
1882.999998671988
 30
0.0
 11
-29.99999924739948
 21
2144.900242788771
 31
0.0
  0
LINE
  5
C9B
  8
SIZE
  6
CONTINUOUS
 62
    30
 10
20.00000075260051
 20
2132.400242788772
 30
0.0
 11
-19.99999924739949
 21
2132.400242788772
 31
0.0
  0
CIRCLE
  5
C9C
  8
SIZE
  6
CONTINUOUS
 62
    30
 10
30.00000075260052
 20
2132.400242788772
 30
0.0
 40
5.0
  0
LINE
  5
C9D
  8
SIZE
  6
CONTINUOUS
 62
    30
 10
30.00000075260052
 20
2132.400242788772
 30
0.0
 11
20.00000075260052
 21
2132.400242788772
 31
0.0
  0
CIRCLE
  5
C9E
  8
SIZE
  6
CONTINUOUS
 62
    30
 10
-29.99999924739949
 20
2132.400242788772
 30
0.0
 40
5.0
  0
LINE
  5
C9F
  8
SIZE
  6
CONTINUOUS
 62
    30
 10
-29.99999924739949
 20
2132.400242788772
 30
0.0
 11
-19.99999924739949
 21
2132.400242788772
 31
0.0
  0
TEXT
  5
CA0
  8
SIZE
  6
CONTINUOUS
 62
    30
 10
-29.28571353311377
 20
2142.400242788771
 30
0.0
 40
30.0
  1
60
 72
     1
 11
0.0000007526005131
 21
2142.400242788771
 31
0.0
  0
POINT
  5
CA1
  8
DEFPOINTS
  6
CONTINUOUS
 62
    30
 10
30.0000007526005
 20
1872.999998671988
 30
0.0
  0
POINT
  5
CA2
  8
DEFPOINTS
  6
CONTINUOUS
 62
    30
 10
-29.9999992473995
 20
1872.999998671988
 30
0.0
  0
POINT
  5
CA3
  8
DEFPOINTS
  6
CONTINUOUS
 62
    30
 10
-29.99999924739949
 20
2132.400242788772
 30
0.0
  0
LINE
  5
CA4
  8
SIZE
  6
CONTINUOUS
 62
    30
 10
-248.0000202282345
 20
-29.9999994206637
 30
0.0
 11
-248.0000202282345
 21
-560.1000013518541
 31
0.0
  0
LINE
  5
CA5
  8
SIZE
  6
CONTINUOUS
 62
    30
 10
247.9999797717655
 20
-29.9999994206637
 30
0.0
 11
247.9999797717655
 21
-560.1000013518541
 31
0.0
  0
LINE
  5
CA6
  8
SIZE
  6
CONTINUOUS
 62
    30
 10
-238.0000202282345
 20
-547.6000013518541
 30
0.0
 11
237.9999797717655
 21
-547.6000013518541
 31
0.0
  0
CIRCLE
  5
CA7
  8
SIZE
  6
CONTINUOUS
 62
    30
 10
-248.0000202282345
 20
-547.6000013518541
 30
0.0
 40
5.0
  0
LINE
  5
CA8
  8
SIZE
  6
CONTINUOUS
 62
    30
 10
-248.0000202282345
 20
-547.6000013518541
 30
0.0
 11
-238.0000202282345
 21
-547.6000013518541
 31
0.0
  0
CIRCLE
  5
CA9
  8
SIZE
  6
CONTINUOUS
 62
    30
 10
247.9999797717655
 20
-547.6000013518541
 30
0.0
 40
5.0
  0
LINE
  5
CAA
  8
SIZE
  6
CONTINUOUS
 62
    30
 10
247.9999797717655
 20
-547.6000013518541
 30
0.0
 11
237.9999797717655
 21
-547.6000013518541
 31
0.0
  0
TEXT
  5
CAB
  8
SIZE
  6
CONTINUOUS
 62
    30
 10
-40.92711694582101
 20
-537.6000013518541
 30
0.0
 40
30.0
  1
496
 72
     1
 11
1.930025911321856
 21
-537.6000013518541
 31
0.0
  0
POINT
  5
CAC
  8
DEFPOINTS
  6
CONTINUOUS
 62
    30
 10
-248.0000202282345
 20
-19.9999994206637
 30
0.0
  0
POINT
  5
CAD
  8
DEFPOINTS
  6
CONTINUOUS
 62
    30
 10
247.9999797717655
 20
-19.9999994206637
 30
0.0
  0
POINT
  5
CAE
  8
DEFPOINTS
  6
CONTINUOUS
 62
    30
 10
247.9999797717655
 20
-547.6000013518541
 30
0.0
  0
LINE
  5
CAF
  8
SIZE
  6
CONTINUOUS
 62
    30
 10
-188.0000202282345
 20
124.9999986719877
 30
0.0
 11
-188.0000202282345
 21
-260.1000013518541
 31
0.0
  0
LINE
  5
CB0
  8
SIZE
  6
CONTINUOUS
 62
    30
 10
0.0000000205809544
 20
-60.00000514270959
 30
0.0
 11
0.0000000205809421
 21
-260.1000013518541
 31
0.0
  0
LINE
  5
CB1
  8
SIZE
  6
CONTINUOUS
 62
    30
 10
-178.0000202282345
 20
-247.6000013518541
 30
0.0
 11
-9.999999979419051
 21
-247.6000013518541
 31
0.0
  0
CIRCLE
  5
CB2
  8
SIZE
  6
CONTINUOUS
 62
    30
 10
-188.0000202282345
 20
-247.6000013518541
 30
0.0
 40
5.0
  0
LINE
  5
CB3
  8
SIZE
  6
CONTINUOUS
 62
    30
 10
-188.0000202282345
 20
-247.6000013518541
 30
0.0
 11
-178.0000202282345
 21
-247.6000013518541
 31
0.0
  0
CIRCLE
  5
CB4
  8
SIZE
  6
CONTINUOUS
 62
    30
 10
0.0000000205809429
 20
-247.6000013518541
 30
0.0
 40
5.0
  0
LINE
  5
CB5
  8
SIZE
  6
CONTINUOUS
 62
    30
 10
0.0000000205809429
 20
-247.6000013518541
 30
0.0
 11
-9.999999979419057
 21
-247.6000013518541
 31
0.0
  0
TEXT
  5
CB6
  8
SIZE
  6
CONTINUOUS
 62
    30
 10
-139.0000050306413
 20
-237.6000013518541
 30
0.0
 40
30.0
  1
188
 72
     1
 11
-94.00000503064135
 21
-237.6000013518541
 31
0.0
  0
POINT
  5
CB7
  8
DEFPOINTS
  6
CONTINUOUS
 62
    30
 10
-188.0000202282345
 20
134.9999986719877
 30
0.0
  0
POINT
  5
CB8
  8
DEFPOINTS
  6
CONTINUOUS
 62
    30
 10
0.000000020580955
 20
-50.00000514270959
 30
0.0
  0
POINT
  5
CB9
  8
DEFPOINTS
  6
CONTINUOUS
 62
    30
 10
0.0000000205809429
 20
-247.6000013518541
 30
0.0
  0
LINE
  5
CBA
  8
SIZE
  6
CONTINUOUS
 62
    30
 10
-320.0000202282343
 20
0.0000002692058888
 30
0.0
 11
-479.8999896868144
 21
0.0000002692059341
 31
0.0
  0
LINE
  5
CBB
  8
SIZE
  6
CONTINUOUS
 62
    30
 10
-218.0000202282345
 20
154.9999986719877
 30
0.0
 11
-479.8999896868144
 21
154.9999986719877
 31
0.0
  0
LINE
  5
CBC
  8
SIZE
  6
CONTINUOUS
 62
    30
 10
-467.3999896868144
 20
10.00000026920593
 30
0.0
 11
-467.3999896868144
 21
144.9999986719878
 31
0.0
  0
CIRCLE
  5
CBD
  8
SIZE
  6
CONTINUOUS
 62
    30
 10
-467.3999896868144
 20
0.0000002692059306
 30
0.0
 40
5.0
  0
LINE
  5
CBE
  8
SIZE
  6
CONTINUOUS
 62
    30
 10
-467.3999896868144
 20
0.0000002692059306
 30
0.0
 11
-467.3999896868144
 21
10.00000026920593
 31
0.0
  0
CIRCLE
  5
CBF
  8
SIZE
  6
CONTINUOUS
 62
    30
 10
-467.3999896868144
 20
154.9999986719877
 30
0.0
 40
5.0
  0
LINE
  5
CC0
  8
SIZE
  6
CONTINUOUS
 62
    30
 10
-467.3999896868144
 20
154.9999986719877
 30
0.0
 11
-467.3999896868144
 21
144.9999986719877
 31
0.0
  0
TEXT
  5
CC1
  8
SIZE
  6
CONTINUOUS
 62
    30
 10
-477.3999896868144
 20
32.50000617899029
 30
0.0
 40
30.0
  1
155
 50
90.0
 72
     1
 11
-477.3999896868144
 21
77.50000617899029
 31
0.0
  0
POINT
  5
CC2
  8
DEFPOINTS
  6
CONTINUOUS
 62
    30
 10
-310.0000202282345
 20
0.000000269205886
 30
0.0
  0
POINT
  5
CC3
  8
DEFPOINTS
  6
CONTINUOUS
 62
    30
 10
-208.0000202282345
 20
154.9999986719877
 30
0.0
  0
POINT
  5
CC4
  8
DEFPOINTS
  6
CONTINUOUS
 62
    30
 10
-467.3999896868144
 20
154.9999986719877
 30
0.0
  0
LINE
  5
CC5
  8
SIZE
  6
CONTINUOUS
 62
    30
 10
108.0230815784061
 20
142.4999986719877
 30
0.0
 11
108.0230815784061
 21
-260.1000013518541
 31
0.0
  0
LINE
  5
CC6
  8
SIZE
  6
CONTINUOUS
 62
    30
 10
0.0000000205809544
 20
-60.00000514270959
 30
0.0
 11
0.0000000205809421
 21
-260.1000013518541
 31
0.0
  0
LINE
  5
CC7
  8
SIZE
  6
CONTINUOUS
 62
    30
 10
98.02308157840615
 20
-247.6000013518541
 30
0.0
 11
10.00000002058094
 21
-247.6000013518541
 31
0.0
  0
CIRCLE
  5
CC8
  8
SIZE
  6
CONTINUOUS
 62
    30
 10
108.0230815784061
 20
-247.6000013518541
 30
0.0
 40
5.0
  0
LINE
  5
CC9
  8
SIZE
  6
CONTINUOUS
 62
    30
 10
108.0230815784061
 20
-247.6000013518541
 30
0.0
 11
98.02308157840613
 21
-247.6000013518541
 31
0.0
  0
CIRCLE
  5
CCA
  8
SIZE
  6
CONTINUOUS
 62
    30
 10
0.0000000205809429
 20
-247.6000013518541
 30
0.0
 40
5.0
  0
LINE
  5
CCB
  8
SIZE
  6
CONTINUOUS
 62
    30
 10
0.0000000205809429
 20
-247.6000013518541
 30
0.0
 11
10.00000002058094
 21
-247.6000013518541
 31
0.0
  0
TEXT
  5
CCC
  8
SIZE
  6
CONTINUOUS
 62
    30
 10
9.011545872678965
 20
-237.6000013518541
 30
0.0
 40
30.0
  1
108
 72
     1
 11
54.01154587267897
 21
-237.6000013518541
 31
0.0
  0
POINT
  5
CCD
  8
DEFPOINTS
  6
CONTINUOUS
 62
    30
 10
108.0230815784061
 20
152.4999986719877
 30
0.0
  0
POINT
  5
CCE
  8
DEFPOINTS
  6
CONTINUOUS
 62
    30
 10
0.000000020580955
 20
-50.00000514270959
 30
0.0
  0
POINT
  5
CCF
  8
DEFPOINTS
  6
CONTINUOUS
 62
    30
 10
0.0000000205809429
 20
-247.6000013518541
 30
0.0
  0
LINE
  5
CD0
  8
SIZE
  6
CONTINUOUS
 62
    30
 10
277.9999797717655
 20
0.0000002692058832
 30
0.0
 11
475.1000103131855
 21
0.0000002692058273
 31
0.0
  0
LINE
  5
CD1
  8
SIZE
  6
CONTINUOUS
 62
    30
 10
138.0230968371952
 20
172.4999986719877
 30
0.0
 11
475.1000103131855
 21
172.4999986719876
 31
0.0
  0
LINE
  5
CD2
  8
SIZE
  6
CONTINUOUS
 62
    30
 10
462.6000103131855
 20
10.00000026920583
 30
0.0
 11
462.6000103131855
 21
162.4999986719876
 31
0.0
  0
CIRCLE
  5
CD3
  8
SIZE
  6
CONTINUOUS
 62
    30
 10
462.6000103131855
 20
0.0000002692058309
 30
0.0
 40
5.0
  0
LINE
  5
CD4
  8
SIZE
  6
CONTINUOUS
 62
    30
 10
462.6000103131855
 20
0.0000002692058309
 30
0.0
 11
462.6000103131855
 21
10.00000026920583
 31
0.0
  0
CIRCLE
  5
CD5
  8
SIZE
  6
CONTINUOUS
 62
    30
 10
462.6000103131855
 20
172.4999986719876
 30
0.0
 40
5.0
  0
LINE
  5
CD6
  8
SIZE
  6
CONTINUOUS
 62
    30
 10
462.6000103131855
 20
172.4999986719876
 30
0.0
 11
462.6000103131855
 21
162.4999986719876
 31
0.0
  0
TEXT
  5
CD7
  8
SIZE
  6
CONTINUOUS
 62
    30
 10
452.6000103131855
 20
41.25000617899028
 30
0.0
 40
30.0
  1
172
 50
90.0
 72
     1
 11
452.6000103131855
 21
86.25000617899028
 31
0.0
  0
POINT
  5
CD8
  8
DEFPOINTS
  6
CONTINUOUS
 62
    30
 10
267.9999797717655
 20
0.000000269205886
 30
0.0
  0
POINT
  5
CD9
  8
DEFPOINTS
  6
CONTINUOUS
 62
    30
 10
128.0230968371952
 20
172.4999986719877
 30
0.0
  0
POINT
  5
CDA
  8
DEFPOINTS
  6
CONTINUOUS
 62
    30
 10
462.6000103131855
 20
172.4999986719876
 30
0.0
  0
LINE
  5
CDB
  8
SIZE
  6
CONTINUOUS
 62
    30
 10
284.9999797717655
 20
0.0000002692058832
 30
0.0
 11
675.0999797956073
 21
0.0000002692057726
 31
0.0
  0
LINE
  5
CDC
  8
SIZE
  6
CONTINUOUS
 62
    30
 10
284.9999797717655
 20
359.9999986719877
 30
0.0
 11
675.0999797956075
 21
359.9999986719874
 31
0.0
  0
LINE
  5
CDD
  8
SIZE
  6
CONTINUOUS
 62
    30
 10
662.5999797956073
 20
10.00000026920578
 30
0.0
 11
662.5999797956075
 21
349.9999986719874
 31
0.0
  0
CIRCLE
  5
CDE
  8
SIZE
  6
CONTINUOUS
 62
    30
 10
662.5999797956073
 20
0.0000002692057762
 30
0.0
 40
5.0
  0
LINE
  5
CDF
  8
SIZE
  6
CONTINUOUS
 62
    30
 10
662.5999797956073
 20
0.0000002692057762
 30
0.0
 11
662.5999797956073
 21
10.00000026920578
 31
0.0
  0
CIRCLE
  5
CE0
  8
SIZE
  6
CONTINUOUS
 62
    30
 10
662.5999797956075
 20
359.9999986719874
 30
0.0
 40
5.0
  0
LINE
  5
CE1
  8
SIZE
  6
CONTINUOUS
 62
    30
 10
662.5999797956075
 20
359.9999986719874
 30
0.0
 11
662.5999797956075
 21
349.9999986719874
 31
0.0
  0
TEXT
  5
CE2
  8
SIZE
  6
CONTINUOUS
 62
    30
 10
652.5999797956073
 20
137.1428556924529
 30
0.0
 40
30.0
  1
360
 50
90.0
 72
     1
 11
652.5999797956073
 21
179.9999985495958
 31
0.0
  0
POINT
  5
CE3
  8
DEFPOINTS
  6
CONTINUOUS
 62
    30
 10
274.9999797717655
 20
0.000000269205886
 30
0.0
  0
POINT
  5
CE4
  8
DEFPOINTS
  6
CONTINUOUS
 62
    30
 10
274.9999797717655
 20
359.9999986719877
 30
0.0
  0
POINT
  5
CE5
  8
DEFPOINTS
  6
CONTINUOUS
 62
    30
 10
662.5999797956075
 20
359.9999986719874
 30
0.0
  0
LINE
  5
CE6
  8
SIZE
  6
CONTINUOUS
 62
    30
 10
324.9999797717657
 20
0.0000002692058832
 30
0.0
 11
775.0999797956073
 21
0.0000002692057556
 31
0.0
  0
LINE
  5
CE7
  8
SIZE
  6
CONTINUOUS
 62
    30
 10
324.9999797717657
 20
399.9999986719877
 30
0.0
 11
775.0999797956073
 21
399.9999986719877
 31
0.0
  0
LINE
  5
CE8
  8
SIZE
  6
CONTINUOUS
 62
    30
 10
762.5999797956073
 20
10.00000026920576
 30
0.0
 11
762.5999797956073
 21
389.9999986719877
 31
0.0
  0
CIRCLE
  5
CE9
  8
SIZE
  6
CONTINUOUS
 62
    30
 10
762.5999797956073
 20
0.0000002692057592
 30
0.0
 40
5.0
  0
LINE
  5
CEA
  8
SIZE
  6
CONTINUOUS
 62
    30
 10
762.5999797956073
 20
0.0000002692057592
 30
0.0
 11
762.5999797956073
 21
10.00000026920576
 31
0.0
  0
CIRCLE
  5
CEB
  8
SIZE
  6
CONTINUOUS
 62
    30
 10
762.5999797956073
 20
399.9999986719877
 30
0.0
 40
5.0
  0
LINE
  5
CEC
  8
SIZE
  6
CONTINUOUS
 62
    30
 10
762.5999797956073
 20
399.9999986719877
 30
0.0
 11
762.5999797956073
 21
389.9999986719877
 31
0.0
  0
TEXT
  5
CED
  8
SIZE
  6
CONTINUOUS
 62
    30
 10
752.5999797956073
 20
157.1428556924529
 30
0.0
 40
30.0
  1
400
 50
90.0
 72
     1
 11
752.5999797956073
 21
199.9999985495958
 31
0.0
  0
POINT
  5
CEE
  8
DEFPOINTS
  6
CONTINUOUS
 62
    30
 10
314.9999797717657
 20
0.000000269205886
 30
0.0
  0
POINT
  5
CEF
  8
DEFPOINTS
  6
CONTINUOUS
 62
    30
 10
314.9999797717657
 20
399.9999986719877
 30
0.0
  0
POINT
  5
CF0
  8
DEFPOINTS
  6
CONTINUOUS
 62
    30
 10
762.5999797956073
 20
399.9999986719877
 30
0.0
  0
LINE
  5
CF1
  8
SIZE
  6
CONTINUOUS
 62
    30
 10
-180.0000202282345
 20
369.9999986719878
 30
0.0
 11
-180.0000202282345
 21
-160.1000013518541
 31
0.0
  0
LINE
  5
CF2
  8
SIZE
  6
CONTINUOUS
 62
    30
 10
0.0000000205809544
 20
-60.00000514270959
 30
0.0
 11
0.0000000205809482
 21
-160.1000013518541
 31
0.0
  0
LINE
  5
CF3
  8
SIZE
  6
CONTINUOUS
 62
    30
 10
-170.0000202282345
 20
-147.6000013518541
 30
0.0
 11
-9.999999979419051
 21
-147.6000013518541
 31
0.0
  0
CIRCLE
  5
CF4
  8
SIZE
  6
CONTINUOUS
 62
    30
 10
-180.0000202282345
 20
-147.6000013518541
 30
0.0
 40
5.0
  0
LINE
  5
CF5
  8
SIZE
  6
CONTINUOUS
 62
    30
 10
-180.0000202282345
 20
-147.6000013518541
 30
0.0
 11
-170.0000202282345
 21
-147.6000013518541
 31
0.0
  0
CIRCLE
  5
CF6
  8
SIZE
  6
CONTINUOUS
 62
    30
 10
0.000000020580949
 20
-147.6000013518541
 30
0.0
 40
5.0
  0
LINE
  5
CF7
  8
SIZE
  6
CONTINUOUS
 62
    30
 10
0.000000020580949
 20
-147.6000013518541
 30
0.0
 11
-9.999999979419051
 21
-147.6000013518541
 31
0.0
  0
TEXT
  5
CF8
  8
SIZE
  6
CONTINUOUS
 62
    30
 10
-135.0000050306413
 20
-137.6000013518541
 30
0.0
 40
30.0
  1
180
 72
     1
 11
-90.00000503064135
 21
-137.6000013518541
 31
0.0
  0
POINT
  5
CF9
  8
DEFPOINTS
  6
CONTINUOUS
 62
    30
 10
-180.0000202282345
 20
379.9999986719878
 30
0.0
  0
POINT
  5
CFA
  8
DEFPOINTS
  6
CONTINUOUS
 62
    30
 10
0.000000020580955
 20
-50.00000514270959
 30
0.0
  0
POINT
  5
CFB
  8
DEFPOINTS
  6
CONTINUOUS
 62
    30
 10
0.000000020580949
 20
-147.6000013518541
 30
0.0
  0
LINE
  5
CFC
  8
SIZE
  6
CONTINUOUS
 62
    30
 10
-275.0000202282345
 20
369.9999986719878
 30
0.0
 11
-275.0000202282345
 21
-460.1000013518541
 31
0.0
  0
LINE
  5
CFD
  8
SIZE
  6
CONTINUOUS
 62
    30
 10
0.0000000205809544
 20
-60.00000514270959
 30
0.0
 11
0.0000000205809299
 21
-460.1000013518541
 31
0.0
  0
LINE
  5
CFE
  8
SIZE
  6
CONTINUOUS
 62
    30
 10
-265.0000202282345
 20
-447.6000013518541
 30
0.0
 11
-9.999999979419062
 21
-447.6000013518541
 31
0.0
  0
CIRCLE
  5
CFF
  8
SIZE
  6
CONTINUOUS
 62
    30
 10
-275.0000202282345
 20
-447.6000013518541
 30
0.0
 40
5.0
  0
LINE
  5
D00
  8
SIZE
  6
CONTINUOUS
 62
    30
 10
-275.0000202282345
 20
-447.6000013518541
 30
0.0
 11
-265.0000202282345
 21
-447.6000013518541
 31
0.0
  0
CIRCLE
  5
D01
  8
SIZE
  6
CONTINUOUS
 62
    30
 10
0.0000000205809306
 20
-447.6000013518541
 30
0.0
 40
5.0
  0
LINE
  5
D02
  8
SIZE
  6
CONTINUOUS
 62
    30
 10
0.0000000205809306
 20
-447.6000013518541
 30
0.0
 11
-9.99999997941907
 21
-447.6000013518541
 31
0.0
  0
TEXT
  5
D03
  8
SIZE
  6
CONTINUOUS
 62
    30
 10
-180.3571631465732
 20
-437.6000013518541
 30
0.0
 40
30.0
  1
275
 72
     1
 11
-137.5000202894304
 21
-437.6000013518541
 31
0.0
  0
POINT
  5
D04
  8
DEFPOINTS
  6
CONTINUOUS
 62
    30
 10
-275.0000202282345
 20
379.9999986719878
 30
0.0
  0
POINT
  5
D05
  8
DEFPOINTS
  6
CONTINUOUS
 62
    30
 10
0.000000020580955
 20
-50.00000514270959
 30
0.0
  0
POINT
  5
D06
  8
DEFPOINTS
  6
CONTINUOUS
 62
    30
 10
0.0000000205809306
 20
-447.6000013518541
 30
0.0
  0
LINE
  5
D07
  8
SIZE
  6
CONTINUOUS
 62
    30
 10
-320.0000202282343
 20
0.0000002692058888
 30
0.0
 11
-579.9000202043926
 21
0.0000002692059624
 31
0.0
  0
LINE
  5
D08
  8
SIZE
  6
CONTINUOUS
 62
    30
 10
-260.0000202282345
 20
319.9999986719876
 30
0.0
 11
-579.9000202043925
 21
319.9999986719877
 31
0.0
  0
LINE
  5
D09
  8
SIZE
  6
CONTINUOUS
 62
    30
 10
-567.4000202043926
 20
10.00000026920596
 30
0.0
 11
-567.4000202043925
 21
309.9999986719877
 31
0.0
  0
CIRCLE
  5
D0A
  8
SIZE
  6
CONTINUOUS
 62
    30
 10
-567.4000202043926
 20
0.0000002692059589
 30
0.0
 40
5.0
  0
LINE
  5
D0B
  8
SIZE
  6
CONTINUOUS
 62
    30
 10
-567.4000202043926
 20
0.0000002692059589
 30
0.0
 11
-567.4000202043926
 21
10.00000026920596
 31
0.0
  0
CIRCLE
  5
D0C
  8
SIZE
  6
CONTINUOUS
 62
    30
 10
-567.4000202043925
 20
319.9999986719877
 30
0.0
 40
5.0
  0
LINE
  5
D0D
  8
SIZE
  6
CONTINUOUS
 62
    30
 10
-567.4000202043925
 20
319.9999986719877
 30
0.0
 11
-567.4000202043925
 21
309.9999986719877
 31
0.0
  0
TEXT
  5
D0E
  8
SIZE
  6
CONTINUOUS
 62
    30
 10
-577.4000202043926
 20
117.1428556924528
 30
0.0
 40
30.0
  1
320
 50
90.0
 72
     1
 11
-577.4000202043926
 21
159.9999985495957
 31
0.0
  0
POINT
  5
D0F
  8
DEFPOINTS
  6
CONTINUOUS
 62
    30
 10
-310.0000202282345
 20
0.000000269205886
 30
0.0
  0
POINT
  5
D10
  8
DEFPOINTS
  6
CONTINUOUS
 62
    30
 10
-250.0000202282345
 20
319.9999986719876
 30
0.0
  0
POINT
  5
D11
  8
DEFPOINTS
  6
CONTINUOUS
 62
    30
 10
-567.4000202043925
 20
319.9999986719877
 30
0.0
  0
LINE
  5
D12
  8
SIZE
  6
CONTINUOUS
 62
    30
 10
-230.0000202282345
 20
289.9999986719877
 30
0.0
 11
-230.0000202282345
 21
-360.1000013518542
 31
0.0
  0
LINE
  5
D13
  8
SIZE
  6
CONTINUOUS
 62
    30
 10
0.0000000205809544
 20
-60.00000514270959
 30
0.0
 11
0.000000020580936
 21
-360.1000013518541
 31
0.0
  0
LINE
  5
D14
  8
SIZE
  6
CONTINUOUS
 62
    30
 10
-220.0000202282345
 20
-347.6000013518541
 30
0.0
 11
-9.999999979419062
 21
-347.6000013518541
 31
0.0
  0
CIRCLE
  5
D15
  8
SIZE
  6
CONTINUOUS
 62
    30
 10
-230.0000202282345
 20
-347.6000013518541
 30
0.0
 40
5.0
  0
LINE
  5
D16
  8
SIZE
  6
CONTINUOUS
 62
    30
 10
-230.0000202282345
 20
-347.6000013518541
 30
0.0
 11
-220.0000202282345
 21
-347.6000013518541
 31
0.0
  0
CIRCLE
  5
D17
  8
SIZE
  6
CONTINUOUS
 62
    30
 10
0.0000000205809368
 20
-347.6000013518541
 30
0.0
 40
5.0
  0
LINE
  5
D18
  8
SIZE
  6
CONTINUOUS
 62
    30
 10
0.0000000205809368
 20
-347.6000013518541
 30
0.0
 11
-9.999999979419062
 21
-347.6000013518541
 31
0.0
  0
TEXT
  5
D19
  8
SIZE
  6
CONTINUOUS
 62
    30
 10
-157.8571478877842
 20
-337.6000013518541
 30
0.0
 40
30.0
  1
230
 72
     1
 11
-115.0000050306414
 21
-337.6000013518541
 31
0.0
  0
POINT
  5
D1A
  8
DEFPOINTS
  6
CONTINUOUS
 62
    30
 10
-230.0000202282345
 20
299.9999986719877
 30
0.0
  0
POINT
  5
D1B
  8
DEFPOINTS
  6
CONTINUOUS
 62
    30
 10
0.000000020580955
 20
-50.00000514270959
 30
0.0
  0
POINT
  5
D1C
  8
DEFPOINTS
  6
CONTINUOUS
 62
    30
 10
0.0000000205809368
 20
-347.6000013518541
 30
0.0
  0
LINE
  5
D1D
  8
SIZE
  6
CONTINUOUS
 62
    30
 10
319.9999797717655
 20
0.0000002692058832
 30
0.0
 11
575.0999797956073
 21
0.0000002692058109
 31
0.0
  0
LINE
  5
D1E
  8
SIZE
  6
CONTINUOUS
 62
    30
 10
99.9999950305546
 20
319.9999986719876
 30
0.0
 11
575.0999797956073
 21
319.9999986719874
 31
0.0
  0
LINE
  5
D1F
  8
SIZE
  6
CONTINUOUS
 62
    30
 10
562.5999797956073
 20
10.00000026920581
 30
0.0
 11
562.5999797956073
 21
309.9999986719874
 31
0.0
  0
CIRCLE
  5
D20
  8
SIZE
  6
CONTINUOUS
 62
    30
 10
562.5999797956073
 20
0.0000002692058144
 30
0.0
 40
5.0
  0
LINE
  5
D21
  8
SIZE
  6
CONTINUOUS
 62
    30
 10
562.5999797956073
 20
0.0000002692058144
 30
0.0
 11
562.5999797956073
 21
10.00000026920581
 31
0.0
  0
CIRCLE
  5
D22
  8
SIZE
  6
CONTINUOUS
 62
    30
 10
562.5999797956073
 20
319.9999986719874
 30
0.0
 40
5.0
  0
LINE
  5
D23
  8
SIZE
  6
CONTINUOUS
 62
    30
 10
562.5999797956073
 20
319.9999986719874
 30
0.0
 11
562.5999797956073
 21
309.9999986719874
 31
0.0
  0
TEXT
  5
D24
  8
SIZE
  6
CONTINUOUS
 62
    30
 10
552.5999797956073
 20
117.1428556924528
 30
0.0
 40
30.0
  1
320
 50
90.0
 72
     1
 11
552.5999797956073
 21
159.9999985495957
 31
0.0
  0
POINT
  5
D25
  8
DEFPOINTS
  6
CONTINUOUS
 62
    30
 10
309.9999797717655
 20
0.000000269205886
 30
0.0
  0
POINT
  5
D26
  8
DEFPOINTS
  6
CONTINUOUS
 62
    30
 10
89.9999950305546
 20
319.9999986719876
 30
0.0
  0
POINT
  5
D27
  8
DEFPOINTS
  6
CONTINUOUS
 62
    30
 10
562.5999797956073
 20
319.9999986719874
 30
0.0
  0
LINE
  5
D28
  8
SIZE
  6
CONTINUOUS
 62
    30
 10
69.9999950305546
 20
289.9999986719877
 30
0.0
 11
69.99999503055457
 21
-160.1000013518541
 31
0.0
  0
LINE
  5
D29
  8
SIZE
  6
CONTINUOUS
 62
    30
 10
0.0000000205809544
 20
-60.00000514270959
 30
0.0
 11
0.0000000205809482
 21
-160.1000013518541
 31
0.0
  0
LINE
  5
D2A
  8
SIZE
  6
CONTINUOUS
 62
    30
 10
59.99999503055457
 20
-147.6000013518541
 30
0.0
 11
10.00000002058095
 21
-147.6000013518541
 31
0.0
  0
CIRCLE
  5
D2B
  8
SIZE
  6
CONTINUOUS
 62
    30
 10
69.99999503055457
 20
-147.6000013518541
 30
0.0
 40
5.0
  0
LINE
  5
D2C
  8
SIZE
  6
CONTINUOUS
 62
    30
 10
69.99999503055457
 20
-147.6000013518541
 30
0.0
 11
59.99999503055457
 21
-147.6000013518541
 31
0.0
  0
CIRCLE
  5
D2D
  8
SIZE
  6
CONTINUOUS
 62
    30
 10
0.000000020580949
 20
-147.6000013518541
 30
0.0
 40
5.0
  0
LINE
  5
D2E
  8
SIZE
  6
CONTINUOUS
 62
    30
 10
0.000000020580949
 20
-147.6000013518541
 30
0.0
 11
10.00000002058095
 21
-147.6000013518541
 31
0.0
  0
TEXT
  5
D2F
  8
SIZE
  6
CONTINUOUS
 62
    30
 10
6.428574027324618
 20
-137.6000013518541
 30
0.0
 40
30.0
  1
70
 72
     1
 11
35.00000259875319
 21
-137.6000013518541
 31
0.0
  0
POINT
  5
D30
  8
DEFPOINTS
  6
CONTINUOUS
 62
    30
 10
69.9999950305546
 20
299.9999986719877
 30
0.0
  0
POINT
  5
D31
  8
DEFPOINTS
  6
CONTINUOUS
 62
    30
 10
0.000000020580955
 20
-50.00000514270959
 30
0.0
  0
POINT
  5
D32
  8
DEFPOINTS
  6
CONTINUOUS
 62
    30
 10
0.000000020580949
 20
-147.6000013518541
 30
0.0
  0
LINE
  5
D33
  8
SIZE
  6
CONTINUOUS
 62
    30
 10
314.9999797717657
 20
2039.999998671988
 30
0.0
 11
314.9999797717657
 21
2394.900242788771
 31
0.0
  0
LINE
  5
D34
  8
SIZE
  6
CONTINUOUS
 62
    30
 10
-315.0000202282343
 20
2039.999998671988
 30
0.0
 11
-315.0000202282343
 21
2394.900242788771
 31
0.0
  0
LINE
  5
D35
  8
SIZE
  6
CONTINUOUS
 62
    30
 10
304.9999797717657
 20
2382.400242788772
 30
0.0
 11
-305.0000202282343
 21
2382.400242788772
 31
0.0
  0
CIRCLE
  5
D36
  8
SIZE
  6
CONTINUOUS
 62
    30
 10
314.9999797717657
 20
2382.400242788772
 30
0.0
 40
5.0
  0
LINE
  5
D37
  8
SIZE
  6
CONTINUOUS
 62
    30
 10
314.9999797717657
 20
2382.400242788772
 30
0.0
 11
304.9999797717657
 21
2382.400242788772
 31
0.0
  0
CIRCLE
  5
D38
  8
SIZE
  6
CONTINUOUS
 62
    30
 10
-315.0000202282343
 20
2382.400242788772
 30
0.0
 40
5.0
  0
LINE
  5
D39
  8
SIZE
  6
CONTINUOUS
 62
    30
 10
-315.0000202282343
 20
2382.400242788772
 30
0.0
 11
-305.0000202282343
 21
2382.400242788772
 31
0.0
  0
TEXT
  5
D3A
  8
SIZE
  6
CONTINUOUS
 62
    30
 10
-43.57142861204355
 20
2392.400242788771
 30
0.0
 40
30.0
  1
630
 72
     1
 11
-0.0000000406149855
 21
2392.400242788771
 31
0.0
  0
POINT
  5
D3B
  8
DEFPOINTS
  6
CONTINUOUS
 62
    30
 10
314.9999797717657
 20
2029.999998671988
 30
0.0
  0
POINT
  5
D3C
  8
DEFPOINTS
  6
CONTINUOUS
 62
    30
 10
-315.0000202282343
 20
2029.999998671988
 30
0.0
  0
POINT
  5
D3D
  8
DEFPOINTS
  6
CONTINUOUS
 62
    30
 10
-315.0000202282343
 20
2382.400242788772
 30
0.0
  0
LINE
  5
D3E
  8
SIZE
  6
CONTINUOUS
 62
    30
 10
324.9999797717657
 20
1829.999998671988
 30
0.0
 11
1075.099979795608
 21
1829.999998671988
 31
0.0
  0
LINE
  5
D3F
  8
SIZE
  6
CONTINUOUS
 62
    30
 10
324.9999797717657
 20
2029.999998671988
 30
0.0
 11
1075.099979795608
 21
2029.999998671988
 31
0.0
  0
LINE
  5
D40
  8
SIZE
  6
CONTINUOUS
 62
    30
 10
1062.599979795608
 20
1839.999998671987
 30
0.0
 11
1062.599979795608
 21
2019.999998671988
 31
0.0
  0
CIRCLE
  5
D41
  8
SIZE
  6
CONTINUOUS
 62
    30
 10
1062.599979795608
 20
1829.999998671988
 30
0.0
 40
5.0
  0
LINE
  5
D42
  8
SIZE
  6
CONTINUOUS
 62
    30
 10
1062.599979795608
 20
1829.999998671988
 30
0.0
 11
1062.599979795608
 21
1839.999998671988
 31
0.0
  0
CIRCLE
  5
D43
  8
SIZE
  6
CONTINUOUS
 62
    30
 10
1062.599979795608
 20
2029.999998671988
 30
0.0
 40
5.0
  0
LINE
  5
D44
  8
SIZE
  6
CONTINUOUS
 62
    30
 10
1062.599979795608
 20
2029.999998671988
 30
0.0
 11
1062.599979795608
 21
2019.999998671988
 31
0.0
  0
TEXT
  5
D45
  8
SIZE
  6
CONTINUOUS
 62
    30
 10
1052.599979795608
 20
1887.142855692453
 30
0.0
 40
30.0
  1
200
 50
90.0
 72
     1
 11
1052.599979795608
 21
1929.999998549596
 31
0.0
  0
POINT
  5
D46
  8
DEFPOINTS
  6
CONTINUOUS
 62
    30
 10
314.9999797717657
 20
1829.999998671988
 30
0.0
  0
POINT
  5
D47
  8
DEFPOINTS
  6
CONTINUOUS
 62
    30
 10
314.9999797717657
 20
2029.999998671988
 30
0.0
  0
POINT
  5
D48
  8
DEFPOINTS
  6
CONTINUOUS
 62
    30
 10
1062.599979795608
 20
2029.999998671988
 30
0.0
  0
LINE
  5
D49
  8
SIZE
  6
CONTINUOUS
 62
    30
 10
-315.0000202282343
 20
189.9999986719877
 30
0.0
 11
-315.0000202282345
 21
-660.1000013518541
 31
0.0
  0
LINE
  5
D4A
  8
SIZE
  6
CONTINUOUS
 62
    30
 10
314.9999797717657
 20
189.9999986719877
 30
0.0
 11
314.9999797717655
 21
-660.1000013518541
 31
0.0
  0
LINE
  5
D4B
  8
SIZE
  6
CONTINUOUS
 62
    30
 10
-305.0000202282345
 20
-647.6000013518541
 30
0.0
 11
304.9999797717655
 21
-647.6000013518541
 31
0.0
  0
CIRCLE
  5
D4C
  8
SIZE
  6
CONTINUOUS
 62
    30
 10
-315.0000202282345
 20
-647.6000013518541
 30
0.0
 40
5.0
  0
LINE
  5
D4D
  8
SIZE
  6
CONTINUOUS
 62
    30
 10
-315.0000202282345
 20
-647.6000013518541
 30
0.0
 11
-305.0000202282345
 21
-647.6000013518541
 31
0.0
  0
CIRCLE
  5
D4E
  8
SIZE
  6
CONTINUOUS
 62
    30
 10
314.9999797717655
 20
-647.6000013518541
 30
0.0
 40
5.0
  0
LINE
  5
D4F
  8
SIZE
  6
CONTINUOUS
 62
    30
 10
314.9999797717655
 20
-647.6000013518541
 30
0.0
 11
304.9999797717655
 21
-647.6000013518541
 31
0.0
  0
TEXT
  5
D50
  8
SIZE
  6
CONTINUOUS
 62
    30
 10
-39.51737457344442
 20
-637.6000013518541
 30
0.0
 40
30.0
  1
630
 72
     1
 11
4.054053997984148
 21
-637.6000013518541
 31
0.0
  0
POINT
  5
D51
  8
DEFPOINTS
  6
CONTINUOUS
 62
    30
 10
-315.0000202282343
 20
199.9999986719877
 30
0.0
  0
POINT
  5
D52
  8
DEFPOINTS
  6
CONTINUOUS
 62
    30
 10
314.9999797717657
 20
199.9999986719877
 30
0.0
  0
POINT
  5
D53
  8
DEFPOINTS
  6
CONTINUOUS
 62
    30
 10
314.9999797717655
 20
-647.6000013518541
 30
0.0
  0
LINE
  5
D54
  8
NOTE
  6
CONTINUOUS
 10
667.3165691272343
 20
-199.9860853123873
 30
0.0
 11
415.0165813342655
 21
-199.9860853123873
 31
0.0
  0
LINE
  5
D55
  8
NOTE
  6
CONTINUOUS
 10
415.0165813342655
 20
-199.9860853123873
 30
0.0
 11
248.0165813342655
 21
0.013914687612671
 31
0.0
  0
LINE
  5
D56
  8
NOTE
  6
CONTINUOUS
 10
248.0165813342655
 20
0.013914687612671
 30
0.0
 11
249.6521153195577
 21
-1.137184171284484
 31
0.0
  0
LINE
  5
D57
  8
NOTE
  6
CONTINUOUS
 10
248.0165813342655
 20
0.013914687612671
 30
0.0
 11
248.8574458583925
 21
-1.800733171357412
 31
0.0
  0
TEXT
  5
D58
  8
NOTE
  6
CONTINUOUS
 10
473.5165813342655
 20
-198.9860853123873
 30
0.0
 40
39.99999999999999
  1
AH 2-M12
 50
0.0000025613209388
 41
0.6473684436396551
  7
STANDARD1
  0
LINE
  5
D59
  8
NOTE
  6
CONTINUOUS
 10
607.9166057483279
 20
-499.9860853123873
 30
0.0
 11
415.0165813342655
 21
-499.9860853123873
 31
0.0
  0
LINE
  5
D5A
  8
NOTE
  6
CONTINUOUS
 10
415.0165813342655
 20
-499.9860853123873
 30
0.0
 11
108.039667882117
 21
172.5139146876127
 31
0.0
  0
LINE
  5
D5B
  8
NOTE
  6
CONTINUOUS
 10
108.039667882117
 20
172.5139146876127
 30
0.0
 11
109.3127758156767
 21
170.9714503640358
 31
0.0
  0
LINE
  5
D5C
  8
NOTE
  6
CONTINUOUS
 10
108.039667882117
 20
172.5139146876127
 30
0.0
 11
108.3709795038125
 21
170.5415474273567
 31
0.0
  0
TEXT
  5
D5D
  8
NOTE
  6
CONTINUOUS
 10
473.5165813342655
 20
-498.9860853123873
 30
0.0
 40
39.99999999999999
  1
D φ18
 50
359.9999888354608
 41
0.715625017881393
  7
STANDARD1
  0
LINE
  5
D5E
  8
NOTE
  6
CONTINUOUS
 10
618.116556920203
 20
-599.9860853123873
 30
0.0
 11
415.0165813342655
 21
-599.9860853123873
 31
0.0
  0
LINE
  5
D5F
  8
NOTE
  6
CONTINUOUS
 10
415.0165813342655
 20
-599.9860853123873
 30
0.0
 11
0.016581334265538
 21
0.013914687612671
 31
0.0
  0
LINE
  5
D60
  8
NOTE
  6
CONTINUOUS
 10
0.016581334265538
 20
0.013914687612671
 30
0.0
 11
1.541247659308489
 21
-1.280454887616915
 31
0.0
  0
LINE
  5
D61
  8
NOTE
  6
CONTINUOUS
 10
0.016581334265538
 20
0.013914687612671
 30
0.0
 11
0.689796288992193
 21
-1.869375418752354
 31
0.0
  0
TEXT
  5
D62
  8
NOTE
  6
CONTINUOUS
 10
473.5165813342655
 20
-598.9860853123873
 30
0.0
 40
39.99999999999999
  1
AH M12
 50
0.0000024148365395
 41
0.6589285944189343
  7
STANDARD1
  0
TEXT
  5
D63
  8
NOTE
  6
CONTINUOUS
 10
427.4792278186405
 20
-654.5461439061372
 30
0.0
 40
39.99999999999999
  1
［Ｔ型座金（同梱部品）］
 50
0.0000026998693284
 41
0.8125
  7
STANDARD1
  0
TEXT
  5
D64
  8
NOTE
  6
CONTINUOUS
 10
425.4188030139529
 20
-144.1488050389498
 30
0.0
 40
39.99999999999999
  1
■標準施工時
 50
0.0000026998693284
 41
0.8125
  7
STANDARD1
  0
TEXT
  5
D65
  8
NOTE
  6
CONTINUOUS
 10
431.158060826453
 20
-405.9779066014497
 30
0.0
 40
39.99999999999999
  1
［2-Ｔ型座金（別売部品）］
 50
0.0000025613209388
 41
0.7884146367631311
  7
STANDARD1
  0
TEXT
  5
D66
  8
NOTE
  6
CONTINUOUS
 10
426.170756138953
 20
-297.9311841893405
 30
0.0
 40
39.99999999999999
  1
■標準施工ができない場合
 50
0.0000026998693284
 41
0.8125
  7
STANDARD1
  0
LINE
  5
D67
  8
NOTE
  6
CONTINUOUS
 10
667.3165691272343
 20
-349.9860853123873
 30
0.0
 11
415.0165813342655
 21
-349.9860853123873
 31
0.0
  0
LINE
  5
D68
  8
NOTE
  6
CONTINUOUS
 10
415.0165813342655
 20
-349.9860853123873
 30
0.0
 11
248.0165813342655
 21
0.013914687612671
 31
0.0
  0
LINE
  5
D69
  8
NOTE
  6
CONTINUOUS
 10
248.0165813342655
 20
0.013914687612671
 30
0.0
 11
249.3156847222335
 21
-1.506720175650052
 31
0.0
  0
LINE
  5
D6A
  8
NOTE
  6
CONTINUOUS
 10
248.0165813342655
 20
0.013914687612671
 30
0.0
 11
248.3813204101047
 21
-1.952545433151545
 31
0.0
  0
TEXT
  5
D6B
  8
NOTE
  6
CONTINUOUS
 10
473.5165813342655
 20
-348.9860853123873
 30
0.0
 40
39.99999999999999
  1
AH 2-M12
 50
0.0000025613209388
 41
0.6473684436396551
  7
STANDARD1
  0
LINE
  5
D6C
  8
NOTE
  6
CONTINUOUS
 10
779.3166301623905
 20
500.0139146876127
 30
0.0
 11
365.0165813342655
 21
500.0139146876127
 31
0.0
  0
LINE
  5
D6D
  8
NOTE
  6
CONTINUOUS
 10
365.0165813342655
 20
500.0139146876127
 30
0.0
 11
255.0165813342655
 21
360.0139146876127
 31
0.0
  0
LINE
  5
D6E
  8
NOTE
  6
CONTINUOUS
 10
255.0165813342655
 20
360.0139146876127
 30
0.0
 11
255.8030925837658
 21
361.8527730438786
 31
0.0
  0
LINE
  5
D6F
  8
NOTE
  6
CONTINUOUS
 10
255.0165813342655
 20
360.0139146876127
 30
0.0
 11
256.6171492523015
 21
361.2131570900291
 31
0.0
  0
TEXT
  5
D70
  8
NOTE
  6
CONTINUOUS
 10
423.5165813342655
 20
501.0139146876127
 30
0.0
 40
39.99999999999999
  1
BH R1/2(φ21.7)
 50
359.9999888681535
 41
0.6500000202137491
  7
STANDARD1
  0
LINE
  5
D71
  8
NOTE
  6
CONTINUOUS
 10
779.3166301623905
 20
600.0139146876127
 30
0.0
 11
365.0165813342655
 21
600.0139146876127
 31
0.0
  0
LINE
  5
D72
  8
NOTE
  6
CONTINUOUS
 10
365.0165813342655
 20
600.0139146876127
 30
0.0
 11
70.01658133426554
 21
320.0139146876127
 31
0.0
  0
LINE
  5
D73
  8
NOTE
  6
CONTINUOUS
 10
70.01658133426554
 20
320.0139146876127
 30
0.0
 11
71.06140979822035
 21
321.7192983631855
 31
0.0
  0
LINE
  5
D74
  8
NOTE
  6
CONTINUOUS
 10
70.01658133426554
 20
320.0139146876127
 30
0.0
 11
71.7741211783412
 21
320.9684060162723
 31
0.0
  0
TEXT
  5
D75
  8
NOTE
  6
CONTINUOUS
 10
423.5165813342655
 20
601.0139146876127
 30
0.0
 40
39.99999999999999
  1
CW R3/4(φ27.2)
 50
0.0000025613209388
 41
0.6500000202137493
  7
STANDARD1
  0
LINE
  5
D76
  8
NOTE
  6
CONTINUOUS
 10
-879.2834674938593
 20
-449.9860853123873
 30
0.0
 11
-464.9834186657345
 21
-449.9860853123873
 31
0.0
  0
LINE
  5
D77
  8
NOTE
  6
CONTINUOUS
 10
-464.9834186657345
 20
-449.9860853123873
 30
0.0
 11
-187.9834186657345
 21
155.0139146876127
 31
0.0
  0
LINE
  5
D78
  8
NOTE
  6
CONTINUOUS
 10
-187.9834186657345
 20
155.0139146876127
 30
0.0
 11
-188.3169814034572
 21
153.04192688339
 31
0.0
  0
LINE
  5
D79
  8
NOTE
  6
CONTINUOUS
 10
-187.9834186657345
 20
155.0139146876127
 30
0.0
 11
-189.2582863949229
 21
153.4729045406396
 31
0.0
  0
TEXT
  5
D7A
  8
NOTE
  6
CONTINUOUS
 10
-879.2834064587031
 20
-448.9861158299653
 30
0.0
 40
39.99999999999999
  1
WD R3/4(φ27.2)
 50
0.0000025613209388
 41
0.6500000202137493
  7
STANDARD1
  0
LINE
  5
D7B
  8
NOTE
  6
CONTINUOUS
 10
-879.2834674938593
 20
-249.9860853123873
 30
0.0
 11
-464.9834186657345
 21
-249.9860853123873
 31
0.0
  0
LINE
  5
D7C
  8
NOTE
  6
CONTINUOUS
 10
-464.9834186657345
 20
-249.9860853123873
 30
0.0
 11
-229.9834186657345
 21
320.0139146876127
 31
0.0
  0
LINE
  5
D7D
  8
NOTE
  6
CONTINUOUS
 10
-229.9834186657345
 20
320.0139146876127
 30
0.0
 11
-230.2411970764082
 21
318.0305966871422
 31
0.0
  0
LINE
  5
D7E
  8
NOTE
  6
CONTINUOUS
 10
-229.9834186657345
 20
320.0139146876127
 30
0.0
 11
-231.1983203413086
 21
318.4252001384607
 31
0.0
  0
TEXT
  5
D7F
  8
NOTE
  6
CONTINUOUS
 10
-879.2834064587031
 20
-248.9861005711763
 30
0.0
 40
39.99999999999999
  1
HW R3/4(φ27.2)
 50
0.0000025613209388
 41
0.6500000202137493
  7
STANDARD1
  0
LINE
  5
D80
  8
NOTE
  6
CONTINUOUS
 10
-682.4834186657345
 20
-149.9860853123873
 30
0.0
 11
-464.9834186657345
 21
-149.9860853123873
 31
0.0
  0
LINE
  5
D81
  8
NOTE
  6
CONTINUOUS
 10
-464.9834186657345
 20
-149.9860853123873
 30
0.0
 11
-274.9834186657345
 21
400.0139146876127
 31
0.0
  0
LINE
  5
D82
  8
NOTE
  6
CONTINUOUS
 10
-274.9834186657345
 20
400.0139146876127
 30
0.0
 11
-275.1249408883297
 21
398.018928106076
 31
0.0
  0
LINE
  5
D83
  8
NOTE
  6
CONTINUOUS
 10
-274.9834186657345
 20
400.0139146876127
 30
0.0
 11
-276.1034738206129
 21
398.3569667554102
 31
0.0
  0
TEXT
  5
D84
  8
NOTE
  6
CONTINUOUS
 10
-682.4834186657345
 20
-148.9860853123873
 30
0.0
 40
39.99999999999999
  1
CL φ32
 50
0.0000024148365395
 41
0.6982758805669589
  7
STANDARD1
  0
LINE
  5
D85
  8
NOTE
  6
CONTINUOUS
 10
-848.6834308727657
 20
-349.9860853123873
 30
0.0
 11
-464.9834186657345
 21
-349.9860853123873
 31
0.0
  0
LINE
  5
D86
  8
NOTE
  6
CONTINUOUS
 10
-464.9834186657345
 20
-349.9860853123873
 30
0.0
 11
-179.9834186657345
 21
400.0139146876127
 31
0.0
  0
LINE
  5
D87
  8
NOTE
  6
CONTINUOUS
 10
-179.9834186657345
 20
400.0139146876127
 30
0.0
 11
-180.1857670817137
 21
398.0241772379599
 31
0.0
  0
LINE
  5
D88
  8
NOTE
  6
CONTINUOUS
 10
-179.9834186657345
 20
400.0139146876127
 30
0.0
 11
-181.1535262828476
 21
398.3919257343908
 31
0.0
  0
TEXT
  5
D89
  8
NOTE
  6
CONTINUOUS
 10
-848.6834308727657
 20
-348.9860853123873
 30
0.0
 40
39.99999999999999
  1
EL φ49×59長円
 50
0.0000025613209388
 41
0.719736855281027
  7
STANDARD1
  0
TEXT
  5
D8A
  8
NOTE
  6
CONTINUOUS
 10
1118.593485631141
 20
1764.169554336051
 30
0.0
 40
40.0
  1
メンテナンススペース
 50
90.00000500895634
 41
0.8125
  7
STANDARD1
  0
TEXT
  5
D8B
  8
NOTE
  6
CONTINUOUS
 10
-189.1377918346797
 20
2330.707518203238
 30
0.0
 40
39.99999999999999
  1
メンテナンススペース
 50
0.0000026998693284
 41
0.8125
  7
STANDARD1
  0
TEXT
  5
D8C
  8
NOTE
  6
CONTINUOUS
 10
-743.3329670055781
 20
2227.276121718863
 30
0.0
 40
39.99999999999999
  1
（別売部品）
 50
0.0000026998693284
 41
0.8125
  7
STANDARD1
  0
LINE
  5
D8D
  8
NOTE
  6
CONTINUOUS
 10
-732.4834186657345
 20
2280.013914687613
 30
0.0
 11
-364.9834186657345
 21
2280.013914687613
 31
0.0
  0
LINE
  5
D8E
  8
NOTE
  6
CONTINUOUS
 10
-364.9834186657345
 20
2280.013914687613
 30
0.0
 11
-19.98341866573446
 21
1875.013914687613
 31
0.0
  0
LINE
  5
D8F
  8
NOTE
  6
CONTINUOUS
 10
-19.98341866573446
 20
1875.013914687613
 30
0.0
 11
-21.63020815990535
 21
1876.148852730806
 31
0.0
  0
LINE
  5
D90
  8
NOTE
  6
CONTINUOUS
 10
-19.98341866573446
 20
1875.013914687613
 30
0.0
 11
-20.84211115445658
 21
1876.820194624337
 31
0.0
  0
TEXT
  5
D91
  8
NOTE
  6
CONTINUOUS
 10
-732.4834186657345
 20
2281.013914687613
 30
0.0
 40
39.99999999999999
  1
上部振れ止め金具
 50
0.0000026998693284
 41
0.8125
  7
STANDARD1
  0
LINE
  5
D92
  8
NOTE
  6
CONTINUOUS
 10
-617.2834064587032
 20
2130.013914687613
 30
0.0
 11
-364.9834186657345
 21
2130.013914687613
 31
0.0
  0
LINE
  5
D93
  8
NOTE
  6
CONTINUOUS
 10
-364.9834186657345
 20
2130.013914687613
 30
0.0
 11
-29.98341866573446
 21
1853.013914687613
 31
0.0
  0
LINE
  5
D94
  8
NOTE
  6
CONTINUOUS
 10
-29.98341866573446
 20
1853.013914687613
 30
0.0
 11
-31.8020916919599
 21
1853.846037529314
 31
0.0
  0
LINE
  5
D95
  8
NOTE
  6
CONTINUOUS
 10
-29.98341866573446
 20
1853.013914687613
 30
0.0
 11
-31.14237426302337
 21
1854.643890737594
 31
0.0
  0
TEXT
  5
D96
  8
NOTE
  6
CONTINUOUS
 10
-617.2834064587032
 20
2131.013914687613
 30
0.0
 40
39.99999999999999
  1
AH 2-M10
 50
0.0000025613209388
 41
0.6473684436396551
  7
STANDARD1
  0
LINE
  5
D97
  8
NOTE
  6
CONTINUOUS
 10
235.0
 20
359.9999999999999
 30
0.0
 11
275.0000000000001
 21
359.9999999999999
 31
0.0
  0
LINE
  5
D98
  8
NOTE
  6
CONTINUOUS
 10
255.0
 20
339.9999999999999
 30
0.0
 11
255.0
 21
379.9999999999999
 31
0.0
  0
LINE
  5
D99
  8
NOTE
  6
CONTINUOUS
 10
-9.999999999999972
 20
1853.0
 30
0.0
 11
-49.99999999999999
 21
1853.0
 31
0.0
  0
LINE
  5
D9A
  8
NOTE
  6
CONTINUOUS
 10
-29.99999999999998
 20
1833.0
 30
0.0
 11
-29.99999999999998
 21
1873.0
 31
0.0
  0
LINE
  5
D9B
  8
NOTE
  6
CONTINUOUS
 10
9.99999999999998
 20
1853.0
 30
0.0
 11
49.99999999999998
 21
1853.0
 31
0.0
  0
LINE
  5
D9C
  8
NOTE
  6
CONTINUOUS
 10
29.99999999999998
 20
1833.0
 30
0.0
 11
29.99999999999998
 21
1873.0
 31
0.0
  0
LINE
  5
D9D
  8
NOTE
  6
CONTINUOUS
 10
268.0000000000001
 20
0.0
 30
0.0
 11
228.0
 21
0.0
 31
0.0
  0
LINE
  5
D9E
  8
NOTE
  6
CONTINUOUS
 10
248.0
 20
-20.0
 30
0.0
 11
248.0
 21
20.0
 31
0.0
  0
LINE
  5
D9F
  8
NOTE
  6
CONTINUOUS
 10
19.99999999999999
 20
0.0
 30
0.0
 11
-20.00000000000001
 21
0.0
 31
0.0
  0
LINE
  5
DA0
  8
NOTE
  6
CONTINUOUS
 10
-227.9999999999998
 20
-0.000000000000028
 30
0.0
 11
-267.9999999999998
 21
-0.000000000000028
 31
0.0
  0
LINE
  5
DA1
  8
NOTE
  6
CONTINUOUS
 10
-247.9999999999998
 20
-20.00000000000003
 30
0.0
 11
-247.9999999999998
 21
19.99999999999997
 31
0.0
  0
LINE
  5
DA2
  8
NOTE
  6
CONTINUOUS
 10
-187.9999999999979
 20
135.0
 30
0.0
 11
-187.9999999999979
 21
175.0
 31
0.0
  0
LINE
  5
DA3
  8
NOTE
  6
CONTINUOUS
 10
-167.9999999999979
 20
155.0
 30
0.0
 11
-207.9999999999979
 21
155.0
 31
0.0
  0
LINE
  5
DA4
  8
NOTE
  6
CONTINUOUS
 10
108.0230854637602
 20
152.5000000000003
 30
0.0
 11
108.0230854637602
 21
192.5000000000003
 31
0.0
  0
LINE
  5
DA5
  8
NOTE
  6
CONTINUOUS
 10
88.02308546376025
 20
172.5000000000003
 30
0.0
 11
128.0230854637602
 21
172.5000000000003
 31
0.0
  0
LINE
  5
DA6
  8
NOTE
  6
CONTINUOUS
 10
-199.0
 20
399.9999999999999
 30
0.0
 11
-159.0
 21
399.9999999999999
 31
0.0
  0
LINE
  5
DA7
  8
NOTE
  6
CONTINUOUS
 10
-180.0
 20
379.9999999999999
 30
0.0
 11
-180.0
 21
419.9999999999999
 31
0.0
  0
LINE
  5
DA8
  8
NOTE
  6
CONTINUOUS
 10
-293.9999999999999
 20
399.9999999999999
 30
0.0
 11
-254.0
 21
399.9999999999999
 31
0.0
  0
LINE
  5
DA9
  8
NOTE
  6
CONTINUOUS
 10
-274.9999999999999
 20
379.9999999999999
 30
0.0
 11
-274.9999999999999
 21
419.9999999999999
 31
0.0
  0
LINE
  5
DAA
  8
NOTE
  6
CONTINUOUS
 10
-250.0
 20
319.9999999999999
 30
0.0
 11
-210.0
 21
319.9999999999999
 31
0.0
  0
LINE
  5
DAB
  8
NOTE
  6
CONTINUOUS
 10
-230.0
 20
299.9999999999999
 30
0.0
 11
-230.0
 21
339.9999999999999
 31
0.0
  0
LINE
  5
DAC
  8
NOTE
  6
CONTINUOUS
 10
50.0
 20
319.9999999999999
 30
0.0
 11
89.99999999999999
 21
319.9999999999999
 31
0.0
  0
LINE
  5
DAD
  8
NOTE
  6
CONTINUOUS
 10
70.0
 20
299.9999999999999
 30
0.0
 11
70.0
 21
339.9999999999999
 31
0.0
  0
CIRCLE
  5
DAE
  8
ARRANGE
  6
CONTINUOUS
 10
0.0
 20
0.0
 30
0.0
 40
15.0
  0
CIRCLE
  5
DAF
  8
FIX
  6
CONTINUOUS
 10
-29.99999999999999
 20
1853.0
 30
0.0
 40
5.0
  0
CIRCLE
  5
DB0
  8
FIX
  6
CONTINUOUS
 10
30.0
 20
1853.0
 30
0.0
 40
5.000000000000004
  0
CIRCLE
  5
DB1
  8
FIX
  6
CONTINUOUS
 10
248.0
 20
0.0
 30
0.0
 40
6.0
  0
CIRCLE
  5
DB2
  8
FIX
  6
CONTINUOUS
 10
0.0
 20
0.0
 30
0.0
 40
6.0
  0
CIRCLE
  5
DB3
  8
FIX
  6
CONTINUOUS
 10
-248.0
 20
0.0
 30
0.0
 40
6.0
  0
CIRCLE
  5
DB4
  8
FIX
  6
CONTINUOUS
 10
248.0000000000002
 20
0.00000000000003
 30
0.0
 40
6.0
  0
LINE
  5
DB5
  8
SERVICESPACE
  6
DASHDOT
 10
-315.0000000000002
 20
1830.0
 30
0.0
 11
-315.0000000000002
 21
2030.0
 31
0.0
  0
LINE
  5
DB6
  8
SERVICESPACE
  6
DASHDOT
 10
-315.0000000000002
 20
1830.0
 30
0.0
 11
315.0000000000001
 21
1830.0
 31
0.0
  0
LINE
  5
DB7
  8
SERVICESPACE
  6
DASHDOT
 10
315.0000000000001
 20
1830.0
 30
0.0
 11
315.0000000000001
 21
2030.0
 31
0.0
  0
LINE
  5
DB8
  8
SERVICESPACE
  6
DASHDOT
 10
-315.0000000000002
 20
2030.0
 30
0.0
 11
315.0000000000001
 21
2030.0
 31
0.0
  0
LINE
  5
DB9
  8
SERVICESPACE
  6
DASHDOT
 10
-315.0000000000002
 20
2030.0
 30
0.0
 11
315.0000000000001
 21
1830.0
 31
0.0
  0
LINE
  5
DBA
  8
SERVICESPACE
  6
DASHDOT
 10
315.0000000000001
 20
2030.0
 30
0.0
 11
-315.0000000000002
 21
1830.0
 31
0.0
  0
TEXT
  5
DBB
  8
ETC
  6
CONTINUOUS
 10
915.2194621936404
 20
2346.019529921988
 30
0.0
 40
39.99999999999999
  1
TTJ37C42
 50
0.0000024148365395
 41
0.615000021457672
  7
STANDARD1
  0
TEXT
  5
DBC
  8
ETC
  6
CONTINUOUS
 10
915.2194621936404
 20
2286.019529921988
 30
0.0
 40
39.99999999999999
  1
電気温水器
 50
0.0000026998693284
 41
0.8125
  7
STANDARD1
  0
ENDSEC
  0
EOF
