  0
SECTION
  2
HEADER
  9
$ACADVER
  1
AC1009
  9
$DWGCODEPAGE
  3
ansi_932
  9
$INSBASE
 10
0.0
 20
0.0
 30
0.0
  9
$EXTMIN
 10
-433.9999619999999
 20
-557.267146
 30
0.0
  9
$EXTMAX
 10
1233.487821231234
 20
488.4685392407003
 30
0.0
  9
$LIMMIN
 10
-2970.0
 20
-2100.0
  9
$LIMMAX
 10
2970.0
 20
2100.0
  9
$ORTHOMODE
 70
     1
  9
$REGENMODE
 70
     0
  9
$FILLMODE
 70
     1
  9
$QTEXTMODE
 70
     0
  9
$MIRRTEXT
 70
     0
  9
$DRAGMODE
 70
     2
  9
$LTSCALE
 40
20.0
  9
$OSMODE
 70
    37
  9
$ATTMODE
 70
     1
  9
$TEXTSIZE
 40
64.0
  9
$TRACEWID
 40
0.05
  9
$TEXTSTYLE
  7
STANDARD
  9
$CLAYER
  8
DETAIL
  9
$CELTYPE
  6
CONTINUOUS
  9
$CECOLOR
 62
     5
  9
$DIMSCALE
 40
1.0
  9
$DIMASZ
 40
2.0
  9
$DIMEXO
 40
20.0
  9
$DIMDLI
 40
200.0
  9
$DIMRND
 40
0.0
  9
$DIMDLE
 40
0.0
  9
$DIMEXE
 40
30.0
  9
$DIMTP
 40
0.0
  9
$DIMTM
 40
0.0
  9
$DIMTXT
 40
64.0
  9
$DIMCEN
 40
0.09
  9
$DIMTSZ
 40
0.0
  9
$DIMTOL
 70
     0
  9
$DIMLIM
 70
     0
  9
$DIMTIH
 70
     0
  9
$DIMTOH
 70
     0
  9
$DIMSE1
 70
     0
  9
$DIMSE2
 70
     0
  9
$DIMTAD
 70
     1
  9
$DIMZIN
 70
     8
  9
$DIMBLK
  1

  9
$DIMASO
 70
     1
  9
$DIMSHO
 70
     0
  9
$DIMPOST
  1

  9
$DIMAPOST
  1

  9
$DIMALT
 70
     0
  9
$DIMALTD
 70
     2
  9
$DIMALTF
 40
25.4
  9
$DIMLFAC
 40
1.0
  9
$DIMTOFL
 70
     1
  9
$DIMTVP
 40
0.0
  9
$DIMTIX
 70
     1
  9
$DIMSOXD
 70
     0
  9
$DIMSAH
 70
     0
  9
$DIMBLK1
  1

  9
$DIMBLK2
  1

  9
$DIMSTYLE
  2
STANDARD
  9
$DIMCLRD
 70
     0
  9
$DIMCLRE
 70
     0
  9
$DIMCLRT
 70
     0
  9
$DIMTFAC
 40
1.0
  9
$DIMGAP
 40
0.09
  9
$LUNITS
 70
     2
  9
$LUPREC
 70
     4
  9
$SKETCHINC
 40
0.1
  9
$FILLETRAD
 40
5.0
  9
$AUNITS
 70
     1
  9
$AUPREC
 70
     3
  9
$MENU
  1
ACAD
  9
$ELEVATION
 40
0.0
  9
$PELEVATION
 40
0.0
  9
$THICKNESS
 40
0.0
  9
$LIMCHECK
 70
     1
  9
$CHAMFERA
 40
0.0
  9
$CHAMFERB
 40
0.0
  9
$SKPOLY
 70
     0
  9
$TDCREATE
 40
2451815.654965266
  9
$TDUPDATE
 40
2457485.550143935
  9
$TDINDWG
 40
0.1210883218
  9
$TDUSRTIMER
 40
0.121087963
  9
$USRTIMER
 70
     1
  9
$ANGBASE
 50
0.0
  9
$ANGDIR
 70
     0
  9
$PDMODE
 70
     3
  9
$PDSIZE
 40
-2.0
  9
$PLINEWID
 40
0.0
  9
$COORDS
 70
     1
  9
$SPLFRAME
 70
     0
  9
$SPLINETYPE
 70
     6
  9
$SPLINESEGS
 70
     8
  9
$ATTDIA
 70
     0
  9
$ATTREQ
 70
     1
  9
$HANDLING
 70
     1
  9
$HANDSEED
  5
5C9
  9
$SURFTAB1
 70
     6
  9
$SURFTAB2
 70
     6
  9
$SURFTYPE
 70
     6
  9
$SURFU
 70
     6
  9
$SURFV
 70
     6
  9
$UCSNAME
  2

  9
$UCSORG
 10
0.0
 20
0.0
 30
0.0
  9
$UCSXDIR
 10
1.0
 20
0.0
 30
0.0
  9
$UCSYDIR
 10
0.0
 20
1.0
 30
0.0
  9
$PUCSNAME
  2

  9
$PUCSORG
 10
0.0
 20
0.0
 30
0.0
  9
$PUCSXDIR
 10
1.0
 20
0.0
 30
0.0
  9
$PUCSYDIR
 10
0.0
 20
1.0
 30
0.0
  9
$USERI1
 70
     0
  9
$USERI2
 70
     0
  9
$USERI3
 70
     0
  9
$USERI4
 70
     0
  9
$USERI5
 70
     0
  9
$USERR1
 40
20.0
  9
$USERR2
 40
0.0
  9
$USERR3
 40
0.0
  9
$USERR4
 40
0.0
  9
$USERR5
 40
0.0
  9
$WORLDVIEW
 70
     1
  9
$SHADEDGE
 70
     3
  9
$SHADEDIF
 70
    70
  9
$TILEMODE
 70
     1
  9
$MAXACTVP
 70
    64
  9
$PLIMCHECK
 70
     0
  9
$PEXTMIN
 10
1.000000000000000E+20
 20
1.000000000000000E+20
 30
1.000000000000000E+20
  9
$PEXTMAX
 10
-1.000000000000000E+20
 20
-1.000000000000000E+20
 30
-1.000000000000000E+20
  9
$PLIMMIN
 10
0.0
 20
0.0
  9
$PLIMMAX
 10
12.0
 20
9.0
  9
$UNITMODE
 70
     0
  9
$VISRETAIN
 70
     1
  9
$PLINEGEN
 70
     0
  9
$PSLTSCALE
 70
     1
  0
ENDSEC
  0
SECTION
  2
TABLES
  0
TABLE
  2
VPORT
 70
     1
  0
VPORT
  2
*ACTIVE
 70
     0
 10
0.0
 20
0.0
 11
1.0
 21
1.0
 12
399.7312599741353
 22
-32.64687863313156
 13
0.0
 23
0.0
 14
400.0
 24
400.0
 15
400.0
 25
400.0
 16
0.0
 26
0.0
 36
1.0
 17
0.0
 27
0.0
 37
0.0
 40
1515.714513257258
 41
1.669724770642201
 42
50.0
 43
0.0
 44
0.0
 50
0.0
 51
0.0
 71
     0
 72
   500
 73
     1
 74
     0
 75
     0
 76
     0
 77
     0
 78
     0
  0
ENDTAB
  0
TABLE
  2
LTYPE
 70
     7
  0
LTYPE
  2
CONTINUOUS
 70
     0
  3
実線
 72
    65
 73
     0
 40
0.0
  0
LTYPE
  2
DOT
 70
     0
  3
...............................................
 72
    65
 73
     2
 40
0.8
 49
0.5
 49
-0.3
  0
LTYPE
  2
DASHED
 70
     0
  3
_ _ _ _ _ _ _ _ _ _ _ _ _ _ _ _ _ _ _ _ _ _ _
 72
    65
 73
     2
 40
1.999999999999999
 49
1.199999999999999
 49
-0.8
  0
LTYPE
  2
DASHDOT
 70
     0
  3
____ _ ____ _ ____ _ ____ _ ____ _ ____ _ ____
 72
    65
 73
     4
 40
5.5
 49
4.0
 49
-0.6
 49
0.3
 49
-0.6
  0
LTYPE
  2
DASHDOT1
 70
     0
  3
____ _ ____ _ ____ _ ____ _ ____ _ ____ _ ____
 72
    65
 73
     4
 40
2.0
 49
1.5
 49
-0.2
 49
0.1
 49
-0.2
  0
LTYPE
  2
DIVIDE
 70
     0
  3
_____ _ _ _____ _ _ _____ _ _ _____ _ _ ____
 72
    65
 73
     6
 40
6.4
 49
4.0
 49
-0.6
 49
0.3
 49
-0.6
 49
0.3
 49
-0.6
  0
LTYPE
  2
DIVIDE1
 70
     0
  3
_____ _ _ _____ _ _ _____ _ _ _____ _ _ ____
 72
    65
 73
     6
 40
3.2
 49
2.0
 49
-0.3
 49
0.15
 49
-0.3
 49
0.15
 49
-0.3
  0
ENDTAB
  0
TABLE
  2
LAYER
 70
    12
  0
LAYER
  2
0
 70
     0
 62
     7
  6
CONTINUOUS
  0
LAYER
  2
OUTLINE
 70
     0
 62
     3
  6
CONTINUOUS
  0
LAYER
  2
NOTE
 70
     0
 62
     4
  6
CONTINUOUS
  0
LAYER
  2
DETAIL
 70
     0
 62
     5
  6
CONTINUOUS
  0
LAYER
  2
BASIS
 70
     0
 62
     6
  6
DASHDOT
  0
LAYER
  2
SIZE
 70
     0
 62
    30
  6
CONTINUOUS
  0
LAYER
  2
ARRANGE
 70
     0
 62
     1
  6
CONTINUOUS
  0
LAYER
  2
FIX
 70
     0
 62
    11
  6
CONTINUOUS
  0
LAYER
  2
ETC
 70
     0
 62
    61
  6
CONTINUOUS
  0
LAYER
  2
DEFPOINTS
 70
     0
 62
     7
  6
CONTINUOUS
  0
LAYER
  2
SERVICESPACE
 70
     0
 62
     2
  6
DASHDOT
  0
LAYER
  2
SYMBOLLINE
 70
     0
 62
    15
  6
CONTINUOUS
  0
ENDTAB
  0
TABLE
  2
STYLE
 70
     1
  0
STYLE
  2
STANDARD
 70
     0
 40
0.0
 41
0.9
 50
0.0
 71
     0
 42
64.0
  3
SIMPLEX
  4
BIGFONT
  0
ENDTAB
  0
TABLE
  2
VIEW
 70
     1
  0
VIEW
  2
ALL
 70
     0
 40
4508.020851
 10
0.0
 20
41.30990399999999
 41
6252.631578999999
 11
0.0
 21
0.0
 31
1.0
 12
0.0
 22
0.0
 32
0.0
 42
50.0
 43
0.0
 44
0.0
 50
0.0
 71
     0
  0
ENDTAB
  0
TABLE
  2
UCS
 70
     0
  0
ENDTAB
  0
TABLE
  2
APPID
 70
     1
  0
APPID
  2
ACAD
 70
     0
  0
ENDTAB
  0
TABLE
  2
DIMSTYLE
 70
     1
  0
DIMSTYLE
  2
STANDARD
 70
     0
  3

  4

  5

  6

  7

 40
1.0
 41
0.18
 42
0.0625
 43
0.38
 44
0.18
 45
0.0
 46
0.0
 47
0.0
 48
0.0
140
0.18
141
0.09
142
0.0
143
25.4
144
1.0
145
0.0
146
1.0
147
0.09
 71
     0
 72
     0
 73
     1
 74
     1
 75
     0
 76
     0
 77
     0
 78
     0
170
     0
171
     2
172
     0
173
     0
174
     0
175
     0
176
     0
177
     0
178
     0
  0
ENDTAB
  0
ENDSEC
  0
SECTION
  2
BLOCKS
  0
BLOCK
  8
0
  2
$MODEL_SPACE
 70
     0
 10
0.0
 20
0.0
 30
0.0
  3
$MODEL_SPACE
  1

  0
ENDBLK
  5
45A
  8
0
  0
BLOCK
 67
     1
  8
0
  2
$PAPER_SPACE
 70
     0
 10
0.0
 20
0.0
 30
0.0
  3
$PAPER_SPACE
  1

  0
ENDBLK
  5
456
 67
     1
  8
0
  0
ENDSEC
  0
SECTION
  2
ENTITIES
  0
LINE
  5
478
  8
DETAIL
  6
CONTINUOUS
 62
     5
 10
-68.0
 20
0.0
 30
0.0
 11
-68.0
 21
-127.0
 31
0.0
  0
LINE
  5
479
  8
DETAIL
  6
CONTINUOUS
 62
     5
 10
68.0
 20
0.0
 30
0.0
 11
68.0
 21
-32.0
 31
0.0
  0
LINE
  5
47A
  8
DETAIL
  6
DASHED
 62
     5
 10
-30.5
 20
-197.7106779999995
 30
0.0
 11
-30.5
 21
-40.2
 31
0.0
  0
ARC
  5
47B
  8
DETAIL
  6
CONTINUOUS
 62
     5
 10
94.006778
 20
-53.0
 30
0.0
 40
21.2
 50
11.25936700000001
 51
82.12361899999996
  0
ARC
  5
47C
  8
DETAIL
  6
CONTINUOUS
 62
     5
 10
-277.6987509999999
 20
-127.0
 30
0.0
 40
400.1999999999999
 50
348.740633
 51
11.25936700000001
  0
ARC
  5
47D
  8
DETAIL
  6
CONTINUOUS
 62
     5
 10
94.006778
 20
-201.0
 30
0.0
 40
21.2
 50
277.8763809999999
 51
348.740633
  0
LINE
  5
47E
  8
OUTLINE
  6
CONTINUOUS
 62
     5
 10
-30.5
 20
-213.8
 30
0.0
 11
-30.5
 21
-197.7106779999995
 31
0.0
  0
LINE
  5
47F
  8
DETAIL
  6
DASHED
 62
     5
 10
-22.3
 20
-32.0
 30
0.0
 11
69.101249
 21
-32.0
 31
0.0
  0
LINE
  5
480
  8
DETAIL
  6
CONTINUOUS
 62
     5
 10
-22.3
 20
-222.0
 30
0.0
 11
96.911946
 21
-222.0
 31
0.0
  0
ARC
  5
481
  8
DETAIL
  6
CONTINUOUS
 62
     5
 10
-22.3
 20
-213.8
 30
0.0
 40
8.199999999999998
 50
180.0
 51
270.0
  0
ARC
  5
482
  8
DETAIL
  6
DASHED
 62
     5
 10
-22.3
 20
-40.2
 30
0.0
 40
8.199999999999998
 50
90.0
 51
180.0
  0
LINE
  5
483
  8
DETAIL
  6
CONTINUOUS
 62
     5
 10
-68.0
 20
0.0
 30
0.0
 11
68.0
 21
0.0
 31
0.0
  0
CIRCLE
  5
484
  8
FIX
  6
CONTINUOUS
 62
    11
 10
-50.0
 20
0.0
 30
0.0
 40
6.0
  0
CIRCLE
  5
485
  8
FIX
  6
CONTINUOUS
 62
    11
 10
50.0
 20
0.0
 30
0.0
 40
6.0
  0
LINE
  5
486
  8
BASIS
  6
DASHDOT
 62
     6
 10
0.0
 20
22.87882200000001
 30
0.0
 11
0.0
 21
-262.728737
 31
0.0
  0
LINE
  5
487
  8
BASIS
  6
DASHDOT
 62
     6
 10
-116.7095759999999
 20
-126.0
 30
0.0
 11
168.8364829999999
 21
-126.0
 31
0.0
  0
TEXT
  5
488
  8
NOTE
  6
CONTINUOUS
 62
     4
 10
161.1908459999999
 20
38.708048
 30
0.0
 40
64.0
  1
端子カバー
 41
0.9
  0
LINE
  5
489
  8
NOTE
  6
CONTINUOUS
 62
     4
 10
149.165454
 20
16.328843
 30
0.0
 11
508.46191
 21
16.328843
 31
0.0
  0
LINE
  5
48A
  8
NOTE
  6
CONTINUOUS
 62
     4
 10
-433.4999619999999
 20
117.015899
 30
0.0
 11
-169.643868
 21
117.015899
 31
0.0
  0
TEXT
  5
48B
  8
NOTE
  6
CONTINUOUS
 62
     4
 10
-418.799638
 20
145.6148059999998
 30
0.0
 40
64.0
  1
AH-4
 41
0.9
  0
LINE
  5
48C
  8
DETAIL
  6
CONTINUOUS
 62
     5
 10
-68.0
 20
-7.0
 30
0.0
 11
-56.0
 21
-7.0
 31
0.0
  0
LINE
  5
48D
  8
SIZE
  6
CONTINUOUS
 62
    30
 10
-165.2695659999999
 20
-7.0
 30
0.0
 11
-165.2695659999999
 21
77.847026
 31
0.0
  0
LINE
  5
48E
  8
SIZE
  6
CONTINUOUS
 62
    30
 10
52.0
 20
128.141309
 30
0.0
 11
244.6397149999999
 21
128.141309
 31
0.0
  0
LINE
  5
48F
  8
SIZE
  6
CONTINUOUS
 62
    30
 10
347.3881999999999
 20
-189.0
 30
0.0
 11
347.3881999999999
 21
-379.0999069999999
 31
0.0
  0
ARC
  5
490
  8
OUTLINE
  6
CONTINUOUS
 62
     3
 10
-22.3
 20
-213.8
 30
0.0
 40
8.199999999999998
 50
180.0
 51
270.0
  0
LINE
  5
491
  8
OUTLINE
  6
CONTINUOUS
 62
     3
 10
-22.3
 20
-222.0
 30
0.0
 11
96.911946
 21
-222.0
 31
0.0
  0
ARC
  5
492
  8
OUTLINE
  6
CONTINUOUS
 62
     3
 10
94.006778
 20
-201.0
 30
0.0
 40
21.2
 50
277.8763809999999
 51
348.740633
  0
ARC
  5
493
  8
OUTLINE
  6
CONTINUOUS
 62
     3
 10
-277.6987509999999
 20
-127.0
 30
0.0
 40
400.1999999999999
 50
348.740633
 51
11.25936700000001
  0
ARC
  5
494
  8
OUTLINE
  6
CONTINUOUS
 62
     3
 10
94.006778
 20
-53.0
 30
0.0
 40
21.2
 50
11.25936700000001
 51
82.12361899999996
  0
LINE
  5
495
  8
SIZE
  6
BYBLOCK
 62
    30
 10
-87.99999999999999
 20
0.0
 30
0.0
 11
-195.2695659999999
 21
0.0
 31
0.0
  0
LINE
  5
496
  8
SIZE
  6
BYBLOCK
 62
    30
 10
-87.99999999999999
 20
-7.0
 30
0.0
 11
-195.2695659999999
 21
-7.0
 31
0.0
  0
LINE
  5
497
  8
SIZE
  6
BYBLOCK
 62
    30
 10
-165.2695659999999
 20
-9.0
 30
0.0
 11
-165.2695659999999
 21
-11.0
 31
0.0
  0
LINE
  5
498
  8
SIZE
  6
BYBLOCK
 62
    30
 10
-165.2695659999999
 20
2.0
 30
0.0
 11
-165.2695659999999
 21
4.0
 31
0.0
  0
LINE
  5
499
  8
SIZE
  6
BYBLOCK
 62
    30
 10
-165.2695659999999
 20
-7.0
 30
0.0
 11
-165.2695659999999
 21
0.0
 31
0.0
  0
TEXT
  5
49A
  8
SIZE
  6
BYBLOCK
 62
    30
 10
-197.269566
 20
33.430696
 30
0.0
 40
64.0
  1
7
 50
90.0
 41
0.9
  0
LINE
  5
49B
  8
SIZE
  6
BYBLOCK
 62
    30
 10
136.9999999999995
 20
-92.0
 30
0.0
 11
377.3882
 21
-92.0
 31
0.0
  0
LINE
  5
49C
  8
SIZE
  6
BYBLOCK
 62
    30
 10
136.9999999999995
 20
-191.0
 30
0.0
 11
377.3882
 21
-191.0
 31
0.0
  0
LINE
  5
49D
  8
SIZE
  6
BYBLOCK
 62
    30
 10
347.3881999999999
 20
-94.0
 30
0.0
 11
347.3881999999999
 21
-141.5
 31
0.0
  0
LINE
  5
49E
  8
SIZE
  6
BYBLOCK
 62
    30
 10
347.3881999999999
 20
-189.0
 30
0.0
 11
347.3881999999999
 21
-141.5
 31
0.0
  0
TEXT
  5
49F
  8
SIZE
  6
BYBLOCK
 62
    30
 10
315.3881999999999
 20
-365.7971999999999
 30
0.0
 40
64.0
  1
99
 50
90.0
 41
0.9
  0
LINE
  5
4A0
  8
SIZE
  6
BYBLOCK
 62
    30
 10
-87.99999999999999
 20
0.0
 30
0.0
 11
-311.32432
 21
0.0
 31
0.0
  0
LINE
  5
4A1
  8
SIZE
  6
BYBLOCK
 62
    30
 10
-42.3
 20
-222.0
 30
0.0
 11
-311.32432
 21
-222.0
 31
0.0
  0
LINE
  5
4A2
  8
SIZE
  6
BYBLOCK
 62
    30
 10
-281.3243199999999
 20
-1.0
 30
0.0
 11
-281.3243199999999
 21
-110.4999999999999
 31
0.0
  0
LINE
  5
4A3
  8
SIZE
  6
BYBLOCK
 62
    30
 10
-281.3243199999999
 20
-220.0
 30
0.0
 11
-281.3243199999999
 21
-110.4999999999999
 31
0.0
  0
TEXT
  5
4A4
  8
SIZE
  6
BYBLOCK
 62
    30
 10
-313.32432
 20
-184.5571429999999
 30
0.0
 40
64.0
  1
222
 50
90.0
 41
0.9
  0
LINE
  5
4A5
  8
SIZE
  6
BYBLOCK
 62
    30
 10
68.0
 20
21.0
 30
0.0
 11
68.0
 21
258.425293
 31
0.0
  0
LINE
  5
4A6
  8
SIZE
  6
BYBLOCK
 62
    30
 10
-68.0
 20
21.0
 30
0.0
 11
-68.0
 21
258.425293
 31
0.0
  0
LINE
  5
4A7
  8
SIZE
  6
BYBLOCK
 62
    30
 10
-70.0
 20
228.425293
 30
0.0
 11
-72.0
 21
228.425293
 31
0.0
  0
LINE
  5
4A8
  8
SIZE
  6
BYBLOCK
 62
    30
 10
70.0
 20
228.425293
 30
0.0
 11
72.0
 21
228.425293
 31
0.0
  0
LINE
  5
4A9
  8
SIZE
  6
BYBLOCK
 62
    30
 10
-68.0
 20
228.425293
 30
0.0
 11
69.0
 21
228.425293
 31
0.0
  0
TEXT
  5
4AA
  8
SIZE
  6
BYBLOCK
 62
    30
 10
-68.07142900000001
 20
260.425293
 30
0.0
 40
64.0
  1
136
 41
0.9
  0
LINE
  5
4AB
  8
SIZE
  6
BYBLOCK
 62
    30
 10
122.5
 20
-146.0
 30
0.0
 11
122.5
 21
-410.232993
 31
0.0
  0
LINE
  5
4AC
  8
SIZE
  6
BYBLOCK
 62
    30
 10
-30.5
 20
-233.8
 30
0.0
 11
-30.5
 21
-410.232993
 31
0.0
  0
LINE
  5
4AD
  8
SIZE
  6
BYBLOCK
 62
    30
 10
120.5
 20
-380.232993
 30
0.0
 11
-28.5
 21
-380.232993
 31
0.0
  0
TEXT
  5
4AE
  8
SIZE
  6
BYBLOCK
 62
    30
 10
-22.571429
 20
-348.232993
 30
0.0
 40
64.0
  1
153
 41
0.9
  0
LINE
  5
4AF
  8
SIZE
  6
BYBLOCK
 62
    30
 10
122.5
 20
-146.0
 30
0.0
 11
122.5
 21
-556.267146
 31
0.0
  0
LINE
  5
4B0
  8
SIZE
  6
BYBLOCK
 62
    30
 10
-74.5
 20
-146.0
 30
0.0
 11
-74.5
 21
-556.267146
 31
0.0
  0
LINE
  5
4B1
  8
SIZE
  6
BYBLOCK
 62
    30
 10
120.5
 20
-526.267146
 30
0.0
 11
24.0
 21
-526.267146
 31
0.0
  0
LINE
  5
4B2
  8
SIZE
  6
BYBLOCK
 62
    30
 10
-72.5
 20
-526.267146
 30
0.0
 11
24.0
 21
-526.267146
 31
0.0
  0
TEXT
  5
4B3
  8
SIZE
  6
BYBLOCK
 62
    30
 10
-44.57142899999998
 20
-494.2671459999999
 30
0.0
 40
64.0
  1
197
 41
0.9
  0
LINE
  5
4B4
  8
SIZE
  6
BYBLOCK
 62
    30
 10
116.9119459999999
 20
-32.0
 30
0.0
 11
519.664112
 21
-32.0
 31
0.0
  0
LINE
  5
4B5
  8
SIZE
  6
BYBLOCK
 62
    30
 10
116.9119459999999
 20
-222.0
 30
0.0
 11
519.664112
 21
-222.0
 31
0.0
  0
LINE
  5
4B6
  8
SIZE
  6
BYBLOCK
 62
    30
 10
489.664112
 20
-34.0
 30
0.0
 11
489.664112
 21
-127.0
 31
0.0
  0
LINE
  5
4B7
  8
SIZE
  6
BYBLOCK
 62
    30
 10
489.664112
 20
-220.0
 30
0.0
 11
489.664112
 21
-127.0
 31
0.0
  0
TEXT
  5
4B8
  8
SIZE
  6
BYBLOCK
 62
    30
 10
457.6641119999999
 20
-195.571429
 30
0.0
 40
64.0
  1
190
 50
90.0
 41
0.9
  0
LINE
  5
4B9
  8
SIZE
  6
BYBLOCK
 62
    30
 10
50.0
 20
39.84999999999996
 30
0.0
 11
50.0
 21
158.141309
 31
0.0
  0
LINE
  5
4BA
  8
SIZE
  6
BYBLOCK
 62
    30
 10
-50.0
 20
39.84999999999996
 30
0.0
 11
-50.0
 21
158.141309
 31
0.0
  0
LINE
  5
4BB
  8
SIZE
  6
BYBLOCK
 62
    30
 10
-52.0
 20
128.141309
 30
0.0
 11
-54.0
 21
128.141309
 31
0.0
  0
LINE
  5
4BC
  8
SIZE
  6
BYBLOCK
 62
    30
 10
52.0
 20
128.141309
 30
0.0
 11
54.0
 21
128.141309
 31
0.0
  0
LINE
  5
4BD
  8
SIZE
  6
BYBLOCK
 62
    30
 10
-50.0
 20
128.141309
 30
0.0
 11
50.0
 21
128.141309
 31
0.0
  0
TEXT
  5
4BE
  8
SIZE
  6
BYBLOCK
 62
    30
 10
95.232037
 20
160.141309
 30
0.0
 40
64.0
  1
100
 41
0.9
  0
CIRCLE
  5
4BF
  8
SIZE
  6
CONTINUOUS
 62
    30
 10
50.0
 20
128.141309
 30
0.0
 40
6.0
  0
CIRCLE
  5
4C0
  8
SIZE
  6
CONTINUOUS
 62
    30
 10
-50.0
 20
128.141309
 30
0.0
 40
6.0
  0
CIRCLE
  5
4C1
  8
SIZE
  6
CONTINUOUS
 62
    30
 10
489.664112
 20
-222.0
 30
0.0
 40
6.0
  0
CIRCLE
  5
4C2
  8
SIZE
  6
CONTINUOUS
 62
    30
 10
489.664112
 20
-32.0
 30
0.0
 40
6.0
  0
CIRCLE
  5
4C3
  8
SIZE
  6
CONTINUOUS
 62
    30
 10
-74.5
 20
-526.267146
 30
0.0
 40
6.0
  0
CIRCLE
  5
4C4
  8
SIZE
  6
CONTINUOUS
 62
    30
 10
122.5
 20
-526.267146
 30
0.0
 40
6.0
  0
CIRCLE
  5
4C5
  8
SIZE
  6
CONTINUOUS
 62
    30
 10
-30.5
 20
-380.232993
 30
0.0
 40
6.0
  0
CIRCLE
  5
4C6
  8
SIZE
  6
CONTINUOUS
 62
    30
 10
122.5
 20
-380.232993
 30
0.0
 40
6.0
  0
CIRCLE
  5
4C7
  8
SIZE
  6
CONTINUOUS
 62
    30
 10
68.0
 20
228.425293
 30
0.0
 40
6.0
  0
CIRCLE
  5
4C8
  8
SIZE
  6
CONTINUOUS
 62
    30
 10
-68.0
 20
228.425293
 30
0.0
 40
6.0
  0
CIRCLE
  5
4C9
  8
SIZE
  6
CONTINUOUS
 62
    30
 10
-281.3243199999999
 20
-222.0
 30
0.0
 40
6.0
  0
CIRCLE
  5
4CA
  8
SIZE
  6
CONTINUOUS
 62
    30
 10
-281.3243199999999
 20
0.0
 30
0.0
 40
6.0
  0
CIRCLE
  5
4CB
  8
SIZE
  6
CONTINUOUS
 62
    30
 10
347.3881999999999
 20
-191.0
 30
0.0
 40
6.0
  0
CIRCLE
  5
4CC
  8
SIZE
  6
CONTINUOUS
 62
    30
 10
347.3881999999999
 20
-92.0
 30
0.0
 40
6.0
  0
CIRCLE
  5
4CD
  8
SIZE
  6
CONTINUOUS
 62
    30
 10
-165.2695659999999
 20
0.0
 30
0.0
 40
6.0
  0
CIRCLE
  5
4CE
  8
SIZE
  6
CONTINUOUS
 62
    30
 10
-165.2695659999999
 20
-7.0
 30
0.0
 40
6.0
  0
LINE
  5
4CF
  8
NOTE
  6
CONTINUOUS
 62
     4
 10
50.0
 20
-20.0
 30
0.0
 11
50.0
 21
20.0
 31
0.0
  0
LINE
  5
4D0
  8
NOTE
  6
CONTINUOUS
 62
     4
 10
30.0
 20
0.0
 30
0.0
 11
70.0
 21
0.0
 31
0.0
  0
LINE
  5
4D1
  8
NOTE
  6
CONTINUOUS
 62
     4
 10
-50.0
 20
-20.0
 30
0.0
 11
-50.0
 21
20.0
 31
0.0
  0
LINE
  5
4D2
  8
NOTE
  6
CONTINUOUS
 62
     4
 10
-70.0
 20
0.0
 30
0.0
 11
-30.0
 21
0.0
 31
0.0
  0
TEXT
  5
4D3
  8
ETC
  6
CONTINUOUS
 62
    61
 10
582.3258142383525
 20
425.4685392407003
 30
0.0
 40
64.0
  1
AH-1006SA_5
 41
0.9
  0
TEXT
  5
4D4
  8
ETC
  6
CONTINUOUS
 62
    61
 10
577.3968742383528
 20
324.2704292407003
 30
0.0
 40
64.0
  1
産業扇
 41
0.9
  0
TEXT
  5
4D5
  8
ETC
  6
CONTINUOUS
 62
    61
 10
702.5592498026632
 20
247.9365619298581
 30
0.0
 40
50.0
  1
AH-1006SA
 41
0.9
  0
TEXT
  5
4D6
  8
ETC
  6
CONTINUOUS
 62
    61
 10
702.5592498026632
 20
179.7131776716345
 30
0.0
 40
50.0
  1
AH-1006SA-G
 41
0.9
  0
TEXT
  5
4D7
  8
ETC
  6
CONTINUOUS
 62
    61
 10
702.5592498026632
 20
108.6471517815374
 30
0.0
 40
50.0
  1
AH-1006WA
 41
0.9
  0
TEXT
  5
4D8
  8
ETC
  6
CONTINUOUS
 62
    61
 10
702.5592498026632
 20
31.89584262769255
 30
0.0
 40
50.0
  1
AH-1006WA-G
 41
0.9
  0
TEXT
  5
4D9
  8
ETC
  6
CONTINUOUS
 62
    61
 10
702.5592498026632
 20
-47.69810815802576
 30
0.0
 40
50.0
  1
AH-1006TCA
 41
0.9
  0
TEXT
  5
4DA
  8
ETC
  6
CONTINUOUS
 62
    61
 10
702.5592498026632
 20
-121.6067756799972
 30
0.0
 40
50.0
  1
AH-1006TCA-G
 41
0.9
  0
ARC
  5
4DB
  8
DETAIL
  6
CONTINUOUS
 62
     5
 10
0.0
 20
-126.0
 30
0.0
 40
68.0
 50
180.0
 51
31.46697629326756
  0
LINE
  5
4DC
  8
DETAIL
  6
CONTINUOUS
 62
     5
 10
58.0
 20
-44.75176065070116
 30
0.0
 11
58.0
 21
-90.50352130140232
 31
0.0
  0
LINE
  5
4DD
  8
DETAIL
  6
CONTINUOUS
 62
     5
 10
68.0
 20
-32.0
 30
0.0
 11
58.0
 21
-44.75176065070116
 31
0.0
  0
LINE
  5
4DE
  8
DETAIL
  6
CONTINUOUS
 62
     5
 10
68.0
 20
-126.0
 30
0.0
 11
68.0
 21
-127.0
 31
0.0
  0
CIRCLE
  5
4DF
  8
ARRANGE
  6
CONTINUOUS
 62
     1
 10
0.0
 20
0.0
 30
0.0
 40
40.0
  0
LINE
  5
4E0
  8
ARRANGE
  6
CONTINUOUS
 62
     1
 10
-14.14213562373098
 20
-14.14213562373091
 30
0.0
 11
14.14213562373093
 21
14.14213562373093
 31
0.0
  0
LINE
  5
4E1
  8
ARRANGE
  6
CONTINUOUS
 62
     1
 10
14.14213562373093
 20
-14.14213562373096
 30
0.0
 11
-14.14213562373092
 21
14.14213562373096
 31
0.0
  0
LINE
  5
4E2
  8
OUTLINE
  6
CONTINUOUS
 62
     3
 10
68.0
 20
0.0
 30
0.0
 11
68.0
 21
-32.0
 31
0.0
  0
LINE
  5
4E3
  8
OUTLINE
  6
CONTINUOUS
 62
     3
 10
68.0
 20
-32.0
 30
0.0
 11
58.0
 21
-44.75176065070116
 31
0.0
  0
LINE
  5
4E4
  8
OUTLINE
  6
CONTINUOUS
 62
     3
 10
58.0
 20
-44.75176065070116
 30
0.0
 11
58.0
 21
-90.50352130140229
 31
0.0
  0
LINE
  5
4E5
  8
OUTLINE
  6
CONTINUOUS
 62
     3
 10
-68.0
 20
0.0
 30
0.0
 11
-68.0
 21
-125.9999999999999
 31
0.0
  0
LINE
  5
4E6
  8
OUTLINE
  6
CONTINUOUS
 62
     3
 10
-30.5
 20
-186.7762289057161
 30
0.0
 11
-30.5
 21
-213.8
 31
0.0
  0
ARC
  5
4E7
  8
OUTLINE
  6
CONTINUOUS
 62
     3
 10
0.0
 20
-126.0
 30
0.0
 40
68.0
 50
180.0
 51
31.46697629326756
  0
LINE
  5
4E8
  8
NOTE
  6
CONTINUOUS
 62
     4
 10
-169.643868
 20
117.015899
 30
0.0
 11
-50.0
 21
0.0
 31
0.0
  0
LINE
  5
4E9
  8
DETAIL
  6
CONTINUOUS
 62
     5
 10
69.0
 20
-92.0
 30
0.0
 11
69.0
 21
-191.0
 31
0.0
  0
LINE
  5
4EA
  8
DETAIL
  6
CONTINUOUS
 62
     5
 10
113.0
 20
-92.0
 30
0.0
 11
113.0
 21
-191.0
 31
0.0
  0
LINE
  5
4EB
  8
NOTE
  6
CONTINUOUS
 62
     4
 10
149.165454
 20
16.328843
 30
0.0
 11
93.6846706929197
 21
-87.0
 31
0.0
  0
LINE
  5
4EC
  8
NOTE
  6
CONTINUOUS
 62
     4
 10
-69.661179
 20
34.834438
 30
0.0
 11
-50.0
 21
0.0
 31
0.0
  0
LINE
  5
4ED
  8
NOTE
  6
CONTINUOUS
 62
     4
 10
-50.0
 20
0.0
 30
0.0
 11
-84.444299
 21
20.336919
 31
0.0
  0
LINE
  5
4EE
  8
NOTE
  6
CONTINUOUS
 62
     4
 10
101.5850798242989
 20
-51.95865573681613
 30
0.0
 11
93.6846706929197
 21
-87.0
 31
0.0
  0
LINE
  5
4EF
  8
NOTE
  6
CONTINUOUS
 62
     4
 10
93.6846706929197
 20
-87.0
 30
0.0
 11
119.6425663581675
 21
-60.28675824871061
 31
0.0
  0
LINE
  5
4F0
  8
DETAIL
  6
CONTINUOUS
 62
     5
 10
68.0
 20
-32.0
 30
0.0
 11
96.91194580743793
 21
-31.999999999747
 31
0.0
  0
LINE
  5
4F1
  8
OUTLINE
  6
CONTINUOUS
 62
     3
 10
68.0
 20
-32.0
 30
0.0
 11
96.91194580743793
 21
-31.999999999747
 31
0.0
  0
LINE
  5
4F2
  8
DETAIL
  6
CONTINUOUS
 62
     5
 10
69.0
 20
-191.0
 30
0.0
 11
113.0
 21
-191.0
 31
0.0
  0
LINE
  5
4F3
  8
DETAIL
  6
CONTINUOUS
 62
     5
 10
69.0
 20
-92.0
 30
0.0
 11
113.0
 21
-92.0
 31
0.0
  0
LINE
  5
4F4
  8
DETAIL
  6
CONTINUOUS
 62
     5
 10
-56.0
 20
-2.3
 30
0.0
 11
-44.0
 21
-2.3
 31
0.0
  0
LINE
  5
4F5
  8
DETAIL
  6
CONTINUOUS
 62
     5
 10
-32.0
 20
0.0
 30
0.0
 11
-32.0
 21
-7.0
 31
0.0
  0
LINE
  5
4F6
  8
DETAIL
  6
CONTINUOUS
 62
     5
 10
32.0
 20
0.0
 30
0.0
 11
32.0
 21
-7.0
 31
0.0
  0
LINE
  5
4F7
  8
DETAIL
  6
CONTINUOUS
 62
     5
 10
32.0
 20
-7.0
 30
0.0
 11
44.0
 21
-7.0
 31
0.0
  0
LINE
  5
4F8
  8
OUTLINE
  6
CONTINUOUS
 62
     3
 10
-68.0
 20
0.0
 30
0.0
 11
68.0
 21
0.0
 31
0.0
  0
LINE
  5
4FE
  8
DETAIL
  6
CONTINUOUS
 62
     5
 10
56.0
 20
0.0
 30
0.0
 11
56.0
 21
-7.0
 31
0.0
  0
LINE
  5
4FF
  8
DETAIL
  6
CONTINUOUS
 62
     5
 10
44.0
 20
0.0
 30
0.0
 11
44.0
 21
-7.0
 31
0.0
  0
LINE
  5
500
  8
DETAIL
  6
CONTINUOUS
 62
     5
 10
-44.0
 20
0.0
 30
0.0
 11
-44.0
 21
-7.0
 31
0.0
  0
LINE
  5
501
  8
DETAIL
  6
CONTINUOUS
 62
     5
 10
-56.0
 20
0.0
 30
0.0
 11
-56.0
 21
-7.0
 31
0.0
  0
LINE
  5
502
  8
DETAIL
  6
CONTINUOUS
 62
     5
 10
-44.0
 20
-7.0
 30
0.0
 11
-32.0
 21
-7.0
 31
0.0
  0
LINE
  5
503
  8
DETAIL
  6
CONTINUOUS
 62
     5
 10
-32.0
 20
-2.3
 30
0.0
 11
32.0
 21
-2.299999999999999
 31
0.0
  0
LINE
  5
504
  8
DETAIL
  6
CONTINUOUS
 62
     5
 10
56.0
 20
-7.0
 30
0.0
 11
68.0
 21
-7.0
 31
0.0
  0
LINE
  5
505
  8
DETAIL
  6
CONTINUOUS
 62
     5
 10
44.0
 20
-2.299999999999999
 30
0.0
 11
56.0
 21
-2.299999999999999
 31
0.0
  0
ENDSEC
  0
EOF
