  0
SECTION
  2
HEADER
  9
$ACADVER
  1
AC1009
  9
$DWGCODEPAGE
  3
dos932
  9
$INSBASE
 10
0.0
 20
0.0
 30
0.0
  9
$EXTMIN
 10
-803.95201001543683
 20
-413.68101853141712
 30
-0.0000000349181948
  9
$EXTMAX
 10
1031.90461362468
 20
566.52832830619082
 30
0.0000000814935746
  9
$LIMMIN
 10
-2970.0
 20
-2100.0
  9
$LIMMAX
 10
2970.0
 20
2100.0
  9
$ORTHOMODE
 70
     1
  9
$REGENMODE
 70
     1
  9
$FILLMODE
 70
     1
  9
$QTEXTMODE
 70
     0
  9
$MIRRTEXT
 70
     0
  9
$LTSCALE
 40
20.0
  9
$ATTMODE
 70
     1
  9
$TEXTSIZE
 40
64.0
  9
$TRACEWID
 40
0.05
  9
$TEXTSTYLE
  7
STANDARD
  9
$CLAYER
  8
SIZE
  9
$CELTYPE
  6
CONTINUOUS
  9
$CECOLOR
 62
     7
  9
$DIMSCALE
 40
1.0
  9
$DIMASZ
 40
12.0
  9
$DIMEXO
 40
20.0
  9
$DIMDLI
 40
200.0
  9
$DIMRND
 40
0.0
  9
$DIMDLE
 40
0.0
  9
$DIMEXE
 40
20.0
  9
$DIMTP
 40
0.0
  9
$DIMTM
 40
0.0
  9
$DIMTXT
 40
64.0
  9
$DIMCEN
 40
0.09
  9
$DIMTSZ
 40
0.0
  9
$DIMTOL
 70
     0
  9
$DIMLIM
 70
     0
  9
$DIMTIH
 70
     0
  9
$DIMTOH
 70
     0
  9
$DIMSE1
 70
     0
  9
$DIMSE2
 70
     0
  9
$DIMTAD
 70
     1
  9
$DIMZIN
 70
     8
  9
$DIMBLK
  1

  9
$DIMASO
 70
     1
  9
$DIMSHO
 70
     0
  9
$DIMPOST
  1

  9
$DIMAPOST
  1

  9
$DIMALT
 70
     0
  9
$DIMALTD
 70
     2
  9
$DIMALTF
 40
25.399999999999999
  9
$DIMLFAC
 40
1.0
  9
$DIMTOFL
 70
     1
  9
$DIMTVP
 40
0.0
  9
$DIMTIX
 70
     1
  9
$DIMSOXD
 70
     0
  9
$DIMSAH
 70
     0
  9
$DIMBLK1
  1

  9
$DIMBLK2
  1

  9
$DIMSTYLE
  2
STANDARD
  9
$DIMCLRD
 70
     7
  9
$DIMCLRE
 70
     7
  9
$DIMCLRT
 70
     7
  9
$DIMTFAC
 40
1.0
  9
$DIMGAP
 40
25.0
  9
$LUNITS
 70
     2
  9
$LUPREC
 70
     4
  9
$SKETCHINC
 40
0.1
  9
$FILLETRAD
 40
3.0
  9
$AUNITS
 70
     1
  9
$AUPREC
 70
     3
  9
$MENU
  1
ACAD
  9
$ELEVATION
 40
0.0
  9
$PELEVATION
 40
0.0
  9
$THICKNESS
 40
0.0
  9
$LIMCHECK
 70
     0
  9
$CHAMFERA
 40
0.0
  9
$CHAMFERB
 40
0.0
  9
$SKPOLY
 70
     0
  9
$TDCREATE
 40
2453019.62301037
  9
$TDUPDATE
 40
2459510.642739653
  9
$TDINDWG
 40
1.7212659838
  9
$TDUSRTIMER
 40
1.7212659838
  9
$USRTIMER
 70
     1
  9
$ANGBASE
 50
0.0
  9
$ANGDIR
 70
     0
  9
$PDMODE
 70
     3
  9
$PDSIZE
 40
-2.0
  9
$PLINEWID
 40
0.0
  9
$SPLFRAME
 70
     0
  9
$SPLINETYPE
 70
     6
  9
$SPLINESEGS
 70
     8
  9
$SURFTAB1
 70
     6
  9
$SURFTAB2
 70
     6
  9
$SURFTYPE
 70
     6
  9
$SURFU
 70
     6
  9
$SURFV
 70
     6
  9
$UCSNAME
  2

  9
$UCSORG
 10
0.0
 20
0.0
 30
0.0
  9
$UCSXDIR
 10
1.0
 20
0.0
 30
0.0
  9
$UCSYDIR
 10
0.0
 20
1.0
 30
0.0
  9
$PUCSNAME
  2

  9
$PUCSORG
 10
0.0
 20
0.0
 30
0.0
  9
$PUCSXDIR
 10
1.0
 20
0.0
 30
0.0
  9
$PUCSYDIR
 10
0.0
 20
1.0
 30
0.0
  9
$USERI1
 70
     0
  9
$USERI2
 70
     0
  9
$USERI3
 70
     0
  9
$USERI4
 70
     0
  9
$USERI5
 70
     0
  9
$USERR1
 40
20.0
  9
$USERR2
 40
0.0
  9
$USERR3
 40
0.0
  9
$USERR4
 40
0.0
  9
$USERR5
 40
0.0
  9
$WORLDVIEW
 70
     1
  9
$SHADEDGE
 70
     3
  9
$SHADEDIF
 70
    70
  9
$TILEMODE
 70
     1
  9
$MAXACTVP
 70
    48
  9
$PINSBASE
 10
0.0
 20
0.0
 30
0.0
  9
$PLIMCHECK
 70
     0
  9
$PEXTMIN
 10
-100000000000000000000.0
 20
-100000000000000000000.0
 30
-100000000000000000000.0
  9
$PEXTMAX
 10
100000000000000000000.0
 20
100000000000000000000.0
 30
100000000000000000000.0
  9
$PLIMMIN
 10
0.0
 20
0.0
  9
$PLIMMAX
 10
12.0
 20
9.0
  9
$UNITMODE
 70
     0
  9
$VISRETAIN
 70
     0
  9
$PLINEGEN
 70
     0
  9
$PSLTSCALE
 70
     0
  9
$TREEDEPTH
 70
  3020
  9
$ATTDIA
 70
     0
  9
$ATTREQ
 70
     1
  9
$BLIPMODE
 70
     1
  9
$COORDS
 70
     1
  9
$DRAGMODE
 70
     2
  9
$OSMODE
 70
     0
  9
$HANDLING
 70
     0
  9
$HANDSEED
  5
EF27
  0
ENDSEC
  0
SECTION
  2
TABLES
  0
TABLE
  2
LTYPE
 70
     2
  0
LTYPE
  2
CONTINUOUS
 70
     0
  3
実線
 72
    65
 73
     0
 40
0.0
  0
LTYPE
  2
DASHDOT
 70
     0
  3
____ _ ____ _ ____ _ ____ _ ____ _ ____ _ ____
 72
    65
 73
     4
 40
5.5
 49
4.0
 49
-0.6
 49
0.3
 49
-0.6
  0
ENDTAB
  0
TABLE
  2
LAYER
 70
    12
  0
LAYER
  2
0
 70
     0
 62
     7
  6
CONTINUOUS
  0
LAYER
  2
BASIS
 70
     0
 62
     6
  6
DASHDOT
  0
LAYER
  2
OUTLINE
 70
     0
 62
     3
  6
CONTINUOUS
  0
LAYER
  2
DETAIL
 70
     0
 62
     5
  6
CONTINUOUS
  0
LAYER
  2
SIZE
 70
     0
 62
    30
  6
CONTINUOUS
  0
LAYER
  2
ARRANGE
 70
     0
 62
     1
  6
CONTINUOUS
  0
LAYER
  2
ETC
 70
     0
 62
    61
  6
CONTINUOUS
  0
LAYER
  2
DEFPOINTS
 70
    64
 62
     7
  6
CONTINUOUS
  0
LAYER
  2
FIX
 70
    64
 62
    11
  6
CONTINUOUS
  0
LAYER
  2
NOTE
 70
    64
 62
     4
  6
CONTINUOUS
  0
LAYER
  2
SERVICESPACE
 70
    64
 62
     2
  6
DASHDOT
  0
LAYER
  2
SYMBOLLINE
 70
    64
 62
    15
  6
CONTINUOUS
  0
ENDTAB
  0
TABLE
  2
STYLE
 70
     1
  0
STYLE
  2
STANDARD
 70
     0
 40
64.0
 41
0.9
 50
0.0
 71
     0
 42
64.0
  3
SIMPLEX.shx
  4
BIGFONT.shx
  0
ENDTAB
  0
TABLE
  2
APPID
 70
    19
  0
APPID
  2
ACAD
 70
     0
  0
APPID
  2
AUTOCAD_POSTSCRIPT_FIGURE
 70
     0
  0
APPID
  2
ACAD_EXEMPT_FROM_CAD_STANDARDS
 70
     0
  0
APPID
  2
ACAD_PSEXT
 70
     0
  0
APPID
  2
ACAUTHENVIRON
 70
     0
  0
APPID
  2
GENIUS_GENOENT_13
 70
     0
  0
APPID
  2
GENIUS_GENCFG_13
 70
     0
  0
APPID
  2
GENIUS_GENCFG0_13
 70
     0
  0
APPID
  2
GENIUS_GENCFG1_13
 70
     0
  0
APPID
  2
GENIUS_GENCFG2_13
 70
     0
  0
APPID
  2
GENIUS_GENCFG3_13
 70
     0
  0
APPID
  2
GENIUS_GENCFG4_13
 70
     0
  0
APPID
  2
GENIUS_GEVCFG0_13
 70
     0
  0
APPID
  2
CONTENTBLOCKICON
 70
     0
  0
APPID
  2
CONTENTBLOCKDESCRIPTION
 70
     0
  0
APPID
  2
ACAD_NAV_VCDISPLAY
 70
     0
  0
APPID
  2
ACAD_MLEADERVER
 70
     0
  0
APPID
  2
ACDBDYNAMICBLOCKTRUENAME
 70
     0
  0
APPID
  2
ACDBDYNAMICBLOCKGUID
 70
     0
  0
ENDTAB
  0
TABLE
  2
DIMSTYLE
 70
     1
  0
DIMSTYLE
  2
STANDARD
 70
     0
  3

  4

  5
_ORIGIN
  6

  7

 40
1.0
 41
12.0
 42
20.0
 43
200.0
 44
20.0
 45
0.0
 46
0.0
 47
0.0
 48
0.0
140
64.0
141
0.09
142
0.0
143
25.399999999999999
144
1.0
145
0.0
146
1.0
147
25.0
 71
     0
 72
     0
 73
     0
 74
     0
 75
     0
 76
     0
 77
     1
 78
     8
170
     0
171
     2
172
     1
173
     0
174
     1
175
     0
176
     7
177
     7
178
     7
  0
ENDTAB
  0
TABLE
  2
VIEW
 70
     1
  0
VIEW
  2
ALL
 70
     0
 40
4282.6198079999986
 10
0.0
 20
41.309904000000003
 41
5940.0
 11
0.0
 21
0.0
 31
1.0
 12
0.0
 22
0.0
 32
0.0
 42
50.0
 43
0.0
 44
0.0
 50
0.0
 71
     0
  0
ENDTAB
  0
TABLE
  2
UCS
 70
     0
  0
ENDTAB
  0
TABLE
  2
VPORT
 70
     1
  0
VPORT
  2
*ACTIVE
 70
     0
 10
0.0
 20
0.0
 11
1.0
 21
1.0
 12
113.9763018046216
 22
76.423654887386874
 13
0.0
 23
0.0
 14
1.0
 24
1.0
 15
0.0
 25
0.0
 16
0.0
 26
0.0
 36
1.0
 17
0.0
 27
0.0
 37
0.0
 40
843.48814633076938
 41
1.980636237897649
 42
50.0
 43
0.0
 44
0.0
 50
0.0
 51
0.0
 71
     0
 72
  1000
 73
     1
 74
     3
 75
     0
 76
     0
 77
     0
 78
     0
  0
ENDTAB
  0
ENDSEC
  0
SECTION
  2
BLOCKS
  0
BLOCK
  8
0
  2
_ORIGIN
 70
     0
 10
0.0
 20
0.0
 30
0.0
  3
_ORIGIN
  1
_ORIGIN
  0
CIRCLE
  8
SIZE
  6
CONTINUOUS
 62
    30
 10
0.0
 20
0.0
 30
0.0
 40
0.5
  0
LINE
  8
SIZE
  6
CONTINUOUS
 62
    30
 10
0.0
 20
0.0
 30
0.0
 11
-1.0
 21
0.0
 31
0.0
  0
ENDBLK
  8
0
  0
ENDSEC
  0
SECTION
  2
ENTITIES
  0
TEXT
  8
ETC
  6
CONTINUOUS
 62
    61
 10
356.72718200000008
 20
502.38065199999988
 30
0.0
 40
64.0
  1
AH-1312S2-X_3
 41
0.9
  0
TEXT
  8
ETC
  6
CONTINUOUS
 62
    61
 10
352.54118799999992
 20
384.425342
 30
0.0
 40
64.0
  1
産業扇
 41
0.9
  0
TEXT
  8
ETC
  6
CONTINUOUS
 62
    61
 10
403.14868999999999
 20
277.50440600000002
 30
0.0
 40
40.0
  1
AH-1312S2-X
 41
0.9
  0
CIRCLE
  8
ARRANGE
  6
CONTINUOUS
 62
     1
 10
0.0
 20
0.0
 30
0.0
 40
40.0
  0
POINT
  8
ARRANGE
  6
CONTINUOUS
 62
     1
 10
0.0
 20
0.0
 30
0.0
  0
LINE
  8
BASIS
  6
DASHDOT
 62
     6
 10
0.0
 20
-199.78602100000001
 30
0.0
 11
0.0
 21
51.393762999999979
 31
0.0
  0
LINE
  8
BASIS
  6
DASHDOT
 62
     6
 10
542.23174800000015
 20
0.0
 30
0.0
 11
-546.67139599999996
 21
0.0
 31
0.0
  0
LINE
  8
SIZE
  6
CONTINUOUS
 62
    30
 10
562.99985000000015
 20
-195.49988999999999
 30
0.0
 11
562.99985000000015
 21
-413.64297099999999
 31
0.0
  0
LINE
  8
SIZE
  6
CONTINUOUS
 62
    30
 10
-563.00037999999995
 20
-195.49988999999999
 30
0.0
 11
-563.00037999999995
 21
-413.64297099999999
 31
0.0
  0
LINE
  8
SIZE
  6
CONTINUOUS
 62
    30
 10
550.99985000000015
 20
-393.64297099999999
 30
0.0
 11
-551.00037999999995
 21
-393.64297099999999
 31
0.0
  0
CIRCLE
  8
SIZE
  6
CONTINUOUS
 62
    30
 10
562.99985000000015
 20
-393.64297099999999
 30
0.0
 40
6.0
  0
LINE
  8
SIZE
  6
CONTINUOUS
 62
    30
 10
562.99985000000015
 20
-393.64297099999999
 30
0.0
 11
550.99985000000015
 21
-393.64297099999999
 31
0.0
  0
CIRCLE
  8
SIZE
  6
CONTINUOUS
 62
    30
 10
-563.00037999999995
 20
-393.64297099999999
 30
0.0
 40
6.0
  0
LINE
  8
SIZE
  6
CONTINUOUS
 62
    30
 10
-563.00037999999995
 20
-393.64297099999999
 30
0.0
 11
-551.00037999999995
 21
-393.64297099999999
 31
0.0
  0
TEXT
  8
SIZE
  6
CONTINUOUS
 62
    30
 10
-89.143122142857152
 20
-368.64297099999999
 30
0.0
 40
64.0
  1
1126
 41
0.9
 72
     1
 11
-0.0002650000000131
 21
-368.64297099999999
 31
0.0
  0
LINE
  8
SIZE
  6
CONTINUOUS
 62
    30
 10
-593.00037999999995
 20
-195.49988999999999
 30
0.0
 11
-593.00037999999995
 21
-335.50897200000009
 31
0.0
  0
LINE
  8
SIZE
  6
CONTINUOUS
 62
    30
 10
-563.00037999999995
 20
-195.49988999999999
 30
0.0
 11
-563.00037999999995
 21
-335.50897200000009
 31
0.0
  0
LINE
  8
SIZE
  6
CONTINUOUS
 62
    30
 10
-551.00037999999995
 20
-315.50897200000009
 30
0.0
 11
-539.00037999999995
 21
-315.50897200000009
 31
0.0
  0
LINE
  8
SIZE
  6
CONTINUOUS
 62
    30
 10
-605.00037999999995
 20
-315.50897200000009
 30
0.0
 11
-760.25752299999999
 21
-315.50897200000009
 31
0.0
  0
LINE
  8
SIZE
  6
CONTINUOUS
 62
    30
 10
-563.00037999999995
 20
-315.50897200000009
 30
0.0
 11
-593.00037999999995
 21
-315.50897200000009
 31
0.0
  0
CIRCLE
  8
SIZE
  6
CONTINUOUS
 62
    30
 10
-563.00037999999995
 20
-315.50897200000009
 30
0.0
 40
6.0
  0
LINE
  8
SIZE
  6
CONTINUOUS
 62
    30
 10
-563.00037999999995
 20
-315.50897200000009
 30
0.0
 11
-551.00037999999995
 21
-315.50897200000009
 31
0.0
  0
CIRCLE
  8
SIZE
  6
CONTINUOUS
 62
    30
 10
-593.00037999999995
 20
-315.50897200000009
 30
0.0
 40
6.0
  0
LINE
  8
SIZE
  6
CONTINUOUS
 62
    30
 10
-593.00037999999995
 20
-315.50897200000009
 30
0.0
 11
-605.00037999999995
 21
-315.50897200000009
 31
0.0
  0
TEXT
  8
SIZE
  6
CONTINUOUS
 62
    30
 10
-735.25752242857118
 20
-290.50897200000009
 30
0.0
 40
64.0
  1
30
 41
0.8999999999999999
 72
     1
 11
-688.6289509999998
 21
-290.50897200000009
 31
0.0
  0
LINE
  8
SIZE
  6
CONTINUOUS
 62
    30
 10
-653.00037999999995
 20
-0.0000100000000316
 30
0.0
 11
-734.9067560000002
 21
-0.0000100000000316
 31
0.0
  0
LINE
  8
SIZE
  6
CONTINUOUS
 62
    30
 10
-614.99989000000016
 20
-165.00001
 30
0.0
 11
-734.9067560000002
 21
-165.00001
 31
0.0
  0
LINE
  8
SIZE
  6
CONTINUOUS
 62
    30
 10
-714.9067560000002
 20
11.99998999999997
 30
0.0
 11
-714.9067560000002
 21
23.999990000000029
 31
0.0
  0
LINE
  8
SIZE
  6
CONTINUOUS
 62
    30
 10
-714.9067560000002
 20
-177.00001
 30
0.0
 11
-714.9067560000002
 21
-189.00001
 31
0.0
  0
LINE
  8
SIZE
  6
CONTINUOUS
 62
    30
 10
-714.9067560000002
 20
-0.0000100000000316
 30
0.0
 11
-714.9067560000002
 21
-165.00001
 31
0.0
  0
CIRCLE
  8
SIZE
  6
CONTINUOUS
 62
    30
 10
-714.9067560000002
 20
-0.0000100000000316
 30
0.0
 40
6.0
  0
LINE
  8
SIZE
  6
CONTINUOUS
 62
    30
 10
-714.9067560000002
 20
-0.0000100000000316
 30
0.0
 11
-714.9067560000002
 21
11.99998999999997
 31
0.0
  0
CIRCLE
  8
SIZE
  6
CONTINUOUS
 62
    30
 10
-714.9067560000002
 20
-165.00001
 30
0.0
 40
6.0
  0
LINE
  8
SIZE
  6
CONTINUOUS
 62
    30
 10
-714.9067560000002
 20
-165.00001
 30
0.0
 11
-714.9067560000002
 21
-177.00001
 31
0.0
  0
TEXT
  8
SIZE
  6
CONTINUOUS
 62
    30
 10
-739.9067560000002
 20
-151.0714385714287
 30
0.0
 40
64.0
  1
165
 50
90.0
 41
0.9000000000000004
 72
     1
 11
-739.9067560000002
 21
-82.500010000000088
 31
0.0
  0
LINE
  8
DETAIL
  6
CONTINUOUS
 62
     5
 10
-552.0
 20
-176.5
 30
0.0
 11
552.0
 21
-176.5
 31
0.0
  0
LINE
  8
DETAIL
  6
CONTINUOUS
 62
     5
 10
-552.0
 20
-33.5
 30
0.0
 11
552.0
 21
-33.5
 31
0.0
  0
LINE
  8
DETAIL
  6
CONTINUOUS
 62
     5
 10
-584.99999000000003
 20
-165.0
 30
0.0
 11
-584.99999000000003
 21
0.0
 31
0.0
  0
LINE
  8
DETAIL
  6
CONTINUOUS
 62
     5
 10
-623.0
 20
-42.755459999999971
 30
0.0
 11
-623.0
 21
0.0
 31
0.0
  0
LINE
  8
DETAIL
  6
CONTINUOUS
 62
     5
 10
-593.0
 20
-50.0
 30
0.0
 11
-613.82844
 21
-50.0
 31
0.0
  0
LINE
  8
DETAIL
  6
CONTINUOUS
 62
     5
 10
-622.80696999999998
 20
-43.150140000000022
 30
0.0
 11
-584.99999000000003
 21
-43.150140000000022
 31
0.0
  0
LINE
  8
DETAIL
  6
CONTINUOUS
 62
     5
 10
-614.13540999999998
 20
-49.894679999999987
 30
0.0
 11
-622.80696999999998
 21
-43.150140000000022
 31
0.0
  0
ARC
  8
DETAIL
  6
CONTINUOUS
 62
     5
 10
-622.5
 20
-42.755459999999971
 30
0.0
 40
0.5
 50
180.0
 51
232.12501600000189
  0
ARC
  8
DETAIL
  6
CONTINUOUS
 62
     5
 10
-613.82844
 20
-49.5
 30
0.0
 40
0.5
 50
232.12501600000189
 51
270.0
  0
LINE
  8
DETAIL
  6
CONTINUOUS
 62
     5
 10
-563.0
 20
-165.5
 30
0.0
 11
-563.0
 21
-6.3999999999999773
 31
0.0
  0
LINE
  8
DETAIL
  6
CONTINUOUS
 62
     5
 10
-593.0
 20
-153.8374
 30
0.0
 11
-593.0
 21
-50.0
 31
0.0
  0
LINE
  8
DETAIL
  6
CONTINUOUS
 62
     5
 10
-563.0
 20
-165.0
 30
0.0
 11
-584.99999000000003
 21
-165.0
 31
0.0
  0
LINE
  8
DETAIL
  6
CONTINUOUS
 62
     5
 10
-592.90436999999997
 20
-154.13149000000001
 30
0.0
 11
-584.99999000000003
 21
-165.0
 31
0.0
  0
ARC
  8
DETAIL
  6
CONTINUOUS
 62
     5
 10
-592.5
 20
-153.8374
 30
0.0
 40
0.5
 50
180.0
 51
216.02737599999969
  0
ARC
  8
DETAIL
  6
CONTINUOUS
 62
     5
 10
-552.0
 20
-165.5
 30
0.0
 40
11.0
 50
180.0
 51
270.0
  0
LINE
  8
DETAIL
  6
CONTINUOUS
 62
     5
 10
-593.0
 20
-50.0
 30
0.0
 11
-584.99999000000003
 21
-43.150140000000022
 31
0.0
  0
ARC
  8
DETAIL
  6
CONTINUOUS
 62
     5
 10
-552.0
 20
-44.5
 30
0.0
 40
11.0
 50
90.0
 51
180.0
  0
LINE
  8
DETAIL
  6
CONTINUOUS
 62
     5
 10
-569.39999999999998
 20
0.0
 30
0.0
 11
-623.0
 21
0.0
 31
0.0
  0
ARC
  8
DETAIL
  6
CONTINUOUS
 62
     5
 10
-569.39999999999998
 20
-6.3999999999999773
 30
0.0
 40
6.4000000000000004
 50
0.0
 51
90.0
  0
LINE
  8
DETAIL
  6
CONTINUOUS
 62
     5
 10
569.40000000000009
 20
0.0
 30
0.0
 11
623.0
 21
0.0
 31
0.0
  0
LINE
  8
DETAIL
  6
CONTINUOUS
 62
     5
 10
593.0
 20
-50.0
 30
0.0
 11
613.82844999999998
 21
-50.0
 31
0.0
  0
LINE
  8
DETAIL
  6
CONTINUOUS
 62
     5
 10
622.80697000000009
 20
-43.150140000000022
 30
0.0
 11
584.99999000000003
 21
-43.150140000000022
 31
0.0
  0
LINE
  8
DETAIL
  6
CONTINUOUS
 62
     5
 10
584.99999000000003
 20
-165.0
 30
0.0
 11
584.99999000000003
 21
0.0
 31
0.0
  0
LINE
  8
DETAIL
  6
CONTINUOUS
 62
     5
 10
593.0
 20
-153.8374
 30
0.0
 11
593.0
 21
-50.0
 31
0.0
  0
LINE
  8
DETAIL
  6
CONTINUOUS
 62
     5
 10
563.0
 20
-165.5
 30
0.0
 11
563.0
 21
-6.3999999999999773
 31
0.0
  0
LINE
  8
DETAIL
  6
CONTINUOUS
 62
     5
 10
563.0
 20
-165.0
 30
0.0
 11
584.99999000000003
 21
-165.0
 31
0.0
  0
ARC
  8
DETAIL
  6
CONTINUOUS
 62
     5
 10
552.0
 20
-165.5
 30
0.0
 40
11.0
 50
270.0
 51
0.0
  0
ARC
  8
DETAIL
  6
CONTINUOUS
 62
     5
 10
592.5
 20
-153.8374
 30
0.0
 40
0.5
 50
323.97262400000028
 51
0.0
  0
LINE
  8
DETAIL
  6
CONTINUOUS
 62
     5
 10
592.90436999999997
 20
-154.13149000000001
 30
0.0
 11
584.99999000000003
 21
-165.0
 31
0.0
  0
ARC
  8
DETAIL
  6
CONTINUOUS
 62
     5
 10
552.0
 20
-44.5
 30
0.0
 40
11.0
 50
0.0
 51
90.0
  0
LINE
  8
DETAIL
  6
CONTINUOUS
 62
     5
 10
593.0
 20
-50.0
 30
0.0
 11
584.99999000000003
 21
-43.150140000000022
 31
0.0
  0
ARC
  8
DETAIL
  6
CONTINUOUS
 62
     5
 10
569.40000000000009
 20
-6.3999999999999773
 30
0.0
 40
6.4000000000000004
 50
90.0
 51
180.0
  0
LINE
  8
DETAIL
  6
CONTINUOUS
 62
     5
 10
623.0
 20
-42.755459999999971
 30
0.0
 11
623.0
 21
0.0
 31
0.0
  0
LINE
  8
DETAIL
  6
CONTINUOUS
 62
     5
 10
614.13542000000007
 20
-49.894679999999987
 30
0.0
 11
622.80697000000009
 21
-43.150140000000022
 31
0.0
  0
ARC
  8
DETAIL
  6
CONTINUOUS
 62
     5
 10
613.82844999999998
 20
-49.5
 30
0.0
 40
0.5
 50
270.0
 51
307.87498399999811
  0
ARC
  8
DETAIL
  6
CONTINUOUS
 62
     5
 10
622.5
 20
-42.755459999999971
 30
0.0
 40
0.5
 50
307.87498399999811
 51
0.0
  0
LINE
  8
SIZE
  6
CONTINUOUS
 62
    30
 10
572.0
 20
-33.5
 30
0.0
 11
794.82755599999973
 21
-33.5
 31
0.0
  0
LINE
  8
SIZE
  6
CONTINUOUS
 62
    30
 10
595.3770770000001
 20
-176.5
 30
0.0
 11
794.82755599999973
 21
-176.5
 31
0.0
  0
LINE
  8
SIZE
  6
CONTINUOUS
 62
    30
 10
774.82755599999973
 20
-21.5
 30
0.0
 11
774.82755599999973
 21
-9.5
 31
0.0
  0
LINE
  8
SIZE
  6
CONTINUOUS
 62
    30
 10
774.82755599999973
 20
-188.5
 30
0.0
 11
774.82755599999973
 21
-200.5
 31
0.0
  0
LINE
  8
SIZE
  6
CONTINUOUS
 62
    30
 10
774.82755599999973
 20
-33.5
 30
0.0
 11
774.82755599999973
 21
-176.5
 31
0.0
  0
CIRCLE
  8
SIZE
  6
CONTINUOUS
 62
    30
 10
774.82755599999973
 20
-33.5
 30
0.0
 40
6.0
  0
LINE
  8
SIZE
  6
CONTINUOUS
 62
    30
 10
774.82755599999973
 20
-33.5
 30
0.0
 11
774.82755599999973
 21
-21.5
 31
0.0
  0
CIRCLE
  8
SIZE
  6
CONTINUOUS
 62
    30
 10
774.82755599999973
 20
-176.5
 30
0.0
 40
6.0
  0
LINE
  8
SIZE
  6
CONTINUOUS
 62
    30
 10
774.82755599999973
 20
-176.5
 30
0.0
 11
774.82755599999973
 21
-188.5
 31
0.0
  0
TEXT
  8
SIZE
  6
CONTINUOUS
 62
    30
 10
749.82755599999973
 20
-173.57142857142861
 30
0.0
 40
64.0
  1
143
 50
90.0
 41
0.9000000000000004
 72
     1
 11
749.82755599999973
 21
-105.0
 31
0.0
  0
LINE
  8
SIZE
  6
CONTINUOUS
 62
    30
 10
643.0
 20
0.0
 30
0.0
 11
933.15611600000011
 21
0.0
 31
0.0
  0
LINE
  8
SIZE
  6
CONTINUOUS
 62
    30
 10
595.3770770000001
 20
-176.5
 30
0.0
 11
933.15611600000011
 21
-176.5
 31
0.0
  0
LINE
  8
SIZE
  6
CONTINUOUS
 62
    30
 10
913.15611600000011
 20
12.0
 30
0.0
 11
913.15611600000011
 21
24.0
 31
0.0
  0
LINE
  8
SIZE
  6
CONTINUOUS
 62
    30
 10
913.15611600000011
 20
-188.5
 30
0.0
 11
913.15611600000011
 21
-200.5
 31
0.0
  0
LINE
  8
SIZE
  6
CONTINUOUS
 62
    30
 10
913.15611600000011
 20
0.0
 30
0.0
 11
913.15611600000011
 21
-176.5
 31
0.0
  0
CIRCLE
  8
SIZE
  6
CONTINUOUS
 62
    30
 10
913.15611600000011
 20
0.0
 30
0.0
 40
6.0
  0
LINE
  8
SIZE
  6
CONTINUOUS
 62
    30
 10
913.15611600000011
 20
0.0
 30
0.0
 11
913.15611600000011
 21
12.0
 31
0.0
  0
CIRCLE
  8
SIZE
  6
CONTINUOUS
 62
    30
 10
913.15611600000011
 20
-176.5
 30
0.0
 40
6.0
  0
LINE
  8
SIZE
  6
CONTINUOUS
 62
    30
 10
913.15611600000011
 20
-176.5
 30
0.0
 11
913.15611600000011
 21
-188.5
 31
0.0
  0
TEXT
  8
SIZE
  6
CONTINUOUS
 62
    30
 10
888.15611600000011
 20
-156.82142857142861
 30
0.0
 40
64.0
  1
177
 50
90.0
 41
0.9000000000000004
 72
     1
 11
888.15611600000011
 21
-88.25
 31
0.0
  0
LINE
  8
SIZE
  6
CONTINUOUS
 62
    30
 10
-623.0
 20
20.0
 30
0.0
 11
-623.0
 21
131.62734800000001
 31
0.0
  0
LINE
  8
SIZE
  6
CONTINUOUS
 62
    30
 10
623.0
 20
20.0
 30
0.0
 11
623.0
 21
131.62734800000001
 31
0.0
  0
LINE
  8
SIZE
  6
CONTINUOUS
 62
    30
 10
-611.0
 20
111.627348
 30
0.0
 11
611.0
 21
111.627348
 31
0.0
  0
CIRCLE
  8
SIZE
  6
CONTINUOUS
 62
    30
 10
-623.0
 20
111.627348
 30
0.0
 40
6.0
  0
LINE
  8
SIZE
  6
CONTINUOUS
 62
    30
 10
-623.0
 20
111.627348
 30
0.0
 11
-611.0
 21
111.627348
 31
0.0
  0
CIRCLE
  8
SIZE
  6
CONTINUOUS
 62
    30
 10
623.0
 20
111.627348
 30
0.0
 40
6.0
  0
LINE
  8
SIZE
  6
CONTINUOUS
 62
    30
 10
623.0
 20
111.627348
 30
0.0
 11
611.0
 21
111.627348
 31
0.0
  0
TEXT
  8
SIZE
  6
CONTINUOUS
 62
    30
 10
-94.628571428571419
 20
136.62734800000001
 30
0.0
 40
64.0
  1
1246
 41
0.9
 72
     1
 11
0.0
 21
136.62734800000001
 31
0.0
  0
LINE
  8
BASIS
  6
DASHDOT
 62
     6
 10
573.37589800000001
 20
-105.0
 30
0.0
 11
-575.64253299999996
 21
-105.0
 31
0.0
  0
LINE
  8
OUTLINE
  6
CONTINUOUS
 62
     3
 10
-552.0
 20
-176.5
 30
0.0
 11
552.0
 21
-176.5
 31
0.0
  0
LINE
  8
OUTLINE
  6
CONTINUOUS
 62
     3
 10
-552.0
 20
-33.5
 30
0.0
 11
552.0
 21
-33.5
 31
0.0
  0
ARC
  8
OUTLINE
  6
CONTINUOUS
 62
     3
 10
-552.0
 20
-165.5
 30
0.0
 40
11.0
 50
180.0
 51
270.0
  0
ARC
  8
OUTLINE
  6
CONTINUOUS
 62
     3
 10
-552.0
 20
-44.5
 30
0.0
 40
11.0
 50
90.0
 51
180.0
  0
ARC
  8
OUTLINE
  6
CONTINUOUS
 62
     3
 10
552.0
 20
-165.5
 30
0.0
 40
11.0
 50
270.0
 51
0.0
  0
ARC
  8
OUTLINE
  6
CONTINUOUS
 62
     3
 10
552.0
 20
-44.5
 30
0.0
 40
11.0
 50
0.0
 51
90.0
  0
LINE
  8
OUTLINE
  6
CONTINUOUS
 62
     3
 10
-623.0
 20
-42.755459999999971
 30
0.0
 11
-623.0
 21
0.0
 31
0.0
  0
LINE
  8
OUTLINE
  6
CONTINUOUS
 62
     3
 10
-593.0
 20
-50.0
 30
0.0
 11
-613.82844
 21
-50.0
 31
0.0
  0
LINE
  8
OUTLINE
  6
CONTINUOUS
 62
     3
 10
-614.13540999999998
 20
-49.894679999999987
 30
0.0
 11
-622.80696999999998
 21
-43.150140000000022
 31
0.0
  0
ARC
  8
OUTLINE
  6
CONTINUOUS
 62
     3
 10
-622.5
 20
-42.755459999999971
 30
0.0
 40
0.5
 50
180.0
 51
232.1250160000049
  0
ARC
  8
OUTLINE
  6
CONTINUOUS
 62
     3
 10
-613.82844
 20
-49.5
 30
0.0
 40
0.5
 50
232.1250160000049
 51
270.0
  0
LINE
  8
OUTLINE
  6
CONTINUOUS
 62
     3
 10
-563.0
 20
-165.5
 30
0.0
 11
-563.0
 21
-6.3999999999999773
 31
0.0
  0
LINE
  8
OUTLINE
  6
CONTINUOUS
 62
     3
 10
-593.0
 20
-153.8374
 30
0.0
 11
-593.0
 21
-50.0
 31
0.0
  0
LINE
  8
OUTLINE
  6
CONTINUOUS
 62
     3
 10
-563.0
 20
-165.0
 30
0.0
 11
-584.99999000000003
 21
-165.0
 31
0.0
  0
LINE
  8
OUTLINE
  6
CONTINUOUS
 62
     3
 10
-592.90436999999997
 20
-154.13149000000001
 30
0.0
 11
-584.99999000000003
 21
-165.0
 31
0.0
  0
ARC
  8
OUTLINE
  6
CONTINUOUS
 62
     3
 10
-592.5
 20
-153.8374
 30
0.0
 40
0.5
 50
180.0
 51
216.02737599999651
  0
LINE
  8
OUTLINE
  6
CONTINUOUS
 62
     3
 10
-569.39999999999998
 20
0.0
 30
0.0
 11
-623.0
 21
0.0
 31
0.0
  0
ARC
  8
OUTLINE
  6
CONTINUOUS
 62
     3
 10
-569.39999999999998
 20
-6.3999999999999773
 30
0.0
 40
6.4000000000000004
 50
0.0
 51
90.0
  0
LINE
  8
OUTLINE
  6
CONTINUOUS
 62
     3
 10
569.40000000000009
 20
0.0
 30
0.0
 11
623.0
 21
0.0
 31
0.0
  0
LINE
  8
OUTLINE
  6
CONTINUOUS
 62
     3
 10
593.0
 20
-50.0
 30
0.0
 11
613.82844999999998
 21
-50.0
 31
0.0
  0
LINE
  8
OUTLINE
  6
CONTINUOUS
 62
     3
 10
563.0
 20
-165.5
 30
0.0
 11
563.0
 21
-6.3999999999999773
 31
0.0
  0
LINE
  8
OUTLINE
  6
CONTINUOUS
 62
     3
 10
593.0
 20
-153.8374
 30
0.0
 11
593.0
 21
-50.0
 31
0.0
  0
LINE
  8
OUTLINE
  6
CONTINUOUS
 62
     3
 10
563.0
 20
-165.0
 30
0.0
 11
584.99999000000003
 21
-165.0
 31
0.0
  0
ARC
  8
OUTLINE
  6
CONTINUOUS
 62
     3
 10
592.5
 20
-153.8374
 30
0.0
 40
0.5
 50
323.97262400000352
 51
0.0
  0
LINE
  8
OUTLINE
  6
CONTINUOUS
 62
     3
 10
592.90436999999997
 20
-154.13149000000001
 30
0.0
 11
584.99999000000003
 21
-165.0
 31
0.0
  0
ARC
  8
OUTLINE
  6
CONTINUOUS
 62
     3
 10
569.40000000000009
 20
-6.3999999999999773
 30
0.0
 40
6.4000000000000004
 50
90.0
 51
180.0
  0
LINE
  8
OUTLINE
  6
CONTINUOUS
 62
     3
 10
623.0
 20
-42.755459999999971
 30
0.0
 11
623.0
 21
0.0
 31
0.0
  0
LINE
  8
OUTLINE
  6
CONTINUOUS
 62
     3
 10
614.13542000000007
 20
-49.894679999999987
 30
0.0
 11
622.80697000000009
 21
-43.150140000000022
 31
0.0
  0
ARC
  8
OUTLINE
  6
CONTINUOUS
 62
     3
 10
613.82844999999998
 20
-49.5
 30
0.0
 40
0.5
 50
270.0
 51
307.87498399999521
  0
ARC
  8
OUTLINE
  6
CONTINUOUS
 62
     3
 10
622.5
 20
-42.755459999999971
 30
0.0
 40
0.5
 50
307.87498399999521
 51
0.0
  0
ENDSEC
  0
EOF
