  0
SECTION
  2
HEADER
  9
$ACADVER
  1
AC1009
  9
$DWGCODEPAGE
  3
ansi_932
  9
$INSBASE
 10
0.0
 20
0.0
 30
0.0
  9
$EXTMIN
 10
-1083.42
 20
-494.9488579672006
 30
0.0
  9
$EXTMAX
 10
1666.90551641766
 20
609.7816353049292
 30
0.0
  9
$LIMMIN
 10
-2970.0
 20
-2100.0
  9
$LIMMAX
 10
2970.0
 20
2100.0
  9
$ORTHOMODE
 70
     1
  9
$REGENMODE
 70
     0
  9
$FILLMODE
 70
     1
  9
$QTEXTMODE
 70
     0
  9
$MIRRTEXT
 70
     0
  9
$DRAGMODE
 70
     2
  9
$LTSCALE
 40
20.0
  9
$OSMODE
 70
    37
  9
$ATTMODE
 70
     1
  9
$TEXTSIZE
 40
64.0
  9
$TRACEWID
 40
0.05
  9
$TEXTSTYLE
  7
STANDARD
  9
$CLAYER
  8
OUTLINE
  9
$CELTYPE
  6
CONTINUOUS
  9
$CECOLOR
 62
     3
  9
$DIMSCALE
 40
1.0
  9
$DIMASZ
 40
2.0
  9
$DIMEXO
 40
20.0
  9
$DIMDLI
 40
200.0
  9
$DIMRND
 40
0.0
  9
$DIMDLE
 40
0.0
  9
$DIMEXE
 40
30.0
  9
$DIMTP
 40
0.0
  9
$DIMTM
 40
0.0
  9
$DIMTXT
 40
64.0
  9
$DIMCEN
 40
0.09
  9
$DIMTSZ
 40
0.0
  9
$DIMTOL
 70
     0
  9
$DIMLIM
 70
     0
  9
$DIMTIH
 70
     0
  9
$DIMTOH
 70
     0
  9
$DIMSE1
 70
     0
  9
$DIMSE2
 70
     0
  9
$DIMTAD
 70
     1
  9
$DIMZIN
 70
     8
  9
$DIMBLK
  1

  9
$DIMASO
 70
     1
  9
$DIMSHO
 70
     0
  9
$DIMPOST
  1

  9
$DIMAPOST
  1

  9
$DIMALT
 70
     0
  9
$DIMALTD
 70
     2
  9
$DIMALTF
 40
25.4
  9
$DIMLFAC
 40
1.0
  9
$DIMTOFL
 70
     1
  9
$DIMTVP
 40
0.0
  9
$DIMTIX
 70
     1
  9
$DIMSOXD
 70
     0
  9
$DIMSAH
 70
     0
  9
$DIMBLK1
  1

  9
$DIMBLK2
  1

  9
$DIMSTYLE
  2
STANDARD
  9
$DIMCLRD
 70
     0
  9
$DIMCLRE
 70
     0
  9
$DIMCLRT
 70
     0
  9
$DIMTFAC
 40
1.0
  9
$DIMGAP
 40
0.09
  9
$LUNITS
 70
     2
  9
$LUPREC
 70
     4
  9
$SKETCHINC
 40
0.1
  9
$FILLETRAD
 40
5.0
  9
$AUNITS
 70
     1
  9
$AUPREC
 70
     3
  9
$MENU
  1
ACAD
  9
$ELEVATION
 40
0.0
  9
$PELEVATION
 40
0.0
  9
$THICKNESS
 40
0.0
  9
$LIMCHECK
 70
     1
  9
$CHAMFERA
 40
0.0
  9
$CHAMFERB
 40
0.0
  9
$SKPOLY
 70
     0
  9
$TDCREATE
 40
2451816.496967581
  9
$TDUPDATE
 40
2457485.550218125
  9
$TDINDWG
 40
0.069211875
  9
$TDUSRTIMER
 40
0.0692116782
  9
$USRTIMER
 70
     1
  9
$ANGBASE
 50
0.0
  9
$ANGDIR
 70
     0
  9
$PDMODE
 70
     3
  9
$PDSIZE
 40
-2.0
  9
$PLINEWID
 40
0.0
  9
$COORDS
 70
     1
  9
$SPLFRAME
 70
     0
  9
$SPLINETYPE
 70
     6
  9
$SPLINESEGS
 70
     8
  9
$ATTDIA
 70
     0
  9
$ATTREQ
 70
     1
  9
$HANDLING
 70
     1
  9
$HANDSEED
  5
49D
  9
$SURFTAB1
 70
     6
  9
$SURFTAB2
 70
     6
  9
$SURFTYPE
 70
     6
  9
$SURFU
 70
     6
  9
$SURFV
 70
     6
  9
$UCSNAME
  2

  9
$UCSORG
 10
0.0
 20
0.0
 30
0.0
  9
$UCSXDIR
 10
1.0
 20
0.0
 30
0.0
  9
$UCSYDIR
 10
0.0
 20
1.0
 30
0.0
  9
$PUCSNAME
  2

  9
$PUCSORG
 10
0.0
 20
0.0
 30
0.0
  9
$PUCSXDIR
 10
1.0
 20
0.0
 30
0.0
  9
$PUCSYDIR
 10
0.0
 20
1.0
 30
0.0
  9
$USERI1
 70
     0
  9
$USERI2
 70
     0
  9
$USERI3
 70
     0
  9
$USERI4
 70
     0
  9
$USERI5
 70
     0
  9
$USERR1
 40
20.0
  9
$USERR2
 40
0.0
  9
$USERR3
 40
0.0
  9
$USERR4
 40
0.0
  9
$USERR5
 40
0.0
  9
$WORLDVIEW
 70
     1
  9
$SHADEDGE
 70
     3
  9
$SHADEDIF
 70
    70
  9
$TILEMODE
 70
     1
  9
$MAXACTVP
 70
    64
  9
$PLIMCHECK
 70
     0
  9
$PEXTMIN
 10
1.000000000000000E+20
 20
1.000000000000000E+20
 30
1.000000000000000E+20
  9
$PEXTMAX
 10
-1.000000000000000E+20
 20
-1.000000000000000E+20
 30
-1.000000000000000E+20
  9
$PLIMMIN
 10
0.0
 20
0.0
  9
$PLIMMAX
 10
12.0
 20
9.0
  9
$UNITMODE
 70
     0
  9
$VISRETAIN
 70
     1
  9
$PLINEGEN
 70
     0
  9
$PSLTSCALE
 70
     1
  0
ENDSEC
  0
SECTION
  2
TABLES
  0
TABLE
  2
VPORT
 70
     1
  0
VPORT
  2
*ACTIVE
 70
     0
 10
0.0
 20
0.0
 11
1.0
 21
1.0
 12
294.4020112498374
 22
23.65183465593304
 13
0.0
 23
0.0
 14
400.0
 24
400.0
 15
400.0
 25
400.0
 16
0.0
 26
0.0
 36
1.0
 17
0.0
 27
0.0
 37
0.0
 40
1745.827467520234
 41
1.672794117647058
 42
50.0
 43
0.0
 44
0.0
 50
0.0
 51
0.0
 71
     0
 72
   500
 73
     1
 74
     0
 75
     0
 76
     0
 77
     0
 78
     0
  0
ENDTAB
  0
TABLE
  2
LTYPE
 70
     7
  0
LTYPE
  2
CONTINUOUS
 70
     0
  3
実線
 72
    65
 73
     0
 40
0.0
  0
LTYPE
  2
DOT
 70
     0
  3
...............................................
 72
    65
 73
     2
 40
0.8
 49
0.5
 49
-0.3
  0
LTYPE
  2
DASHED
 70
     0
  3
_ _ _ _ _ _ _ _ _ _ _ _ _ _ _ _ _ _ _ _ _ _ _
 72
    65
 73
     2
 40
1.999999999999999
 49
1.199999999999999
 49
-0.8
  0
LTYPE
  2
DASHDOT
 70
     0
  3
____ _ ____ _ ____ _ ____ _ ____ _ ____ _ ____
 72
    65
 73
     4
 40
5.5
 49
4.0
 49
-0.6
 49
0.3
 49
-0.6
  0
LTYPE
  2
DASHDOT1
 70
     0
  3
____ _ ____ _ ____ _ ____ _ ____ _ ____ _ ____
 72
    65
 73
     4
 40
2.0
 49
1.5
 49
-0.2
 49
0.1
 49
-0.2
  0
LTYPE
  2
DIVIDE
 70
     0
  3
_____ _ _ _____ _ _ _____ _ _ _____ _ _ ____
 72
    65
 73
     6
 40
6.4
 49
4.0
 49
-0.6
 49
0.3
 49
-0.6
 49
0.3
 49
-0.6
  0
LTYPE
  2
DIVIDE1
 70
     0
  3
_____ _ _ _____ _ _ _____ _ _ _____ _ _ ____
 72
    65
 73
     6
 40
3.2
 49
2.0
 49
-0.3
 49
0.15
 49
-0.3
 49
0.15
 49
-0.3
  0
ENDTAB
  0
TABLE
  2
LAYER
 70
    12
  0
LAYER
  2
0
 70
     0
 62
     7
  6
CONTINUOUS
  0
LAYER
  2
OUTLINE
 70
     0
 62
     3
  6
CONTINUOUS
  0
LAYER
  2
DETAIL
 70
     0
 62
     5
  6
CONTINUOUS
  0
LAYER
  2
BASIS
 70
     0
 62
     6
  6
DASHDOT
  0
LAYER
  2
SIZE
 70
     0
 62
    30
  6
CONTINUOUS
  0
LAYER
  2
NOTE
 70
     0
 62
     4
  6
CONTINUOUS
  0
LAYER
  2
ARRANGE
 70
     0
 62
     1
  6
CONTINUOUS
  0
LAYER
  2
FIX
 70
     0
 62
    11
  6
CONTINUOUS
  0
LAYER
  2
ETC
 70
     0
 62
    61
  6
CONTINUOUS
  0
LAYER
  2
DEFPOINTS
 70
     0
 62
     7
  6
CONTINUOUS
  0
LAYER
  2
SERVICESPACE
 70
     0
 62
     2
  6
DASHDOT
  0
LAYER
  2
SYMBOLLINE
 70
     0
 62
    15
  6
CONTINUOUS
  0
ENDTAB
  0
TABLE
  2
STYLE
 70
     1
  0
STYLE
  2
STANDARD
 70
     0
 40
0.0
 41
0.9
 50
0.0
 71
     0
 42
64.0
  3
SIMPLEX
  4
BIGFONT
  0
ENDTAB
  0
TABLE
  2
VIEW
 70
     1
  0
VIEW
  2
ALL
 70
     0
 40
4508.020851
 10
0.0
 20
41.30990399999999
 41
6252.631578999999
 11
0.0
 21
0.0
 31
1.0
 12
0.0
 22
0.0
 32
0.0
 42
50.0
 43
0.0
 44
0.0
 50
0.0
 71
     0
  0
ENDTAB
  0
TABLE
  2
UCS
 70
     0
  0
ENDTAB
  0
TABLE
  2
APPID
 70
     1
  0
APPID
  2
ACAD
 70
     0
  0
ENDTAB
  0
TABLE
  2
DIMSTYLE
 70
     1
  0
DIMSTYLE
  2
STANDARD
 70
     0
  3

  4

  5

  6

  7

 40
1.0
 41
0.18
 42
0.0625
 43
0.38
 44
0.18
 45
0.0
 46
0.0
 47
0.0
 48
0.0
140
0.18
141
0.09
142
0.0
143
25.4
144
1.0
145
0.0
146
1.0
147
0.09
 71
     0
 72
     0
 73
     1
 74
     1
 75
     0
 76
     0
 77
     0
 78
     0
170
     0
171
     2
172
     0
173
     0
174
     0
175
     0
176
     0
177
     0
178
     0
  0
ENDTAB
  0
ENDSEC
  0
SECTION
  2
BLOCKS
  0
BLOCK
  8
0
  2
$MODEL_SPACE
 70
     0
 10
0.0
 20
0.0
 30
0.0
  3
$MODEL_SPACE
  1

  0
ENDBLK
  5
2EB
  8
0
  0
BLOCK
 67
     1
  8
0
  2
$PAPER_SPACE
 70
     0
 10
0.0
 20
0.0
 30
0.0
  3
$PAPER_SPACE
  1

  0
ENDBLK
  5
2E7
 67
     1
  8
0
  0
ENDSEC
  0
SECTION
  2
ENTITIES
  0
LINE
  5
309
  8
DETAIL
  6
CONTINUOUS
 62
     5
 10
450.0
 20
-32.0
 30
0.0
 11
450.0
 21
-212.0
 31
0.0
  0
ARC
  5
30A
  8
DETAIL
  6
CONTINUOUS
 62
     5
 10
-455.4999999999999
 20
-5.5
 30
0.0
 40
3.2
 50
0.0
 51
90.0
  0
ARC
  5
30B
  8
DETAIL
  6
CONTINUOUS
 62
     5
 10
-455.4999999999999
 20
-5.5
 30
0.0
 40
5.5
 50
0.0
 51
90.0
  0
LINE
  5
30C
  8
DETAIL
  6
CONTINUOUS
 62
     5
 10
-508.0
 20
0.0
 30
0.0
 11
-508.0
 21
-7.0
 31
0.0
  0
LINE
  5
30D
  8
DETAIL
  6
CONTINUOUS
 62
     5
 10
-505.7
 20
-2.299999999999998
 30
0.0
 11
-455.4999999999999
 21
-2.299999999999998
 31
0.0
  0
LINE
  5
30E
  8
DETAIL
  6
CONTINUOUS
 62
     5
 10
-508.0
 20
0.0
 30
0.0
 11
-455.4999999999999
 21
0.0
 31
0.0
  0
LINE
  5
30F
  8
DETAIL
  6
CONTINUOUS
 62
     5
 10
-452.3
 20
-5.5
 30
0.0
 11
-452.3
 21
-92.0
 31
0.0
  0
LINE
  5
310
  8
DETAIL
  6
CONTINUOUS
 62
     5
 10
-450.0
 20
-5.5
 30
0.0
 11
-450.0
 21
-213.0
 31
0.0
  0
LINE
  5
311
  8
DETAIL
  6
CONTINUOUS
 62
     5
 10
-450.0
 20
-32.0
 30
0.0
 11
450.0
 21
-32.0
 31
0.0
  0
LINE
  5
312
  8
DETAIL
  6
CONTINUOUS
 62
     5
 10
-450.0
 20
-222.0
 30
0.0
 11
450.0
 21
-222.0
 31
0.0
  0
LINE
  5
313
  8
DETAIL
  6
CONTINUOUS
 62
     5
 10
-450.0
 20
-222.0
 30
0.0
 11
-450.0
 21
-37.0
 31
0.0
  0
LINE
  5
314
  8
DETAIL
  6
CONTINUOUS
 62
     5
 10
450.0
 20
-222.0
 30
0.0
 11
450.0
 21
-45.79999999999998
 31
0.0
  0
LINE
  5
315
  8
BASIS
  6
DASHDOT
 62
     6
 10
-530.8086369999999
 20
-126.0
 30
0.0
 11
503.5734099999999
 21
-126.0
 31
0.0
  0
LINE
  5
316
  8
BASIS
  6
DASHDOT
 62
     6
 10
0.0
 20
-277.7824699999998
 30
0.0
 11
0.0
 21
48.45545299999998
 31
0.0
  0
CIRCLE
  5
317
  8
FIX
  6
CONTINUOUS
 62
    11
 10
-490.0
 20
0.0
 30
0.0
 40
6.0
  0
CIRCLE
  5
318
  8
FIX
  6
CONTINUOUS
 62
    11
 10
490.0
 20
0.0
 30
0.0
 40
6.0
  0
LINE
  5
319
  8
NOTE
  6
CONTINUOUS
 62
     4
 10
577.6215389999999
 20
121.517751
 30
0.0
 11
841.4776320000001
 21
121.517751
 31
0.0
  0
TEXT
  5
31A
  8
NOTE
  6
CONTINUOUS
 62
     4
 10
592.321863
 20
150.1166579999998
 30
0.0
 40
64.0
  1
AH-4
 41
0.9
  0
LINE
  5
31B
  8
DETAIL
  6
CONTINUOUS
 62
     5
 10
-508.0
 20
-7.0
 30
0.0
 11
-505.7
 21
-7.0
 31
0.0
  0
LINE
  5
31C
  8
DETAIL
  6
CONTINUOUS
 62
     5
 10
-505.7
 20
-2.299999999999998
 30
0.0
 11
-505.7
 21
-7.0
 31
0.0
  0
LINE
  5
31D
  8
DETAIL
  6
CONTINUOUS
 62
     5
 10
505.7
 20
-2.299999999999998
 30
0.0
 11
505.7
 21
-7.0
 31
0.0
  0
LINE
  5
31E
  8
DETAIL
  6
CONTINUOUS
 62
     5
 10
508.0
 20
-7.0
 30
0.0
 11
505.7
 21
-7.0
 31
0.0
  0
LINE
  5
31F
  8
DETAIL
  6
CONTINUOUS
 62
     5
 10
452.3
 20
-5.5
 30
0.0
 11
452.3
 21
-194.0
 31
0.0
  0
LINE
  5
320
  8
DETAIL
  6
CONTINUOUS
 62
     5
 10
508.0
 20
0.0
 30
0.0
 11
455.4999999999999
 21
0.0
 31
0.0
  0
LINE
  5
321
  8
DETAIL
  6
CONTINUOUS
 62
     5
 10
505.7
 20
-2.299999999999998
 30
0.0
 11
455.4999999999999
 21
-2.299999999999998
 31
0.0
  0
LINE
  5
322
  8
DETAIL
  6
CONTINUOUS
 62
     5
 10
508.0
 20
0.0
 30
0.0
 11
508.0
 21
-7.0
 31
0.0
  0
ARC
  5
323
  8
DETAIL
  6
CONTINUOUS
 62
     5
 10
455.4999999999999
 20
-5.5
 30
0.0
 40
5.5
 50
90.0
 51
180.0
  0
ARC
  5
324
  8
DETAIL
  6
CONTINUOUS
 62
     5
 10
455.4999999999999
 20
-5.5
 30
0.0
 40
3.2
 50
90.0
 51
180.0
  0
LINE
  5
325
  8
DETAIL
  6
CONTINUOUS
 62
     5
 10
450.0
 20
-4.5
 30
0.0
 11
450.0
 21
-212.0
 31
0.0
  0
LINE
  5
326
  8
DETAIL
  6
CONTINUOUS
 62
     5
 10
-435.0
 20
-87.49999999999999
 30
0.0
 11
435.0
 21
-87.49999999999999
 31
0.0
  0
LINE
  5
327
  8
DETAIL
  6
CONTINUOUS
 62
     5
 10
-435.0
 20
-164.5
 30
0.0
 11
435.0
 21
-164.5
 31
0.0
  0
LINE
  5
328
  8
DETAIL
  6
CONTINUOUS
 62
     5
 10
-435.0
 20
-61.0
 30
0.0
 11
435.0
 21
-61.0
 31
0.0
  0
LINE
  5
329
  8
DETAIL
  6
CONTINUOUS
 62
     5
 10
-435.0
 20
-191.0
 30
0.0
 11
435.0
 21
-191.0
 31
0.0
  0
LINE
  5
32A
  8
DETAIL
  6
CONTINUOUS
 62
     5
 10
-435.0
 20
-222.0
 30
0.0
 11
-435.0
 21
-32.0
 31
0.0
  0
LINE
  5
32B
  8
DETAIL
  6
CONTINUOUS
 62
     5
 10
435.0
 20
-32.0
 30
0.0
 11
435.0
 21
-222.0
 31
0.0
  0
LINE
  5
32C
  8
DETAIL
  6
CONTINUOUS
 62
     5
 10
-484.0
 20
-191.0
 30
0.0
 11
-484.0
 21
-92.0
 31
0.0
  0
LINE
  5
32D
  8
SIZE
  6
CONTINUOUS
 62
    30
 10
-484.0
 20
-420.707928
 30
0.0
 11
-637.8304829999998
 21
-420.707928
 31
0.0
  0
LINE
  5
32E
  8
DETAIL
  6
CONTINUOUS
 62
     5
 10
-484.0
 20
-92.0
 30
0.0
 11
-450.0
 21
-92.0
 31
0.0
  0
LINE
  5
32F
  8
DETAIL
  6
CONTINUOUS
 62
     5
 10
-484.0
 20
-191.0
 30
0.0
 11
-450.0
 21
-191.0
 31
0.0
  0
TEXT
  5
330
  8
NOTE
  6
CONTINUOUS
 62
     4
 10
-1069.994
 20
144.2835289999998
 30
0.0
 40
64.0
  1
端子カバー
 41
0.9
  0
LINE
  5
331
  8
NOTE
  6
CONTINUOUS
 62
     4
 10
-1083.42
 20
124.1423259999999
 30
0.0
 11
-722.7227239999997
 21
124.1423259999999
 31
0.0
  0
LINE
  5
332
  8
SIZE
  6
CONTINUOUS
 62
    30
 10
784.661291
 20
-195.0
 30
0.0
 11
784.661291
 21
-380.6955179999999
 31
0.0
  0
LINE
  5
333
  8
SIZE
  6
CONTINUOUS
 62
    30
 10
647.223863
 20
-170.0
 30
0.0
 11
647.223863
 21
-338.175199
 31
0.0
  0
LINE
  5
334
  8
SIZE
  6
CONTINUOUS
 62
    30
 10
784.353105
 20
2.0
 30
0.0
 11
784.353105
 21
79.103475
 31
0.0
  0
LINE
  5
337
  8
SIZE
  6
CONTINUOUS
 62
    30
 10
-508.0
 20
72.23366800000002
 30
0.0
 11
-635.0455349999997
 21
72.23366800000002
 31
0.0
  0
LINE
  5
338
  8
DETAIL
  6
CONTINUOUS
 62
     5
 10
-257.5
 20
-191.0
 30
0.0
 11
-257.5
 21
-164.5
 31
0.0
  0
LINE
  5
339
  8
DETAIL
  6
CONTINUOUS
 62
     5
 10
-252.4999999999999
 20
-191.0
 30
0.0
 11
-252.4999999999999
 21
-164.5
 31
0.0
  0
LINE
  5
33A
  8
DETAIL
  6
CONTINUOUS
 62
     5
 10
-87.5
 20
-191.0
 30
0.0
 11
-87.5
 21
-164.5
 31
0.0
  0
LINE
  5
33B
  8
DETAIL
  6
CONTINUOUS
 62
     5
 10
-82.5
 20
-191.0
 30
0.0
 11
-82.5
 21
-164.5
 31
0.0
  0
LINE
  5
33C
  8
DETAIL
  6
CONTINUOUS
 62
     5
 10
-257.5
 20
-87.49999999999999
 30
0.0
 11
-257.5
 21
-61.0
 31
0.0
  0
LINE
  5
33D
  8
DETAIL
  6
CONTINUOUS
 62
     5
 10
-252.4999999999999
 20
-87.49999999999999
 30
0.0
 11
-252.4999999999999
 21
-61.0
 31
0.0
  0
LINE
  5
33E
  8
DETAIL
  6
CONTINUOUS
 62
     5
 10
-82.5
 20
-87.49999999999999
 30
0.0
 11
-82.5
 21
-61.0
 31
0.0
  0
LINE
  5
33F
  8
DETAIL
  6
CONTINUOUS
 62
     5
 10
-87.5
 20
-87.49999999999999
 30
0.0
 11
-87.5
 21
-61.0
 31
0.0
  0
LINE
  5
340
  8
DETAIL
  6
CONTINUOUS
 62
     5
 10
82.5
 20
-87.49999999999999
 30
0.0
 11
82.5
 21
-61.0
 31
0.0
  0
LINE
  5
341
  8
DETAIL
  6
CONTINUOUS
 62
     5
 10
87.5
 20
-87.49999999999999
 30
0.0
 11
87.5
 21
-61.0
 31
0.0
  0
LINE
  5
342
  8
DETAIL
  6
CONTINUOUS
 62
     5
 10
252.4999999999999
 20
-87.49999999999999
 30
0.0
 11
252.4999999999999
 21
-61.0
 31
0.0
  0
LINE
  5
343
  8
DETAIL
  6
CONTINUOUS
 62
     5
 10
257.5
 20
-87.49999999999999
 30
0.0
 11
257.5
 21
-61.0
 31
0.0
  0
LINE
  5
344
  8
DETAIL
  6
CONTINUOUS
 62
     5
 10
257.5
 20
-191.0
 30
0.0
 11
257.5
 21
-164.5
 31
0.0
  0
LINE
  5
345
  8
DETAIL
  6
CONTINUOUS
 62
     5
 10
252.4999999999999
 20
-191.0
 30
0.0
 11
252.4999999999999
 21
-164.5
 31
0.0
  0
LINE
  5
346
  8
DETAIL
  6
CONTINUOUS
 62
     5
 10
87.5
 20
-191.0
 30
0.0
 11
87.5
 21
-164.5
 31
0.0
  0
LINE
  5
347
  8
DETAIL
  6
CONTINUOUS
 62
     5
 10
82.5
 20
-191.0
 30
0.0
 11
82.5
 21
-164.5
 31
0.0
  0
LINE
  5
348
  8
SIZE
  6
BYBLOCK
 62
    30
 10
470.0
 20
-32.0
 30
0.0
 11
958.0072559999999
 21
-32.0
 31
0.0
  0
LINE
  5
349
  8
SIZE
  6
BYBLOCK
 62
    30
 10
470.0
 20
-222.0
 30
0.0
 11
958.0072559999999
 21
-222.0
 31
0.0
  0
LINE
  5
34A
  8
SIZE
  6
BYBLOCK
 62
    30
 10
928.007256
 20
-34.0
 30
0.0
 11
928.007256
 21
-220.0
 31
0.0
  0
TEXT
  5
34B
  8
SIZE
  6
BYBLOCK
 62
    30
 10
896.007256
 20
-195.571429
 30
0.0
 40
64.0
  1
190
 50
90.0
 41
0.9
  0
LINE
  5
34C
  8
SIZE
  6
BYBLOCK
 62
    30
 10
-508.0
 20
21.0
 30
0.0
 11
-508.0
 21
102.2336679999998
 31
0.0
  0
LINE
  5
34D
  8
SIZE
  6
BYBLOCK
 62
    30
 10
-450.0
 20
15.5
 30
0.0
 11
-450.0
 21
102.2336679999998
 31
0.0
  0
LINE
  5
34E
  8
SIZE
  6
BYBLOCK
 62
    30
 10
-448.0
 20
72.23366800000002
 30
0.0
 11
-446.0
 21
72.23366800000002
 31
0.0
  0
LINE
  5
34F
  8
SIZE
  6
BYBLOCK
 62
    30
 10
-510.0
 20
72.23366800000002
 30
0.0
 11
-512.0
 21
72.23366800000002
 31
0.0
  0
LINE
  5
350
  8
SIZE
  6
BYBLOCK
 62
    30
 10
-450.0
 20
72.23366800000002
 30
0.0
 11
-508.0
 21
72.23366800000002
 31
0.0
  0
TEXT
  5
351
  8
SIZE
  6
BYBLOCK
 62
    30
 10
-628.6079899999997
 20
104.233668
 30
0.0
 40
64.0
  1
58
 41
0.9
  0
LINE
  5
352
  8
SIZE
  6
BYBLOCK
 62
    30
 10
528.0
 20
-7.0
 30
0.0
 11
814.3531049999996
 21
-7.0
 31
0.0
  0
LINE
  5
353
  8
SIZE
  6
BYBLOCK
 62
    30
 10
528.0
 20
0.0
 30
0.0
 11
814.3531049999996
 21
0.0
 31
0.0
  0
LINE
  5
354
  8
SIZE
  6
BYBLOCK
 62
    30
 10
784.353105
 20
2.0
 30
0.0
 11
784.353105
 21
4.0
 31
0.0
  0
LINE
  5
355
  8
SIZE
  6
BYBLOCK
 62
    30
 10
784.353105
 20
-9.0
 30
0.0
 11
784.353105
 21
-11.0
 31
0.0
  0
LINE
  5
356
  8
SIZE
  6
BYBLOCK
 62
    30
 10
784.353105
 20
0.0
 30
0.0
 11
784.353105
 21
-7.0
 31
0.0
  0
TEXT
  5
357
  8
SIZE
  6
BYBLOCK
 62
    30
 10
752.353105
 20
29.66589799999999
 30
0.0
 40
64.0
  1
7
 50
90.0
 41
0.9
  0
LINE
  5
358
  8
SIZE
  6
BYBLOCK
 62
    30
 10
455.0
 20
-87.49999999999999
 30
0.0
 11
677.2238630000002
 21
-87.49999999999999
 31
0.0
  0
LINE
  5
359
  8
SIZE
  6
BYBLOCK
 62
    30
 10
455.0
 20
-164.5
 30
0.0
 11
677.2238630000002
 21
-164.5
 31
0.0
  0
LINE
  5
35A
  8
SIZE
  6
BYBLOCK
 62
    30
 10
647.223863
 20
-166.5
 30
0.0
 11
647.223863
 21
-168.5
 31
0.0
  0
LINE
  5
35B
  8
SIZE
  6
BYBLOCK
 62
    30
 10
647.223863
 20
-85.5
 30
0.0
 11
647.223863
 21
-83.50000000000001
 31
0.0
  0
LINE
  5
35C
  8
SIZE
  6
BYBLOCK
 62
    30
 10
647.223863
 20
-166.0
 30
0.0
 11
647.223863
 21
-86.0
 31
0.0
  0
TEXT
  5
35D
  8
SIZE
  6
BYBLOCK
 62
    30
 10
615.2238630000002
 20
-322.568643
 30
0.0
 40
64.0
  1
77
 50
90.0
 41
0.9
  0
LINE
  5
35E
  8
SIZE
  6
BYBLOCK
 62
    30
 10
455.0
 20
-61.0
 30
0.0
 11
814.6612909999999
 21
-61.0
 31
0.0
  0
LINE
  5
35F
  8
SIZE
  6
BYBLOCK
 62
    30
 10
455.0
 20
-191.0
 30
0.0
 11
814.6612909999999
 21
-191.0
 31
0.0
  0
LINE
  5
360
  8
SIZE
  6
BYBLOCK
 62
    30
 10
784.661291
 20
-193.0
 30
0.0
 11
784.661291
 21
-195.0
 31
0.0
  0
LINE
  5
361
  8
SIZE
  6
BYBLOCK
 62
    30
 10
784.661291
 20
-59.0
 30
0.0
 11
784.661291
 21
-57.0
 31
0.0
  0
LINE
  5
362
  8
SIZE
  6
BYBLOCK
 62
    30
 10
784.661291
 20
-191.0
 30
0.0
 11
784.661291
 21
-61.0
 31
0.0
  0
TEXT
  5
363
  8
SIZE
  6
BYBLOCK
 62
    30
 10
752.6612909999999
 20
-369.128527
 30
0.0
 40
64.0
  1
130
 50
90.0
 41
0.9
  0
LINE
  5
364
  8
SIZE
  6
BYBLOCK
 62
    30
 10
508.0
 20
21.0
 30
0.0
 11
508.0
 21
283.9424279999999
 31
0.0
  0
LINE
  5
365
  8
SIZE
  6
BYBLOCK
 62
    30
 10
-508.0
 20
21.0
 30
0.0
 11
-508.0
 21
283.9424279999999
 31
0.0
  0
LINE
  5
366
  8
SIZE
  6
BYBLOCK
 62
    30
 10
506.0
 20
253.9424279999997
 30
0.0
 11
0.0
 21
253.9424279999997
 31
0.0
  0
LINE
  5
367
  8
SIZE
  6
BYBLOCK
 62
    30
 10
-506.0
 20
253.9424279999997
 30
0.0
 11
0.0
 21
253.9424279999997
 31
0.0
  0
TEXT
  5
368
  8
SIZE
  6
BYBLOCK
 62
    30
 10
-89.14285699999996
 20
285.942428
 30
0.0
 40
64.0
  1
1016
 41
0.9
  0
LINE
  5
369
  8
SIZE
  6
BYBLOCK
 62
    30
 10
-450.0
 20
-242.0
 30
0.0
 11
-450.0
 21
-450.7079279999999
 31
0.0
  0
LINE
  5
36A
  8
SIZE
  6
BYBLOCK
 62
    30
 10
-484.0
 20
-206.1614208993004
 30
0.0
 11
-484.0
 21
-450.7079279999999
 31
0.0
  0
LINE
  5
36B
  8
SIZE
  6
BYBLOCK
 62
    30
 10
-486.0
 20
-420.707928
 30
0.0
 11
-488.0
 21
-420.707928
 31
0.0
  0
LINE
  5
36C
  8
SIZE
  6
BYBLOCK
 62
    30
 10
-448.0
 20
-420.707928
 30
0.0
 11
-446.0
 21
-420.707928
 31
0.0
  0
LINE
  5
36D
  8
SIZE
  6
BYBLOCK
 62
    30
 10
-484.0
 20
-420.707928
 30
0.0
 11
-450.0
 21
-420.707928
 31
0.0
  0
TEXT
  5
36E
  8
SIZE
  6
BYBLOCK
 62
    30
 10
-611.1824229999997
 20
-388.7079279999999
 30
0.0
 40
64.0
  1
34
 41
0.9
  0
LINE
  5
36F
  8
SIZE
  6
BYBLOCK
 62
    30
 10
-584.2745019999998
 20
-91.0
 30
0.0
 11
-584.2745019999998
 21
-191.0
 31
0.0
  0
TEXT
  5
370
  8
SIZE
  6
BYBLOCK
 62
    30
 10
-616.274502
 20
-185.7571429999999
 30
0.0
 40
64.0
  1
99
 50
90.0
 41
0.9
  0
LINE
  5
371
  8
SIZE
  6
BYBLOCK
 62
    30
 10
450.0
 20
-242.0
 30
0.0
 11
450.0
 21
-450.7079279999999
 31
0.0
  0
LINE
  5
372
  8
SIZE
  6
BYBLOCK
 62
    30
 10
-450.0
 20
-242.0
 30
0.0
 11
-450.0
 21
-450.7079279999999
 31
0.0
  0
LINE
  5
373
  8
SIZE
  6
BYBLOCK
 62
    30
 10
448.0
 20
-420.707928
 30
0.0
 11
0.0
 21
-420.707928
 31
0.0
  0
LINE
  5
374
  8
SIZE
  6
BYBLOCK
 62
    30
 10
-448.0
 20
-420.707928
 30
0.0
 11
0.0
 21
-420.707928
 31
0.0
  0
TEXT
  5
375
  8
SIZE
  6
BYBLOCK
 62
    30
 10
-74.05714300000002
 20
-388.7079279999999
 30
0.0
 40
64.0
  1
900
 41
0.9
  0
LINE
  5
376
  8
SIZE
  6
BYBLOCK
 62
    30
 10
-470.0
 20
-222.0
 30
0.0
 11
-746.643499
 21
-222.0
 31
0.0
  0
LINE
  5
377
  8
SIZE
  6
BYBLOCK
 62
    30
 10
-528.0
 20
0.0
 30
0.0
 11
-746.643499
 21
0.0
 31
0.0
  0
LINE
  5
378
  8
SIZE
  6
BYBLOCK
 62
    30
 10
-716.6434989999997
 20
-220.0
 30
0.0
 11
-716.6434989999997
 21
-110.4999999999999
 31
0.0
  0
LINE
  5
379
  8
SIZE
  6
BYBLOCK
 62
    30
 10
-716.6434989999997
 20
-1.0
 30
0.0
 11
-716.6434989999997
 21
-110.4999999999999
 31
0.0
  0
TEXT
  5
37A
  8
SIZE
  6
BYBLOCK
 62
    30
 10
-748.643499
 20
-184.5571429999999
 30
0.0
 40
64.0
  1
222
 50
90.0
 41
0.9
  0
LINE
  5
37B
  8
SIZE
  6
BYBLOCK
 62
    30
 10
490.0
 20
39.85
 30
0.0
 11
490.0
 21
154.599186
 31
0.0
  0
LINE
  5
37C
  8
SIZE
  6
BYBLOCK
 62
    30
 10
-490.0
 20
39.85
 30
0.0
 11
-490.0
 21
154.599186
 31
0.0
  0
LINE
  5
37D
  8
SIZE
  6
BYBLOCK
 62
    30
 10
488.0
 20
124.599186
 30
0.0
 11
0.0
 21
124.599186
 31
0.0
  0
LINE
  5
37E
  8
SIZE
  6
BYBLOCK
 62
    30
 10
-488.0
 20
124.599186
 30
0.0
 11
0.0
 21
124.599186
 31
0.0
  0
TEXT
  5
37F
  8
SIZE
  6
BYBLOCK
 62
    30
 10
-74.05714300000002
 20
156.5991859999998
 30
0.0
 40
64.0
  1
980
 41
0.9
  0
CIRCLE
  5
380
  8
SIZE
  6
CONTINUOUS
 62
    30
 10
-490.0
 20
124.599186
 30
0.0
 40
6.0
  0
CIRCLE
  5
381
  8
SIZE
  6
CONTINUOUS
 62
    30
 10
490.0
 20
124.599186
 30
0.0
 40
6.0
  0
CIRCLE
  5
382
  8
SIZE
  6
CONTINUOUS
 62
    30
 10
-716.6434989999997
 20
0.0
 30
0.0
 40
6.0
  0
CIRCLE
  5
383
  8
SIZE
  6
CONTINUOUS
 62
    30
 10
-716.6434989999997
 20
-222.0
 30
0.0
 40
6.0
  0
CIRCLE
  5
384
  8
SIZE
  6
CONTINUOUS
 62
    30
 10
-450.0
 20
-420.707928
 30
0.0
 40
6.0
  0
CIRCLE
  5
385
  8
SIZE
  6
CONTINUOUS
 62
    30
 10
450.0
 20
-420.707928
 30
0.0
 40
6.0
  0
CIRCLE
  5
386
  8
SIZE
  6
CONTINUOUS
 62
    30
 10
-584.2745019999998
 20
-190.0
 30
0.0
 40
6.0
  0
CIRCLE
  5
387
  8
SIZE
  6
CONTINUOUS
 62
    30
 10
-584.2745019999998
 20
-91.0
 30
0.0
 40
6.0
  0
CIRCLE
  5
388
  8
SIZE
  6
CONTINUOUS
 62
    30
 10
-450.0
 20
-420.707928
 30
0.0
 40
6.0
  0
CIRCLE
  5
389
  8
SIZE
  6
CONTINUOUS
 62
    30
 10
-484.0
 20
-420.707928
 30
0.0
 40
6.0
  0
CIRCLE
  5
38A
  8
SIZE
  6
CONTINUOUS
 62
    30
 10
-508.0
 20
253.9424279999997
 30
0.0
 40
6.0
  0
CIRCLE
  5
38B
  8
SIZE
  6
CONTINUOUS
 62
    30
 10
508.0
 20
253.9424279999997
 30
0.0
 40
6.0
  0
CIRCLE
  5
38C
  8
SIZE
  6
CONTINUOUS
 62
    30
 10
784.661291
 20
-61.0
 30
0.0
 40
6.0
  0
CIRCLE
  5
38D
  8
SIZE
  6
CONTINUOUS
 62
    30
 10
784.661291
 20
-191.0
 30
0.0
 40
6.0
  0
CIRCLE
  5
38E
  8
SIZE
  6
CONTINUOUS
 62
    30
 10
647.223863
 20
-87.49999999999999
 30
0.0
 40
6.0
  0
CIRCLE
  5
38F
  8
SIZE
  6
CONTINUOUS
 62
    30
 10
647.223863
 20
-164.5
 30
0.0
 40
6.0
  0
CIRCLE
  5
390
  8
SIZE
  6
CONTINUOUS
 62
    30
 10
784.353105
 20
-7.0
 30
0.0
 40
6.0
  0
CIRCLE
  5
391
  8
SIZE
  6
CONTINUOUS
 62
    30
 10
784.353105
 20
0.0
 30
0.0
 40
6.0
  0
CIRCLE
  5
392
  8
SIZE
  6
CONTINUOUS
 62
    30
 10
-508.0
 20
72.23366800000002
 30
0.0
 40
6.0
  0
CIRCLE
  5
393
  8
SIZE
  6
CONTINUOUS
 62
    30
 10
-450.0
 20
72.23366800000002
 30
0.0
 40
6.0
  0
CIRCLE
  5
394
  8
SIZE
  6
CONTINUOUS
 62
    30
 10
928.007256
 20
-222.0
 30
0.0
 40
6.0
  0
CIRCLE
  5
395
  8
SIZE
  6
CONTINUOUS
 62
    30
 10
928.007256
 20
-32.0
 30
0.0
 40
6.0
  0
LINE
  5
396
  8
NOTE
  6
CONTINUOUS
 62
     4
 10
490.0
 20
-20.0
 30
0.0
 11
490.0
 21
20.0
 31
0.0
  0
LINE
  5
397
  8
NOTE
  6
CONTINUOUS
 62
     4
 10
470.0
 20
0.0
 30
0.0
 11
510.0
 21
0.0
 31
0.0
  0
LINE
  5
398
  8
NOTE
  6
CONTINUOUS
 62
     4
 10
-490.0
 20
-20.0
 30
0.0
 11
-490.0
 21
20.0
 31
0.0
  0
LINE
  5
399
  8
NOTE
  6
CONTINUOUS
 62
     4
 10
-510.0
 20
0.0
 30
0.0
 11
-470.0
 21
0.0
 31
0.0
  0
TEXT
  5
39A
  8
ETC
  6
CONTINUOUS
 62
    61
 10
1126.90551641766
 20
-493.9488579672003
 30
0.0
 40
50.0
  1
AH-2009TCA-G
 41
0.9
  0
TEXT
  5
39B
  8
ETC
  6
CONTINUOUS
 62
    61
 10
1126.90551641766
 20
-416.5891002253579
 30
0.0
 40
50.0
  1
AH-2009TCA
 41
0.9
  0
TEXT
  5
39C
  8
ETC
  6
CONTINUOUS
 62
    61
 10
1126.90551641766
 20
-342.204721221297
 30
0.0
 40
50.0
  1
AH-2009WA-G
 41
0.9
  0
TEXT
  5
39D
  8
ETC
  6
CONTINUOUS
 62
    61
 10
1126.90551641766
 20
-270.7957135016446
 30
0.0
 40
50.0
  1
AH-2009WA
 41
0.9
  0
TEXT
  5
39E
  8
ETC
  6
CONTINUOUS
 62
    61
 10
1126.90551641766
 20
-202.3620845197733
 30
0.0
 40
50.0
  1
AH-2009SA-G
 41
0.9
  0
TEXT
  5
39F
  8
ETC
  6
CONTINUOUS
 62
    61
 10
1126.90551641766
 20
-125.0023267779311
 30
0.0
 40
50.0
  1
AH-2009SA
 41
0.9
  0
TEXT
  5
3A0
  8
ETC
  6
CONTINUOUS
 62
    61
 10
1126.90551641766
 20
-47.64256903608897
 30
0.0
 40
50.0
  1
AH-1509TCA-G
 41
0.9
  0
TEXT
  5
3A1
  8
ETC
  6
CONTINUOUS
 62
    61
 10
1126.90551641766
 20
26.74180996797201
 30
0.0
 40
50.0
  1
AH-1509TCA
 41
0.9
  0
TEXT
  5
3A2
  8
ETC
  6
CONTINUOUS
 62
    61
 10
1126.90551641766
 20
107.0769389942227
 30
0.0
 40
50.0
  1
AH-1509WA-G
 41
0.9
  0
TEXT
  5
3A3
  8
ETC
  6
CONTINUOUS
 62
    61
 10
1126.90551641766
 20
184.4366892826921
 30
0.0
 40
50.0
  1
AH-1509WA
 41
0.9
  0
TEXT
  5
3A4
  8
ETC
  6
CONTINUOUS
 62
    61
 10
1126.90551641766
 20
255.8456970023447
 30
0.0
 40
50.0
  1
AH-1509SA-G
 41
0.9
  0
TEXT
  5
3A5
  8
ETC
  6
CONTINUOUS
 62
    61
 10
1126.90551641766
 20
330.2300760064057
 30
0.0
 40
50.0
  1
AH-1509SA
 41
0.9
  0
TEXT
  5
3A6
  8
ETC
  6
CONTINUOUS
 62
    61
 10
1018.657150793685
 20
511.6188380405523
 30
0.0
 40
64.0
  1
AH-1509SA_2
 41
0.9
  0
TEXT
  5
3A7
  8
ETC
  6
CONTINUOUS
 62
    61
 10
1013.728210793684
 20
410.4207280405523
 30
0.0
 40
64.0
  1
産業扇
 41
0.9
  0
ARC
  5
3A8
  8
DETAIL
  6
CONTINUOUS
 62
     5
 10
-340.0
 20
-126.0
 30
0.0
 40
70.0
 50
291.7867892982616
 51
326.6329870307682
  0
ARC
  5
3A9
  8
DETAIL
  6
CONTINUOUS
 62
     5
 10
-170.0
 20
-125.9999999999999
 30
0.0
 40
70.0
 50
111.7867892982618
 51
146.6329870307681
  0
ARC
  5
3AA
  8
DETAIL
  6
CONTINUOUS
 62
     5
 10
0.0
 20
-126.0
 30
0.0
 40
70.0
 50
291.7867892982616
 51
326.6329870307682
  0
ARC
  5
3AB
  8
DETAIL
  6
CONTINUOUS
 62
     5
 10
170.0
 20
-126.0
 30
0.0
 40
70.0
 50
291.7867892982616
 51
326.6329870307682
  0
ARC
  5
3AC
  8
DETAIL
  6
CONTINUOUS
 62
     5
 10
340.0
 20
-126.0
 30
0.0
 40
70.0
 50
111.7867892982618
 51
146.6329870307681
  0
ARC
  5
3AD
  8
DETAIL
  6
CONTINUOUS
 62
     5
 10
340.0
 20
-126.0
 30
0.0
 40
70.0
 50
213.3670129692316
 51
248.2132107017382
  0
ARC
  5
3AE
  8
DETAIL
  6
CONTINUOUS
 62
     5
 10
340.0
 20
-126.0
 30
0.0
 40
70.0
 50
33.36701296923175
 51
68.21321070173818
  0
ARC
  5
3AF
  8
DETAIL
  6
CONTINUOUS
 62
     5
 10
340.0
 20
-126.0
 30
0.0
 40
70.0
 50
291.7867892982616
 51
326.6329870307682
  0
ARC
  5
3B0
  8
DETAIL
  6
CONTINUOUS
 62
     5
 10
170.0
 20
-126.0
 30
0.0
 40
70.0
 50
33.36701296923175
 51
68.21321070173818
  0
ARC
  5
3B1
  8
DETAIL
  6
CONTINUOUS
 62
     5
 10
170.0
 20
-126.0
 30
0.0
 40
70.0
 50
111.7867892982618
 51
146.6329870307681
  0
ARC
  5
3B2
  8
DETAIL
  6
CONTINUOUS
 62
     5
 10
170.0
 20
-126.0
 30
0.0
 40
70.0
 50
213.3670129692316
 51
248.2132107017382
  0
ARC
  5
3B3
  8
DETAIL
  6
CONTINUOUS
 62
     5
 10
0.0
 20
-126.0
 30
0.0
 40
70.0
 50
111.7867892982618
 51
146.6329870307681
  0
ARC
  5
3B4
  8
DETAIL
  6
CONTINUOUS
 62
     5
 10
0.0
 20
-126.0
 30
0.0
 40
70.0
 50
213.3670129692316
 51
248.2132107017382
  0
ARC
  5
3B5
  8
DETAIL
  6
CONTINUOUS
 62
     5
 10
0.0
 20
-126.0
 30
0.0
 40
70.0
 50
33.36701296923175
 51
68.21321070173818
  0
ARC
  5
3B6
  8
DETAIL
  6
CONTINUOUS
 62
     5
 10
-170.0
 20
-125.9999999999999
 30
0.0
 40
70.0
 50
180.0
 51
248.2132107017382
  0
ARC
  5
3B7
  8
DETAIL
  6
CONTINUOUS
 62
     5
 10
-170.0
 20
-125.9999999999999
 30
0.0
 40
70.0
 50
33.36701296923172
 51
68.21321070173818
  0
ARC
  5
3B8
  8
DETAIL
  6
CONTINUOUS
 62
     5
 10
-170.0
 20
-125.9999999999999
 30
0.0
 40
70.0
 50
291.7867892982616
 51
326.6329870307682
  0
ARC
  5
3B9
  8
DETAIL
  6
CONTINUOUS
 62
     5
 10
-340.0
 20
-126.0
 30
0.0
 40
70.0
 50
33.36701296923175
 51
68.21321070173818
  0
ARC
  5
3BA
  8
DETAIL
  6
CONTINUOUS
 62
     5
 10
-340.0
 20
-126.0
 30
0.0
 40
70.0
 50
111.7867892982618
 51
146.6329870307681
  0
ARC
  5
3BB
  8
DETAIL
  6
CONTINUOUS
 62
     5
 10
-340.0
 20
-126.0
 30
0.0
 40
70.0
 50
213.3670129692316
 51
248.2132107017382
  0
LINE
  5
3BC
  8
DETAIL
  6
CONTINUOUS
 62
     5
 10
-452.3
 20
-194.0
 30
0.0
 11
-450.0
 21
-194.0
 31
0.0
  0
LINE
  5
3BD
  8
SIZE
  6
CONTINUOUS
 62
    30
 10
-498.2025975739488
 20
-191.0
 30
0.0
 11
-608.5969683117419
 21
-191.0
 31
0.0
  0
LINE
  5
3BE
  8
SIZE
  6
CONTINUOUS
 62
    30
 10
-499.8025103209693
 20
-92.0
 30
0.0
 11
-605.3971232580298
 21
-92.0
 31
0.0
  0
LINE
  5
3BF
  8
DETAIL
  6
CONTINUOUS
 62
     5
 10
452.3
 20
-194.0
 30
0.0
 11
450.0
 21
-194.0
 31
0.0
  0
LINE
  5
3C0
  8
NOTE
  6
CONTINUOUS
 62
     4
 10
577.6215389999999
 20
121.517751
 30
0.0
 11
490.0
 21
0.0
 31
0.0
  0
LINE
  5
3C1
  8
NOTE
  6
CONTINUOUS
 62
     4
 10
-722.7227239999997
 20
124.1423259999999
 30
0.0
 11
-484.0
 21
-92.0
 31
0.0
  0
LINE
  5
3C2
  8
NOTE
  6
CONTINUOUS
 62
     4
 10
-521.0177036601796
 20
-71.8670032742666
 30
0.0
 11
-484.0
 21
-92.0
 31
0.0
  0
LINE
  5
3C3
  8
NOTE
  6
CONTINUOUS
 62
     4
 10
-484.0
 20
-92.0
 30
0.0
 11
-504.2185660273771
 21
-58.27768403244136
 31
0.0
  0
LINE
  5
3C4
  8
NOTE
  6
CONTINUOUS
 62
     4
 10
504.1299904172356
 20
40.04501238945431
 30
0.0
 11
490.0
 21
0.0
 31
0.0
  0
LINE
  5
3C5
  8
NOTE
  6
CONTINUOUS
 62
     4
 10
490.0
 20
0.0
 30
0.0
 11
528.1287696410528
 21
25.65632625106081
 31
0.0
  0
LINE
  5
3C6
  8
OUTLINE
  6
CONTINUOUS
 62
     3
 10
-450.0
 20
-32.0
 30
0.0
 11
450.0
 21
-32.0
 31
0.0
  0
LINE
  5
3C7
  8
OUTLINE
  6
CONTINUOUS
 62
     3
 10
450.0
 20
-32.0
 30
0.0
 11
450.0
 21
-222.0
 31
0.0
  0
LINE
  5
3C8
  8
OUTLINE
  6
CONTINUOUS
 62
     3
 10
450.0
 20
-222.0
 30
0.0
 11
-450.0
 21
-222.0
 31
0.0
  0
LINE
  5
3C9
  8
DETAIL
  6
CONTINUOUS
 62
     5
 10
-452.3
 20
-191.0
 30
0.0
 11
-452.3
 21
-194.0
 31
0.0
  0
LINE
  5
3CA
  8
OUTLINE
  6
CONTINUOUS
 62
     3
 10
-450.0
 20
-32.0
 30
0.0
 11
-450.0
 21
-222.0
 31
0.0
  0
CIRCLE
  5
3D7
  8
ARRANGE
  6
CONTINUOUS
 62
     1
 10
0.0
 20
0.0
 30
0.0
 40
40.0
  0
LINE
  5
3D8
  8
ARRANGE
  6
CONTINUOUS
 62
     1
 10
-14.14213562373095
 20
-14.14213562373095
 30
0.0
 11
14.14213562373098
 21
14.14213562373083
 31
0.0
  0
LINE
  5
3D9
  8
ARRANGE
  6
CONTINUOUS
 62
     1
 10
14.14213562373095
 20
-14.14213562373095
 30
0.0
 11
-14.14213562373089
 21
14.14213562373095
 31
0.0
  0
ENDSEC
  0
EOF
