  0
SECTION
  2
HEADER
  9
$ACADVER
  1
AC1009
  9
$DWGCODEPAGE
  3
ansi_932
  9
$INSBASE
 10
0.0
 20
0.0
 30
0.0
  9
$EXTMIN
 10
-841.4776320000001
 20
-507.7359051637457
 30
0.0
  9
$EXTMAX
 10
1756.480650045351
 20
642.5872815694538
 30
0.0
  9
$LIMMIN
 10
-2970.0
 20
-2100.0
  9
$LIMMAX
 10
2970.0
 20
2100.0
  9
$ORTHOMODE
 70
     1
  9
$REGENMODE
 70
     0
  9
$FILLMODE
 70
     1
  9
$QTEXTMODE
 70
     0
  9
$MIRRTEXT
 70
     0
  9
$DRAGMODE
 70
     2
  9
$LTSCALE
 40
20.0
  9
$OSMODE
 70
    37
  9
$ATTMODE
 70
     1
  9
$TEXTSIZE
 40
64.0
  9
$TRACEWID
 40
0.05
  9
$TEXTSTYLE
  7
STANDARD
  9
$CLAYER
  8
OUTLINE
  9
$CELTYPE
  6
CONTINUOUS
  9
$CECOLOR
 62
     3
  9
$DIMSCALE
 40
1.0
  9
$DIMASZ
 40
2.0
  9
$DIMEXO
 40
20.0
  9
$DIMDLI
 40
200.0
  9
$DIMRND
 40
0.0
  9
$DIMDLE
 40
0.0
  9
$DIMEXE
 40
30.0
  9
$DIMTP
 40
0.0
  9
$DIMTM
 40
0.0
  9
$DIMTXT
 40
64.0
  9
$DIMCEN
 40
0.09
  9
$DIMTSZ
 40
0.0
  9
$DIMTOL
 70
     0
  9
$DIMLIM
 70
     0
  9
$DIMTIH
 70
     0
  9
$DIMTOH
 70
     0
  9
$DIMSE1
 70
     0
  9
$DIMSE2
 70
     0
  9
$DIMTAD
 70
     1
  9
$DIMZIN
 70
     8
  9
$DIMBLK
  1

  9
$DIMASO
 70
     1
  9
$DIMSHO
 70
     0
  9
$DIMPOST
  1

  9
$DIMAPOST
  1

  9
$DIMALT
 70
     0
  9
$DIMALTD
 70
     2
  9
$DIMALTF
 40
25.4
  9
$DIMLFAC
 40
1.0
  9
$DIMTOFL
 70
     1
  9
$DIMTVP
 40
0.0
  9
$DIMTIX
 70
     1
  9
$DIMSOXD
 70
     0
  9
$DIMSAH
 70
     0
  9
$DIMBLK1
  1

  9
$DIMBLK2
  1

  9
$DIMSTYLE
  2
STANDARD
  9
$DIMCLRD
 70
     0
  9
$DIMCLRE
 70
     0
  9
$DIMCLRT
 70
     0
  9
$DIMTFAC
 40
1.0
  9
$DIMGAP
 40
0.09
  9
$LUNITS
 70
     2
  9
$LUPREC
 70
     4
  9
$SKETCHINC
 40
0.1
  9
$FILLETRAD
 40
5.0
  9
$AUNITS
 70
     1
  9
$AUPREC
 70
     3
  9
$MENU
  1
ACAD
  9
$ELEVATION
 40
0.0
  9
$PELEVATION
 40
0.0
  9
$THICKNESS
 40
0.0
  9
$LIMCHECK
 70
     1
  9
$CHAMFERA
 40
0.0
  9
$CHAMFERB
 40
0.0
  9
$SKPOLY
 70
     0
  9
$TDCREATE
 40
2451816.548194433
  9
$TDUPDATE
 40
2457485.550219386
  9
$TDINDWG
 40
0.0184798032
  9
$TDUSRTIMER
 40
0.0184798032
  9
$USRTIMER
 70
     1
  9
$ANGBASE
 50
0.0
  9
$ANGDIR
 70
     0
  9
$PDMODE
 70
     3
  9
$PDSIZE
 40
-2.0
  9
$PLINEWID
 40
0.0
  9
$COORDS
 70
     1
  9
$SPLFRAME
 70
     0
  9
$SPLINETYPE
 70
     6
  9
$SPLINESEGS
 70
     8
  9
$ATTDIA
 70
     0
  9
$ATTREQ
 70
     1
  9
$HANDLING
 70
     1
  9
$HANDSEED
  5
30C
  9
$SURFTAB1
 70
     6
  9
$SURFTAB2
 70
     6
  9
$SURFTYPE
 70
     6
  9
$SURFU
 70
     6
  9
$SURFV
 70
     6
  9
$UCSNAME
  2

  9
$UCSORG
 10
0.0
 20
0.0
 30
0.0
  9
$UCSXDIR
 10
1.0
 20
0.0
 30
0.0
  9
$UCSYDIR
 10
0.0
 20
1.0
 30
0.0
  9
$PUCSNAME
  2

  9
$PUCSORG
 10
0.0
 20
0.0
 30
0.0
  9
$PUCSXDIR
 10
1.0
 20
0.0
 30
0.0
  9
$PUCSYDIR
 10
0.0
 20
1.0
 30
0.0
  9
$USERI1
 70
     0
  9
$USERI2
 70
     0
  9
$USERI3
 70
     0
  9
$USERI4
 70
     0
  9
$USERI5
 70
     0
  9
$USERR1
 40
20.0
  9
$USERR2
 40
0.0
  9
$USERR3
 40
0.0
  9
$USERR4
 40
0.0
  9
$USERR5
 40
0.0
  9
$WORLDVIEW
 70
     1
  9
$SHADEDGE
 70
     3
  9
$SHADEDIF
 70
    70
  9
$TILEMODE
 70
     1
  9
$MAXACTVP
 70
    48
  9
$PLIMCHECK
 70
     0
  9
$PEXTMIN
 10
1.000000000000000E+20
 20
1.000000000000000E+20
 30
1.000000000000000E+20
  9
$PEXTMAX
 10
-1.000000000000000E+20
 20
-1.000000000000000E+20
 30
-1.000000000000000E+20
  9
$PLIMMIN
 10
0.0
 20
0.0
  9
$PLIMMAX
 10
12.0
 20
9.0
  9
$UNITMODE
 70
     0
  9
$VISRETAIN
 70
     1
  9
$PLINEGEN
 70
     0
  9
$PSLTSCALE
 70
     1
  0
ENDSEC
  0
SECTION
  2
TABLES
  0
TABLE
  2
VPORT
 70
     1
  0
VPORT
  2
*ACTIVE
 70
     0
 10
0.0
 20
0.0
 11
1.0
 21
1.0
 12
459.6325531374659
 22
24.48880242606935
 13
0.0
 23
0.0
 14
400.0
 24
400.0
 15
400.0
 25
400.0
 16
0.0
 26
0.0
 36
1.0
 17
0.0
 27
0.0
 37
0.0
 40
1745.617080317269
 41
1.672794117647058
 42
50.0
 43
0.0
 44
0.0
 50
0.0
 51
0.0
 71
     0
 72
   500
 73
     1
 74
     0
 75
     0
 76
     0
 77
     0
 78
     0
  0
ENDTAB
  0
TABLE
  2
LTYPE
 70
     7
  0
LTYPE
  2
CONTINUOUS
 70
     0
  3
実線
 72
    65
 73
     0
 40
0.0
  0
LTYPE
  2
DOT
 70
     0
  3
...............................................
 72
    65
 73
     2
 40
0.8
 49
0.5
 49
-0.3
  0
LTYPE
  2
DASHED
 70
     0
  3
_ _ _ _ _ _ _ _ _ _ _ _ _ _ _ _ _ _ _ _ _ _ _
 72
    65
 73
     2
 40
1.999999999999999
 49
1.199999999999999
 49
-0.8
  0
LTYPE
  2
DASHDOT
 70
     0
  3
____ _ ____ _ ____ _ ____ _ ____ _ ____ _ ____
 72
    65
 73
     4
 40
5.5
 49
4.0
 49
-0.6
 49
0.3
 49
-0.6
  0
LTYPE
  2
DASHDOT1
 70
     0
  3
____ _ ____ _ ____ _ ____ _ ____ _ ____ _ ____
 72
    65
 73
     4
 40
2.0
 49
1.5
 49
-0.2
 49
0.1
 49
-0.2
  0
LTYPE
  2
DIVIDE
 70
     0
  3
_____ _ _ _____ _ _ _____ _ _ _____ _ _ ____
 72
    65
 73
     6
 40
6.4
 49
4.0
 49
-0.6
 49
0.3
 49
-0.6
 49
0.3
 49
-0.6
  0
LTYPE
  2
DIVIDE1
 70
     0
  3
_____ _ _ _____ _ _ _____ _ _ _____ _ _ ____
 72
    65
 73
     6
 40
3.2
 49
2.0
 49
-0.3
 49
0.15
 49
-0.3
 49
0.15
 49
-0.3
  0
ENDTAB
  0
TABLE
  2
LAYER
 70
    12
  0
LAYER
  2
0
 70
     0
 62
     7
  6
CONTINUOUS
  0
LAYER
  2
OUTLINE
 70
     0
 62
     3
  6
CONTINUOUS
  0
LAYER
  2
DETAIL
 70
     0
 62
     5
  6
CONTINUOUS
  0
LAYER
  2
BASIS
 70
     0
 62
     6
  6
DASHDOT
  0
LAYER
  2
SIZE
 70
     0
 62
    30
  6
CONTINUOUS
  0
LAYER
  2
NOTE
 70
     0
 62
     4
  6
CONTINUOUS
  0
LAYER
  2
ARRANGE
 70
     0
 62
     1
  6
CONTINUOUS
  0
LAYER
  2
FIX
 70
     0
 62
    11
  6
CONTINUOUS
  0
LAYER
  2
ETC
 70
     0
 62
    61
  6
CONTINUOUS
  0
LAYER
  2
DEFPOINTS
 70
     0
 62
     7
  6
CONTINUOUS
  0
LAYER
  2
SERVICESPACE
 70
     0
 62
     2
  6
DASHDOT
  0
LAYER
  2
SYMBOLLINE
 70
     0
 62
    15
  6
CONTINUOUS
  0
ENDTAB
  0
TABLE
  2
STYLE
 70
     1
  0
STYLE
  2
STANDARD
 70
     0
 40
0.0
 41
0.9
 50
0.0
 71
     0
 42
64.0
  3
SIMPLEX
  4
BIGFONT
  0
ENDTAB
  0
TABLE
  2
VIEW
 70
     1
  0
VIEW
  2
ALL
 70
     0
 40
4508.020851
 10
0.0
 20
41.30990399999999
 41
6252.631578999999
 11
0.0
 21
0.0
 31
1.0
 12
0.0
 22
0.0
 32
0.0
 42
50.0
 43
0.0
 44
0.0
 50
0.0
 71
     0
  0
ENDTAB
  0
TABLE
  2
UCS
 70
     0
  0
ENDTAB
  0
TABLE
  2
APPID
 70
     1
  0
APPID
  2
ACAD
 70
     0
  0
ENDTAB
  0
TABLE
  2
DIMSTYLE
 70
     1
  0
DIMSTYLE
  2
STANDARD
 70
     0
  3

  4

  5

  6

  7

 40
1.0
 41
0.18
 42
0.0625
 43
0.38
 44
0.18
 45
0.0
 46
0.0
 47
0.0
 48
0.0
140
0.18
141
0.09
142
0.0
143
25.4
144
1.0
145
0.0
146
1.0
147
0.09
 71
     0
 72
     0
 73
     1
 74
     1
 75
     0
 76
     0
 77
     0
 78
     0
170
     0
171
     2
172
     0
173
     0
174
     0
175
     0
176
     0
177
     0
178
     0
  0
ENDTAB
  0
ENDSEC
  0
SECTION
  2
BLOCKS
  0
BLOCK
  8
0
  2
$MODEL_SPACE
 70
     0
 10
0.0
 20
0.0
 30
0.0
  3
$MODEL_SPACE
  1

  0
ENDBLK
  5
193
  8
0
  0
BLOCK
 67
     1
  8
0
  2
$PAPER_SPACE
 70
     0
 10
0.0
 20
0.0
 30
0.0
  3
$PAPER_SPACE
  1

  0
ENDBLK
  5
18F
 67
     1
  8
0
  0
ENDSEC
  0
SECTION
  2
ENTITIES
  0
LINE
  5
1B1
  8
DETAIL
  6
CONTINUOUS
 62
     5
 10
-450.0
 20
-32.0
 30
0.0
 11
-450.0
 21
-212.0
 31
0.0
  0
ARC
  5
1B2
  8
DETAIL
  6
CONTINUOUS
 62
     5
 10
455.4999999999999
 20
-5.5
 30
0.0
 40
3.2
 50
90.0
 51
180.0
  0
ARC
  5
1B3
  8
DETAIL
  6
CONTINUOUS
 62
     5
 10
455.4999999999999
 20
-5.5
 30
0.0
 40
5.5
 50
90.0
 51
180.0
  0
LINE
  5
1B4
  8
DETAIL
  6
CONTINUOUS
 62
     5
 10
508.0
 20
0.0
 30
0.0
 11
508.0
 21
-7.0
 31
0.0
  0
LINE
  5
1B5
  8
DETAIL
  6
CONTINUOUS
 62
     5
 10
505.7
 20
-2.299999999999999
 30
0.0
 11
455.4999999999999
 21
-2.299999999999999
 31
0.0
  0
LINE
  5
1B6
  8
DETAIL
  6
CONTINUOUS
 62
     5
 10
508.0
 20
0.0
 30
0.0
 11
455.4999999999999
 21
0.0
 31
0.0
  0
LINE
  5
1B7
  8
DETAIL
  6
CONTINUOUS
 62
     5
 10
452.3
 20
-5.5
 30
0.0
 11
452.3
 21
-194.0
 31
0.0
  0
LINE
  5
1B8
  8
DETAIL
  6
CONTINUOUS
 62
     5
 10
450.0
 20
-5.5
 30
0.0
 11
450.0
 21
-213.0
 31
0.0
  0
LINE
  5
1B9
  8
DETAIL
  6
CONTINUOUS
 62
     5
 10
450.0
 20
-32.0
 30
0.0
 11
-450.0
 21
-32.0
 31
0.0
  0
LINE
  5
1BA
  8
DETAIL
  6
CONTINUOUS
 62
     5
 10
450.0
 20
-222.0
 30
0.0
 11
-450.0
 21
-222.0
 31
0.0
  0
LINE
  5
1BB
  8
DETAIL
  6
CONTINUOUS
 62
     5
 10
450.0
 20
-222.0
 30
0.0
 11
450.0
 21
-37.0
 31
0.0
  0
LINE
  5
1BC
  8
DETAIL
  6
CONTINUOUS
 62
     5
 10
-450.0
 20
-222.0
 30
0.0
 11
-450.0
 21
-45.79999999999998
 31
0.0
  0
LINE
  5
1BD
  8
BASIS
  6
DASHDOT
 62
     6
 10
530.8086369999999
 20
-126.0
 30
0.0
 11
-503.5734099999999
 21
-126.0
 31
0.0
  0
LINE
  5
1BE
  8
BASIS
  6
DASHDOT
 62
     6
 10
0.0
 20
-277.7824699999999
 30
0.0
 11
0.0
 21
48.45545299999999
 31
0.0
  0
CIRCLE
  5
1BF
  8
FIX
  6
CONTINUOUS
 62
    11
 10
490.0
 20
0.0
 30
0.0
 40
6.0
  0
CIRCLE
  5
1C0
  8
FIX
  6
CONTINUOUS
 62
    11
 10
-490.0
 20
0.0
 30
0.0
 40
6.0
  0
LINE
  5
1C1
  8
NOTE
  6
CONTINUOUS
 62
     4
 10
-577.6215389999999
 20
121.517751
 30
0.0
 11
-841.4776320000001
 21
121.517751
 31
0.0
  0
TEXT
  5
1C2
  8
NOTE
  6
CONTINUOUS
 62
     4
 10
-825.46472
 20
150.1166579999998
 30
0.0
 40
64.0
  1
AH-4
 41
0.9
  0
LINE
  5
1C3
  8
DETAIL
  6
CONTINUOUS
 62
     5
 10
508.0
 20
-7.0
 30
0.0
 11
505.7
 21
-7.0
 31
0.0
  0
LINE
  5
1C4
  8
DETAIL
  6
CONTINUOUS
 62
     5
 10
505.7
 20
-2.299999999999999
 30
0.0
 11
505.7
 21
-7.0
 31
0.0
  0
LINE
  5
1C5
  8
DETAIL
  6
CONTINUOUS
 62
     5
 10
-505.7
 20
-2.299999999999999
 30
0.0
 11
-505.7
 21
-7.0
 31
0.0
  0
LINE
  5
1C6
  8
DETAIL
  6
CONTINUOUS
 62
     5
 10
-508.0
 20
-7.0
 30
0.0
 11
-505.7
 21
-7.0
 31
0.0
  0
LINE
  5
1C7
  8
DETAIL
  6
CONTINUOUS
 62
     5
 10
-452.3
 20
-5.5
 30
0.0
 11
-452.3
 21
-194.0
 31
0.0
  0
LINE
  5
1C8
  8
DETAIL
  6
CONTINUOUS
 62
     5
 10
-508.0
 20
0.0
 30
0.0
 11
-455.4999999999999
 21
0.0
 31
0.0
  0
LINE
  5
1C9
  8
DETAIL
  6
CONTINUOUS
 62
     5
 10
-505.7
 20
-2.299999999999999
 30
0.0
 11
-455.4999999999999
 21
-2.299999999999999
 31
0.0
  0
LINE
  5
1CA
  8
DETAIL
  6
CONTINUOUS
 62
     5
 10
-508.0
 20
0.0
 30
0.0
 11
-508.0
 21
-7.0
 31
0.0
  0
ARC
  5
1CB
  8
DETAIL
  6
CONTINUOUS
 62
     5
 10
-455.4999999999999
 20
-5.5
 30
0.0
 40
5.5
 50
0.0
 51
90.0
  0
ARC
  5
1CC
  8
DETAIL
  6
CONTINUOUS
 62
     5
 10
-455.4999999999999
 20
-5.5
 30
0.0
 40
3.2
 50
0.0
 51
90.0
  0
LINE
  5
1CD
  8
DETAIL
  6
CONTINUOUS
 62
     5
 10
-450.0
 20
-5.5
 30
0.0
 11
-450.0
 21
-213.0
 31
0.0
  0
LINE
  5
1CE
  8
DETAIL
  6
CONTINUOUS
 62
     5
 10
435.0
 20
-222.0
 30
0.0
 11
435.0
 21
-32.0
 31
0.0
  0
LINE
  5
1CF
  8
DETAIL
  6
CONTINUOUS
 62
     5
 10
-435.0
 20
-32.0
 30
0.0
 11
-435.0
 21
-222.0
 31
0.0
  0
LINE
  5
1D0
  8
DETAIL
  6
CONTINUOUS
 62
     5
 10
484.0
 20
-191.0
 30
0.0
 11
484.0
 21
-92.0
 31
0.0
  0
LINE
  5
1D1
  8
SIZE
  6
CONTINUOUS
 62
    30
 10
484.0
 20
-420.707928
 30
0.0
 11
637.8304829999998
 21
-420.707928
 31
0.0
  0
LINE
  5
1D2
  8
DETAIL
  6
CONTINUOUS
 62
     5
 10
484.0
 20
-92.0
 30
0.0
 11
452.3
 21
-92.0
 31
0.0
  0
LINE
  5
1D3
  8
DETAIL
  6
CONTINUOUS
 62
     5
 10
484.0
 20
-191.0
 30
0.0
 11
452.3
 21
-191.0
 31
0.0
  0
TEXT
  5
1D4
  8
NOTE
  6
CONTINUOUS
 62
     4
 10
743.5937879999999
 20
144.2835289999999
 30
0.0
 40
64.0
  1
端子カバー
 41
0.9
  0
LINE
  5
1D5
  8
NOTE
  6
CONTINUOUS
 62
     4
 10
1083.42
 20
124.1423259999999
 30
0.0
 11
722.7227239999997
 21
124.1423259999999
 31
0.0
  0
LINE
  5
1D7
  8
SIZE
  6
CONTINUOUS
 62
    30
 10
508.0
 20
72.23366800000002
 30
0.0
 11
635.0455349999997
 21
72.23366800000002
 31
0.0
  0
LINE
  5
1D8
  8
SIZE
  6
CONTINUOUS
 62
    30
 10
-689.8967200000002
 20
0.0
 30
0.0
 11
-689.8967200000002
 21
70.208464
 31
0.0
  0
LINE
  5
1D9
  8
SIZE
  6
BYBLOCK
 62
    30
 10
-470.0
 20
-32.0
 30
0.0
 11
-719.1228974063887
 21
-32.0
 31
0.0
  0
LINE
  5
1DA
  8
SIZE
  6
BYBLOCK
 62
    30
 10
-470.0
 20
-222.0
 30
0.0
 11
-717.5231704762572
 21
-222.0
 31
0.0
  0
LINE
  5
1DB
  8
SIZE
  6
BYBLOCK
 62
    30
 10
-690.3278420035347
 20
-34.0
 30
0.0
 11
-690.3278420035347
 21
-220.0
 31
0.0
  0
TEXT
  5
1DC
  8
SIZE
  6
BYBLOCK
 62
    30
 10
-722.3278420035349
 20
-195.571429
 30
0.0
 40
64.0
  1
190
 50
90.0
 41
0.9
  0
LINE
  5
1DD
  8
SIZE
  6
BYBLOCK
 62
    30
 10
504.0
 20
-191.0
 30
0.0
 11
728.6525519999998
 21
-191.0
 31
0.0
  0
LINE
  5
1DE
  8
SIZE
  6
BYBLOCK
 62
    30
 10
504.0
 20
-92.0
 30
0.0
 11
728.6525519999998
 21
-92.0
 31
0.0
  0
LINE
  5
1DF
  8
SIZE
  6
BYBLOCK
 62
    30
 10
698.6525519999997
 20
-189.0
 30
0.0
 11
698.6525519999997
 21
-141.5
 31
0.0
  0
LINE
  5
1E0
  8
SIZE
  6
BYBLOCK
 62
    30
 10
698.6525519999997
 20
-94.0
 30
0.0
 11
698.6525519999997
 21
-141.5
 31
0.0
  0
TEXT
  5
1E1
  8
SIZE
  6
BYBLOCK
 62
    30
 10
666.6525519999999
 20
-186.7571429999999
 30
0.0
 40
64.0
  1
99
 50
90.0
 41
0.9
  0
LINE
  5
1E2
  8
SIZE
  6
BYBLOCK
 62
    30
 10
470.0
 20
-222.0
 30
0.0
 11
865.8595960000001
 21
-222.0
 31
0.0
  0
LINE
  5
1E3
  8
SIZE
  6
BYBLOCK
 62
    30
 10
530.0
 20
0.0
 30
0.0
 11
865.8595960000001
 21
0.0
 31
0.0
  0
LINE
  5
1E4
  8
SIZE
  6
BYBLOCK
 62
    30
 10
835.859596
 20
-220.0
 30
0.0
 11
835.859596
 21
-110.4999999999999
 31
0.0
  0
LINE
  5
1E5
  8
SIZE
  6
BYBLOCK
 62
    30
 10
835.859596
 20
-1.0
 30
0.0
 11
835.859596
 21
-110.4999999999999
 31
0.0
  0
TEXT
  5
1E6
  8
SIZE
  6
BYBLOCK
 62
    30
 10
803.859596
 20
-184.5571429999999
 30
0.0
 40
64.0
  1
222
 50
90.0
 41
0.9
  0
LINE
  5
1E7
  8
SIZE
  6
BYBLOCK
 62
    30
 10
-528.0
 20
-7.0
 30
0.0
 11
-719.8967200000002
 21
-7.0
 31
0.0
  0
LINE
  5
1E8
  8
SIZE
  6
BYBLOCK
 62
    30
 10
-528.0
 20
0.0
 30
0.0
 11
-719.8967200000002
 21
0.0
 31
0.0
  0
LINE
  5
1E9
  8
SIZE
  6
BYBLOCK
 62
    30
 10
-689.8967200000002
 20
2.0
 30
0.0
 11
-689.8967200000002
 21
4.0
 31
0.0
  0
LINE
  5
1EA
  8
SIZE
  6
BYBLOCK
 62
    30
 10
-689.8967200000002
 20
-9.0
 30
0.0
 11
-689.8967200000002
 21
-11.0
 31
0.0
  0
LINE
  5
1EB
  8
SIZE
  6
BYBLOCK
 62
    30
 10
-689.8967200000002
 20
0.0
 30
0.0
 11
-689.8967200000002
 21
-7.0
 31
0.0
  0
TEXT
  5
1EC
  8
SIZE
  6
BYBLOCK
 62
    30
 10
-721.8967199999998
 20
23.81272699999999
 30
0.0
 40
64.0
  1
7
 50
90.0
 41
0.9
  0
LINE
  5
1ED
  8
SIZE
  6
BYBLOCK
 62
    30
 10
508.0
 20
21.0
 30
0.0
 11
508.0
 21
102.2336679999999
 31
0.0
  0
LINE
  5
1EE
  8
SIZE
  6
BYBLOCK
 62
    30
 10
450.0
 20
15.5
 30
0.0
 11
450.0
 21
102.2336679999999
 31
0.0
  0
LINE
  5
1EF
  8
SIZE
  6
BYBLOCK
 62
    30
 10
448.0
 20
72.23366800000002
 30
0.0
 11
446.0
 21
72.23366800000002
 31
0.0
  0
LINE
  5
1F0
  8
SIZE
  6
BYBLOCK
 62
    30
 10
510.0
 20
72.23366800000002
 30
0.0
 11
512.0
 21
72.23366800000002
 31
0.0
  0
LINE
  5
1F1
  8
SIZE
  6
BYBLOCK
 62
    30
 10
450.0
 20
72.23366800000002
 30
0.0
 11
508.0
 21
72.23366800000002
 31
0.0
  0
TEXT
  5
1F2
  8
SIZE
  6
BYBLOCK
 62
    30
 10
535.350848
 20
104.233668
 30
0.0
 40
64.0
  1
58
 41
0.9
  0
LINE
  5
1F3
  8
SIZE
  6
BYBLOCK
 62
    30
 10
-508.0
 20
21.0
 30
0.0
 11
-508.0
 21
283.9424279999999
 31
0.0
  0
LINE
  5
1F4
  8
SIZE
  6
BYBLOCK
 62
    30
 10
508.0
 20
21.0
 30
0.0
 11
508.0
 21
283.9424279999999
 31
0.0
  0
LINE
  5
1F5
  8
SIZE
  6
BYBLOCK
 62
    30
 10
-506.0
 20
253.9424279999998
 30
0.0
 11
0.0
 21
253.9424279999998
 31
0.0
  0
LINE
  5
1F6
  8
SIZE
  6
BYBLOCK
 62
    30
 10
506.0
 20
253.9424279999998
 30
0.0
 11
0.0
 21
253.9424279999998
 31
0.0
  0
TEXT
  5
1F7
  8
SIZE
  6
BYBLOCK
 62
    30
 10
-89.14285699999996
 20
285.942428
 30
0.0
 40
64.0
  1
1016
 41
0.9
  0
LINE
  5
1F8
  8
SIZE
  6
BYBLOCK
 62
    30
 10
450.0
 20
-242.0
 30
0.0
 11
450.0
 21
-450.7079279999999
 31
0.0
  0
LINE
  5
1F9
  8
SIZE
  6
BYBLOCK
 62
    30
 10
484.0
 20
-213.7089024538832
 30
0.0
 11
484.0
 21
-450.7079279999999
 31
0.0
  0
LINE
  5
1FA
  8
SIZE
  6
BYBLOCK
 62
    30
 10
486.0
 20
-420.707928
 30
0.0
 11
488.0
 21
-420.707928
 31
0.0
  0
LINE
  5
1FB
  8
SIZE
  6
BYBLOCK
 62
    30
 10
448.0
 20
-420.707928
 30
0.0
 11
446.0
 21
-420.707928
 31
0.0
  0
LINE
  5
1FC
  8
SIZE
  6
BYBLOCK
 62
    30
 10
484.0
 20
-420.707928
 30
0.0
 11
450.0
 21
-420.707928
 31
0.0
  0
TEXT
  5
1FD
  8
SIZE
  6
BYBLOCK
 62
    30
 10
515.1824229999999
 20
-388.7079279999999
 30
0.0
 40
64.0
  1
34
 41
0.9
  0
LINE
  5
1FE
  8
SIZE
  6
BYBLOCK
 62
    30
 10
-450.0
 20
-242.0
 30
0.0
 11
-450.0
 21
-450.7079279999999
 31
0.0
  0
LINE
  5
1FF
  8
SIZE
  6
BYBLOCK
 62
    30
 10
450.0
 20
-242.0
 30
0.0
 11
450.0
 21
-450.7079279999999
 31
0.0
  0
LINE
  5
200
  8
SIZE
  6
BYBLOCK
 62
    30
 10
-448.0
 20
-420.707928
 30
0.0
 11
0.0
 21
-420.707928
 31
0.0
  0
LINE
  5
201
  8
SIZE
  6
BYBLOCK
 62
    30
 10
448.0
 20
-420.707928
 30
0.0
 11
0.0
 21
-420.707928
 31
0.0
  0
TEXT
  5
202
  8
SIZE
  6
BYBLOCK
 62
    30
 10
-74.05714300000002
 20
-388.7079279999999
 30
0.0
 40
64.0
  1
900
 41
0.9
  0
LINE
  5
203
  8
SIZE
  6
BYBLOCK
 62
    30
 10
-490.0
 20
39.85
 30
0.0
 11
-490.0
 21
154.599186
 31
0.0
  0
LINE
  5
204
  8
SIZE
  6
BYBLOCK
 62
    30
 10
490.0
 20
39.85
 30
0.0
 11
490.0
 21
154.599186
 31
0.0
  0
LINE
  5
205
  8
SIZE
  6
BYBLOCK
 62
    30
 10
-488.0
 20
124.599186
 30
0.0
 11
0.0
 21
124.599186
 31
0.0
  0
LINE
  5
206
  8
SIZE
  6
BYBLOCK
 62
    30
 10
488.0
 20
124.599186
 30
0.0
 11
0.0
 21
124.599186
 31
0.0
  0
TEXT
  5
207
  8
SIZE
  6
BYBLOCK
 62
    30
 10
-74.05714300000002
 20
156.5991859999998
 30
0.0
 40
64.0
  1
980
 41
0.9
  0
CIRCLE
  5
208
  8
SIZE
  6
CONTINUOUS
 62
    30
 10
490.0
 20
124.599186
 30
0.0
 40
6.0
  0
CIRCLE
  5
209
  8
SIZE
  6
CONTINUOUS
 62
    30
 10
-490.0
 20
124.599186
 30
0.0
 40
6.0
  0
CIRCLE
  5
20A
  8
SIZE
  6
CONTINUOUS
 62
    30
 10
450.0
 20
-420.707928
 30
0.0
 40
6.0
  0
CIRCLE
  5
20B
  8
SIZE
  6
CONTINUOUS
 62
    30
 10
-450.0
 20
-420.707928
 30
0.0
 40
6.0
  0
CIRCLE
  5
20C
  8
SIZE
  6
CONTINUOUS
 62
    30
 10
450.0
 20
-420.707928
 30
0.0
 40
6.0
  0
CIRCLE
  5
20D
  8
SIZE
  6
CONTINUOUS
 62
    30
 10
484.0
 20
-420.707928
 30
0.0
 40
6.0
  0
CIRCLE
  5
20E
  8
SIZE
  6
CONTINUOUS
 62
    30
 10
508.0
 20
253.9424279999998
 30
0.0
 40
6.0
  0
CIRCLE
  5
20F
  8
SIZE
  6
CONTINUOUS
 62
    30
 10
-508.0
 20
253.9424279999998
 30
0.0
 40
6.0
  0
CIRCLE
  5
210
  8
SIZE
  6
CONTINUOUS
 62
    30
 10
508.0
 20
72.23366800000002
 30
0.0
 40
6.0
  0
CIRCLE
  5
211
  8
SIZE
  6
CONTINUOUS
 62
    30
 10
450.0
 20
72.23366800000002
 30
0.0
 40
6.0
  0
CIRCLE
  5
212
  8
SIZE
  6
CONTINUOUS
 62
    30
 10
-689.8967200000002
 20
-7.0
 30
0.0
 40
6.0
  0
CIRCLE
  5
213
  8
SIZE
  6
CONTINUOUS
 62
    30
 10
-689.8967200000002
 20
0.0
 30
0.0
 40
6.0
  0
CIRCLE
  5
214
  8
SIZE
  6
CONTINUOUS
 62
    30
 10
835.859596
 20
0.0
 30
0.0
 40
6.0
  0
CIRCLE
  5
215
  8
SIZE
  6
CONTINUOUS
 62
    30
 10
835.859596
 20
-222.0
 30
0.0
 40
6.0
  0
CIRCLE
  5
216
  8
SIZE
  6
CONTINUOUS
 62
    30
 10
698.6525519999997
 20
-92.0
 30
0.0
 40
6.0
  0
CIRCLE
  5
217
  8
SIZE
  6
CONTINUOUS
 62
    30
 10
698.6525519999997
 20
-191.0
 30
0.0
 40
6.0
  0
CIRCLE
  5
218
  8
SIZE
  6
CONTINUOUS
 62
    30
 10
-690.3278420035347
 20
-222.0
 30
0.0
 40
6.0
  0
CIRCLE
  5
219
  8
SIZE
  6
CONTINUOUS
 62
    30
 10
-690.3278420035347
 20
-32.0
 30
0.0
 40
6.0
  0
LINE
  5
21A
  8
NOTE
  6
CONTINUOUS
 62
     4
 10
-490.0
 20
-20.0
 30
0.0
 11
-490.0
 21
20.0
 31
0.0
  0
LINE
  5
21B
  8
NOTE
  6
CONTINUOUS
 62
     4
 10
-470.0
 20
0.0
 30
0.0
 11
-510.0
 21
0.0
 31
0.0
  0
LINE
  5
21C
  8
NOTE
  6
CONTINUOUS
 62
     4
 10
490.0
 20
-20.0
 30
0.0
 11
490.0
 21
20.0
 31
0.0
  0
LINE
  5
21D
  8
NOTE
  6
CONTINUOUS
 62
     4
 10
510.0
 20
0.0
 30
0.0
 11
470.0
 21
0.0
 31
0.0
  0
TEXT
  5
21E
  8
ETC
  6
CONTINUOUS
 62
    61
 10
1216.480650045351
 20
-506.7359051637454
 30
0.0
 40
50.0
  1
AH-2009TCA-G
 41
0.9
  0
TEXT
  5
21F
  8
ETC
  6
CONTINUOUS
 62
    61
 10
1216.480650045351
 20
-429.3761474219031
 30
0.0
 40
50.0
  1
AH-2009TCA
 41
0.9
  0
TEXT
  5
220
  8
ETC
  6
CONTINUOUS
 62
    61
 10
1216.480650045351
 20
-354.9917684178423
 30
0.0
 40
50.0
  1
AH-2009WA-G
 41
0.9
  0
TEXT
  5
221
  8
ETC
  6
CONTINUOUS
 62
    61
 10
1216.480650045351
 20
-283.5827606981898
 30
0.0
 40
50.0
  1
AH-2009WA
 41
0.9
  0
TEXT
  5
222
  8
ETC
  6
CONTINUOUS
 62
    61
 10
1216.480650045351
 20
-215.1491317163187
 30
0.0
 40
50.0
  1
AH-2009SA-G
 41
0.9
  0
TEXT
  5
223
  8
ETC
  6
CONTINUOUS
 62
    61
 10
1216.480650045351
 20
-137.7893739744764
 30
0.0
 40
50.0
  1
AH-2009SA
 41
0.9
  0
TEXT
  5
224
  8
ETC
  6
CONTINUOUS
 62
    61
 10
1216.480650045351
 20
-60.4296162326342
 30
0.0
 40
50.0
  1
AH-1509TCA-G
 41
0.9
  0
TEXT
  5
225
  8
ETC
  6
CONTINUOUS
 62
    61
 10
1216.480650045351
 20
13.95476277142677
 30
0.0
 40
50.0
  1
AH-1509TCA
 41
0.9
  0
TEXT
  5
226
  8
ETC
  6
CONTINUOUS
 62
    61
 10
1216.480650045351
 20
94.28989179767757
 30
0.0
 40
50.0
  1
AH-1509WA-G
 41
0.9
  0
TEXT
  5
227
  8
ETC
  6
CONTINUOUS
 62
    61
 10
1216.480650045351
 20
171.6496420861469
 30
0.0
 40
50.0
  1
AH-1509WA
 41
0.9
  0
TEXT
  5
228
  8
ETC
  6
CONTINUOUS
 62
    61
 10
1216.480650045351
 20
243.0586498057994
 30
0.0
 40
50.0
  1
AH-1509SA-G
 41
0.9
  0
TEXT
  5
229
  8
ETC
  6
CONTINUOUS
 62
    61
 10
1216.480650045351
 20
317.4430288098603
 30
0.0
 40
50.0
  1
AH-1509SA
 41
0.9
  0
TEXT
  5
22A
  8
ETC
  6
CONTINUOUS
 62
    61
 10
1108.232284421374
 20
498.831790844007
 30
0.0
 40
64.0
  1
AH-1509SA_3
 41
0.9
  0
TEXT
  5
22B
  8
ETC
  6
CONTINUOUS
 62
    61
 10
1103.303344421374
 20
397.6336808440071
 30
0.0
 40
64.0
  1
産業扇
 41
0.9
  0
LINE
  5
22C
  8
DETAIL
  6
CONTINUOUS
 62
     5
 10
-452.3
 20
-194.0
 30
0.0
 11
-450.0
 21
-194.0
 31
0.0
  0
LINE
  5
22D
  8
DETAIL
  6
CONTINUOUS
 62
     5
 10
452.3
 20
-193.0
 30
0.0
 11
450.0
 21
-193.0
 31
0.0
  0
LINE
  5
22E
  8
NOTE
  6
CONTINUOUS
 62
     4
 10
484.0
 20
-92.0
 30
0.0
 11
722.7227239999997
 21
124.1423259999999
 31
0.0
  0
LINE
  5
22F
  8
NOTE
  6
CONTINUOUS
 62
     4
 10
-577.6215389999999
 20
121.517751
 30
0.0
 11
-490.0
 21
0.0
 31
0.0
  0
LINE
  5
232
  8
NOTE
  6
CONTINUOUS
 62
     4
 10
-504.7711639999999
 20
37.172742
 30
0.0
 11
-490.0
 21
0.0
 31
0.0
  0
LINE
  5
233
  8
NOTE
  6
CONTINUOUS
 62
     4
 10
-490.0
 20
0.0
 30
0.0
 11
-521.3785739999998
 21
24.80695699999999
 31
0.0
  0
LINE
  5
234
  8
NOTE
  6
CONTINUOUS
 62
     4
 10
520.101487
 20
-74.77552199999998
 30
0.0
 11
484.0
 21
-92.0
 31
0.0
  0
LINE
  5
235
  8
NOTE
  6
CONTINUOUS
 62
     4
 10
484.0
 20
-92.0
 30
0.0
 11
506.6525649999999
 21
-59.032421
 31
0.0
  0
LINE
  5
236
  8
OUTLINE
  6
CONTINUOUS
 62
     3
 10
-450.0
 20
-32.0
 30
0.0
 11
450.0
 21
-32.0
 31
0.0
  0
LINE
  5
237
  8
OUTLINE
  6
CONTINUOUS
 62
     3
 10
450.0
 20
-32.0
 30
0.0
 11
450.0
 21
-222.0
 31
0.0
  0
LINE
  5
238
  8
OUTLINE
  6
CONTINUOUS
 62
     3
 10
450.0
 20
-222.0
 30
0.0
 11
-450.0
 21
-222.0
 31
0.0
  0
LINE
  5
239
  8
OUTLINE
  6
CONTINUOUS
 62
     3
 10
-450.0
 20
-222.0
 30
0.0
 11
-450.0
 21
-32.0
 31
0.0
  0
CIRCLE
  5
246
  8
ARRANGE
  6
CONTINUOUS
 62
     1
 10
0.0
 20
0.0
 30
0.0
 40
40.0
  0
LINE
  5
247
  8
ARRANGE
  6
CONTINUOUS
 62
     1
 10
-14.14213562373095
 20
-14.14213562373095
 30
0.0
 11
14.14213562373098
 21
14.14213562373083
 31
0.0
  0
LINE
  5
248
  8
ARRANGE
  6
CONTINUOUS
 62
     1
 10
14.14213562373095
 20
-14.14213562373095
 30
0.0
 11
-14.14213562373089
 21
14.14213562373095
 31
0.0
  0
ENDSEC
  0
EOF
