  0
SECTION
  2
HEADER
  9
$ACADVER
  1
AC1009
  9
$DWGCODEPAGE
  3
ansi_932
  9
$INSBASE
 10
0.0
 20
0.0
 30
0.0
  9
$EXTMIN
 10
-775.535850820166
 20
-544.9665482077334
 30
0.0
  9
$EXTMAX
 10
1705.105179927158
 20
647.2168222005986
 30
0.0
  9
$LIMMIN
 10
-4200.0
 20
-2970.0
  9
$LIMMAX
 10
4200.0
 20
2970.0
  9
$ORTHOMODE
 70
     0
  9
$REGENMODE
 70
     0
  9
$FILLMODE
 70
     1
  9
$QTEXTMODE
 70
     0
  9
$MIRRTEXT
 70
     0
  9
$DRAGMODE
 70
     2
  9
$LTSCALE
 40
20.0
  9
$OSMODE
 70
    37
  9
$ATTMODE
 70
     1
  9
$TEXTSIZE
 40
64.0
  9
$TRACEWID
 40
0.05
  9
$TEXTSTYLE
  7
STANDARD
  9
$CLAYER
  8
ETC
  9
$CELTYPE
  6
CONTINUOUS
  9
$CECOLOR
 62
     1
  9
$DIMSCALE
 40
1.0
  9
$DIMASZ
 40
2.0
  9
$DIMEXO
 40
20.0
  9
$DIMDLI
 40
200.0
  9
$DIMRND
 40
0.0
  9
$DIMDLE
 40
0.0
  9
$DIMEXE
 40
30.0
  9
$DIMTP
 40
0.0
  9
$DIMTM
 40
0.0
  9
$DIMTXT
 40
64.0
  9
$DIMCEN
 40
0.09
  9
$DIMTSZ
 40
0.0
  9
$DIMTOL
 70
     0
  9
$DIMLIM
 70
     0
  9
$DIMTIH
 70
     0
  9
$DIMTOH
 70
     0
  9
$DIMSE1
 70
     0
  9
$DIMSE2
 70
     0
  9
$DIMTAD
 70
     1
  9
$DIMZIN
 70
     8
  9
$DIMBLK
  1

  9
$DIMASO
 70
     1
  9
$DIMSHO
 70
     0
  9
$DIMPOST
  1

  9
$DIMAPOST
  1

  9
$DIMALT
 70
     0
  9
$DIMALTD
 70
     2
  9
$DIMALTF
 40
25.4
  9
$DIMLFAC
 40
1.0
  9
$DIMTOFL
 70
     1
  9
$DIMTVP
 40
0.0
  9
$DIMTIX
 70
     1
  9
$DIMSOXD
 70
     0
  9
$DIMSAH
 70
     0
  9
$DIMBLK1
  1

  9
$DIMBLK2
  1

  9
$DIMSTYLE
  2
STANDARD
  9
$DIMCLRD
 70
     0
  9
$DIMCLRE
 70
     0
  9
$DIMCLRT
 70
     0
  9
$DIMTFAC
 40
1.0
  9
$DIMGAP
 40
0.09
  9
$LUNITS
 70
     2
  9
$LUPREC
 70
     4
  9
$SKETCHINC
 40
0.1
  9
$FILLETRAD
 40
5.0
  9
$AUNITS
 70
     1
  9
$AUPREC
 70
     3
  9
$MENU
  1
ACAD
  9
$ELEVATION
 40
0.0
  9
$PELEVATION
 40
0.0
  9
$THICKNESS
 40
0.0
  9
$LIMCHECK
 70
     1
  9
$CHAMFERA
 40
0.0
  9
$CHAMFERB
 40
0.0
  9
$SKPOLY
 70
     0
  9
$TDCREATE
 40
2451636.668240741
  9
$TDUPDATE
 40
2457485.550398218
  9
$TDINDWG
 40
0.0239634028
  9
$TDUSRTIMER
 40
0.0239626852
  9
$USRTIMER
 70
     1
  9
$ANGBASE
 50
0.0
  9
$ANGDIR
 70
     0
  9
$PDMODE
 70
     3
  9
$PDSIZE
 40
-2.0
  9
$PLINEWID
 40
0.0
  9
$COORDS
 70
     1
  9
$SPLFRAME
 70
     0
  9
$SPLINETYPE
 70
     6
  9
$SPLINESEGS
 70
     8
  9
$ATTDIA
 70
     0
  9
$ATTREQ
 70
     1
  9
$HANDLING
 70
     1
  9
$HANDSEED
  5
AEE
  9
$SURFTAB1
 70
     6
  9
$SURFTAB2
 70
     6
  9
$SURFTYPE
 70
     6
  9
$SURFU
 70
     6
  9
$SURFV
 70
     6
  9
$UCSNAME
  2

  9
$UCSORG
 10
0.0
 20
0.0
 30
0.0
  9
$UCSXDIR
 10
1.0
 20
0.0
 30
0.0
  9
$UCSYDIR
 10
0.0
 20
1.0
 30
0.0
  9
$PUCSNAME
  2

  9
$PUCSORG
 10
0.0
 20
0.0
 30
0.0
  9
$PUCSXDIR
 10
1.0
 20
0.0
 30
0.0
  9
$PUCSYDIR
 10
0.0
 20
1.0
 30
0.0
  9
$USERI1
 70
     0
  9
$USERI2
 70
     0
  9
$USERI3
 70
     0
  9
$USERI4
 70
     0
  9
$USERI5
 70
     0
  9
$USERR1
 40
20.0
  9
$USERR2
 40
0.0
  9
$USERR3
 40
0.0
  9
$USERR4
 40
0.0
  9
$USERR5
 40
0.0
  9
$WORLDVIEW
 70
     1
  9
$SHADEDGE
 70
     3
  9
$SHADEDIF
 70
    70
  9
$TILEMODE
 70
     1
  9
$MAXACTVP
 70
    64
  9
$PLIMCHECK
 70
     0
  9
$PEXTMIN
 10
1.000000000000000E+20
 20
1.000000000000000E+20
 30
1.000000000000000E+20
  9
$PEXTMAX
 10
-1.000000000000000E+20
 20
-1.000000000000000E+20
 30
-1.000000000000000E+20
  9
$PLIMMIN
 10
0.0
 20
0.0
  9
$PLIMMAX
 10
12.0
 20
9.0
  9
$UNITMODE
 70
     0
  9
$VISRETAIN
 70
     1
  9
$PLINEGEN
 70
     0
  9
$PSLTSCALE
 70
     1
  0
ENDSEC
  0
SECTION
  2
TABLES
  0
TABLE
  2
VPORT
 70
     1
  0
VPORT
  2
*ACTIVE
 70
     0
 10
0.0
 20
0.0
 11
1.0
 21
1.0
 12
388.6504970297321
 22
32.33644730395701
 13
0.0
 23
0.0
 14
400.0
 24
400.0
 15
400.0
 25
400.0
 16
0.0
 26
0.0
 36
1.0
 17
0.0
 27
0.0
 37
0.0
 40
1838.188831866128
 41
1.607577807848443
 42
50.0
 43
0.0
 44
0.0
 50
0.0
 51
0.0
 71
     0
 72
   500
 73
     1
 74
     0
 75
     0
 76
     0
 77
     0
 78
     0
  0
ENDTAB
  0
TABLE
  2
LTYPE
 70
     7
  0
LTYPE
  2
CONTINUOUS
 70
     0
  3
実線
 72
    65
 73
     0
 40
0.0
  0
LTYPE
  2
DASHED
 70
     0
  3
_ _ _ _ _ _ _ _ _ _ _ _ _ _ _ _ _ _ _ _ _ _ _
 72
    65
 73
     2
 40
1.999999999999999
 49
1.199999999999999
 49
-0.8
  0
LTYPE
  2
DASHDOT
 70
     0
  3
____ _ ____ _ ____ _ ____ _ ____ _ ____ _ ____
 72
    65
 73
     4
 40
5.5
 49
4.0
 49
-0.6
 49
0.3
 49
-0.6
  0
LTYPE
  2
DOT
 70
     0
  3
...............................................
 72
    65
 73
     2
 40
0.8
 49
0.5
 49
-0.3
  0
LTYPE
  2
DASHDOT1
 70
     0
  3
____ _ ____ _ ____ _ ____ _ ____ _ ____ _ ____
 72
    65
 73
     4
 40
2.0
 49
1.5
 49
-0.2
 49
0.1
 49
-0.2
  0
LTYPE
  2
DIVIDE
 70
     0
  3
_____ _ _ _____ _ _ _____ _ _ _____ _ _ ____
 72
    65
 73
     6
 40
6.4
 49
4.0
 49
-0.6
 49
0.3
 49
-0.6
 49
0.3
 49
-0.6
  0
LTYPE
  2
DIVIDE1
 70
     0
  3
_____ _ _ _____ _ _ _____ _ _ _____ _ _ ____
 72
    65
 73
     6
 40
3.2
 49
2.0
 49
-0.3
 49
0.15
 49
-0.3
 49
0.15
 49
-0.3
  0
ENDTAB
  0
TABLE
  2
LAYER
 70
    13
  0
LAYER
  2
0
 70
     0
 62
     7
  6
CONTINUOUS
  0
LAYER
  2
ARRANGE
 70
     0
 62
     1
  6
CONTINUOUS
  0
LAYER
  2
OUTLINE
 70
     0
 62
     3
  6
CONTINUOUS
  0
LAYER
  2
DETAIL
 70
     0
 62
     5
  6
CONTINUOUS
  0
LAYER
  2
BASIS
 70
     0
 62
     6
  6
DASHDOT
  0
LAYER
  2
SIZE
 70
     0
 62
    30
  6
CONTINUOUS
  0
LAYER
  2
NOTE
 70
     0
 62
     4
  6
CONTINUOUS
  0
LAYER
  2
DEFPOINTS
 70
     0
 62
     7
  6
CONTINUOUS
  0
LAYER
  2
ETC
 70
     0
 62
    61
  6
CONTINUOUS
  0
LAYER
  2
FIX
 70
     0
 62
    11
  6
CONTINUOUS
  0
LAYER
  2
SERVICESPACE
 70
     0
 62
     2
  6
DASHDOT
  0
LAYER
  2
SYMBOLLINE
 70
     0
 62
    15
  6
CONTINUOUS
  0
LAYER
  2
画層1
 70
     0
 62
    15
  6
CONTINUOUS
  0
ENDTAB
  0
TABLE
  2
STYLE
 70
     1
  0
STYLE
  2
STANDARD
 70
     0
 40
0.0
 41
0.9
 50
0.0
 71
     0
 42
64.0
  3
SIMPLEX
  4
BIGFONT
  0
ENDTAB
  0
TABLE
  2
VIEW
 70
     1
  0
VIEW
  2
ALL
 70
     0
 40
6374.978981
 10
0.0
 20
58.11501599999999
 41
8842.105262999998
 11
0.0
 21
0.0
 31
1.0
 12
0.0
 22
0.0
 32
0.0
 42
50.0
 43
0.0
 44
0.0
 50
0.0
 71
     0
  0
ENDTAB
  0
TABLE
  2
UCS
 70
     0
  0
ENDTAB
  0
TABLE
  2
APPID
 70
     1
  0
APPID
  2
ACAD
 70
     0
  0
ENDTAB
  0
TABLE
  2
DIMSTYLE
 70
     1
  0
DIMSTYLE
  2
STANDARD
 70
     0
  3

  4

  5

  6

  7

 40
1.0
 41
0.18
 42
0.0625
 43
0.38
 44
0.18
 45
0.0
 46
0.0
 47
0.0
 48
0.0
140
0.18
141
0.09
142
0.0
143
25.4
144
1.0
145
0.0
146
1.0
147
0.09
 71
     0
 72
     0
 73
     1
 74
     1
 75
     0
 76
     0
 77
     0
 78
     0
170
     0
171
     2
172
     0
173
     0
174
     0
175
     0
176
     0
177
     0
178
     0
  0
ENDTAB
  0
ENDSEC
  0
SECTION
  2
BLOCKS
  0
BLOCK
  8
0
  2
$MODEL_SPACE
 70
     0
 10
0.0
 20
0.0
 30
0.0
  3
$MODEL_SPACE
  1

  0
ENDBLK
  5
98A
  8
0
  0
BLOCK
 67
     1
  8
0
  2
$PAPER_SPACE
 70
     0
 10
0.0
 20
0.0
 30
0.0
  3
$PAPER_SPACE
  1

  0
ENDBLK
  5
986
 67
     1
  8
0
  0
BLOCK
  8
0
  2
_NONE
 70
     0
 10
0.0
 20
0.0
 30
0.0
  3
_NONE
  1

  0
ENDBLK
  5
9AA
  8
0
 62
     3
  0
BLOCK
  8
0
  2
_OPEN30
 70
     0
 10
0.0
 20
0.0
 30
0.0
  3
_OPEN30
  1

  0
LINE
  5
9AD
  8
0
  6
BYBLOCK
 62
     0
 10
-1.0
 20
0.26794919
 30
0.0
 11
0.0
 21
0.0
 31
0.0
  0
LINE
  5
9AE
  8
0
  6
BYBLOCK
 62
     0
 10
0.0
 20
0.0
 30
0.0
 11
-1.0
 21
-0.26794919
 31
0.0
  0
LINE
  5
9AF
  8
0
  6
BYBLOCK
 62
     0
 10
0.0
 20
0.0
 30
0.0
 11
-1.0
 21
0.0
 31
0.0
  0
ENDBLK
  5
9B0
  8
0
 62
     3
  0
ENDSEC
  0
SECTION
  2
ENTITIES
  0
LINE
  5
9B1
  8
NOTE
  6
BYBLOCK
 62
     4
 10
-527.903610655241
 20
-112.1909797921081
 30
0.0
 11
-488.9999999999998
 21
-94.0
 31
0.0
  0
LINE
  5
9B2
  8
NOTE
  6
BYBLOCK
 62
     4
 10
-488.9999999999998
 20
-94.0
 30
0.0
 11
-515.5960253743204
 21
-129.7415542115244
 31
0.0
  0
LINE
  5
9B3
  8
NOTE
  6
BYBLOCK
 62
     4
 10
-488.9999999999998
 20
-94.0
 30
0.0
 11
-521.7498180147809
 21
-120.9662670018164
 31
0.0
  0
LINE
  5
9B4
  8
NOTE
  6
BYBLOCK
 62
     4
 10
526.7360864440204
 20
111.6025496276639
 30
0.0
 11
495.0000000000003
 21
84.99999999999997
 31
0.0
  0
LINE
  5
9B5
  8
NOTE
  6
BYBLOCK
 62
     4
 10
495.0000000000003
 20
84.99999999999997
 30
0.0
 11
509.1829824398896
 21
123.9065269406617
 31
0.0
  0
LINE
  5
9B6
  8
NOTE
  6
BYBLOCK
 62
     4
 10
495.0000000000003
 20
84.99999999999997
 30
0.0
 11
517.9595344419552
 21
117.7545382841629
 31
0.0
  0
LINE
  5
9B7
  8
DETAIL
  6
CONTINUOUS
 62
     5
 10
0.0
 20
110.0
 30
0.0
 11
450.0000000000002
 21
110.0
 31
0.0
  0
LINE
  5
9B8
  8
SIZE
  6
BYBLOCK
 62
    30
 10
453.0000000000003
 20
-381.652908
 30
0.0
 11
-690.1801764955906
 21
-381.652908
 31
0.0
  0
TEXT
  5
9B9
  8
SIZE
  6
CONTINUOUS
 62
    30
 10
-74.05714285714282
 20
269.9766495957691
 30
0.0
 40
64.0
  1
990
 41
0.9
  0
TEXT
  5
9BA
  8
SIZE
  6
CONTINUOUS
 62
    30
 10
-94.6285714285712
 20
394.7900844728027
 30
0.0
 40
64.0
  1
1036
 41
0.9
  0
LINE
  5
9BB
  8
SIZE
  6
CONTINUOUS
 62
    30
 10
-517.9999999999998
 20
374.7900844728026
 30
0.0
 11
518.0
 21
374.7900844728026
 31
0.0
  0
LINE
  5
9BC
  8
SIZE
  6
CONTINUOUS
 62
    30
 10
-494.9999999999998
 20
249.9766495957691
 30
0.0
 11
495.0000000000003
 21
249.9766495957691
 31
0.0
  0
TEXT
  5
9BD
  8
SIZE
  6
BYBLOCK
 62
    30
 10
-68.57142900000011
 20
-349.652908
 30
0.0
 40
64.0
  1
910
 41
0.9
  0
CIRCLE
  5
9BE
  8
ARRANGE
  6
CONTINUOUS
 62
     1
 10
0.0
 20
0.0
 30
0.0
 40
40.0
  0
LINE
  5
9BF
  8
BASIS
  6
DASHDOT
 62
     6
 10
-622.8293319999993
 20
0.0
 30
0.0
 11
622.771571
 21
0.0
 31
0.0
  0
LINE
  5
9C0
  8
DETAIL
  6
CONTINUOUS
 62
     5
 10
-449.9999999999998
 20
-110.0
 30
0.0
 11
450.0000000000002
 21
-110.0
 31
0.0
  0
LINE
  5
9C1
  8
SIZE
  6
CONTINUOUS
 62
    30
 10
-787.6148515236425
 20
85.00000000000003
 30
0.0
 11
-787.6148515236425
 21
-24.99999999999989
 31
0.0
  0
TEXT
  5
9C2
  8
SIZE
  6
CONTINUOUS
 62
    30
 10
-816.1392961975841
 20
-33.08571428571409
 30
0.0
 40
64.0
  1
110
 50
90.0
 41
0.9
  0
LINE
  5
9C3
  8
SIZE
  6
CONTINUOUS
 62
    30
 10
-925.6053506212918
 20
105.0000000000001
 30
0.0
 11
-925.6053506212918
 21
-44.99999999999989
 31
0.0
  0
TEXT
  5
9C4
  8
SIZE
  6
CONTINUOUS
 62
    30
 10
-954.1766290185876
 20
-38.57142857142858
 30
0.0
 40
64.0
  1
150
 50
90.0
 41
0.9
  0
LINE
  5
9C5
  8
DETAIL
  6
CONTINUOUS
 62
     5
 10
-515.7000000000002
 20
64.99999999999997
 30
0.0
 11
-515.6999999999997
 21
-5.0
 31
0.0
  0
LINE
  5
9C6
  8
BASIS
  6
DASHDOT
 62
     6
 10
0.0
 20
174.407155
 30
0.0
 11
0.0
 21
-177.0284299999999
 31
0.0
  0
LINE
  5
9C7
  8
DETAIL
  6
CONTINUOUS
 62
     5
 10
-454.9999999999998
 20
106.2
 30
0.0
 11
-454.9999999999998
 21
-105.0
 31
0.0
  0
LINE
  5
9C8
  8
DETAIL
  6
CONTINUOUS
 62
     5
 10
-454.9999999999998
 20
71.49999999999997
 30
0.0
 11
-454.9999999999998
 21
-23.29999999999998
 31
0.0
  0
LINE
  5
9C9
  8
SIZE
  6
CONTINUOUS
 62
    30
 10
-543.5402135346628
 20
-25.0
 30
0.0
 11
-817.1950633868898
 21
-24.99999999999989
 31
0.0
  0
LINE
  5
9CA
  8
SIZE
  6
CONTINUOUS
 62
    30
 10
-537.9999999999998
 20
-45.0
 30
0.0
 11
-950.0559930260813
 21
-44.99999999999989
 31
0.0
  0
LINE
  5
9CB
  8
NOTE
  6
CONTINUOUS
 62
     4
 10
-521.7498180147809
 20
-120.9662670018164
 30
0.0
 11
-696.5220596743444
 21
-243.5277409204777
 31
0.0
1001
ACAD
1000
DSTYLE
1002
{
1070
    41
1040
40.0
1070
    42
1040
20.0
1070
    43
1040
200.0
1070
    44
1040
30.0
1070
    73
1070
     0
1070
    74
1070
     0
1070
    77
1070
     0
1070
    78
1070
     8
1070
   140
1040
64.0
1070
   147
1040
20.0
1070
   172
1070
     1
1070
   174
1070
     1
1070
   275
1070
     0
1070
   279
1070
     0
1070
   284
1070
     0
1070
   285
1070
     0
1070
   286
1070
     0
1070
   341
1005
30E
1070
   342
1005
30B
1002
}
  0
TEXT
  5
9CC
  8
SIZE
  6
CONTINUOUS
 62
    30
 10
-662.1266507770658
 20
-360.30428882084
 30
0.0
 40
64.0
  1
63
 41
0.9
  0
TEXT
  5
9CD
  8
NOTE
  6
CONTINUOUS
 62
     4
 10
-1035.127157735511
 20
-213.3670549615653
 30
0.0
 40
64.0
  1
端子カバー
 41
0.9
  0
LINE
  5
9CE
  8
NOTE
  6
CONTINUOUS
 62
     4
 10
-696.5220596743444
 20
-243.5277409204777
 30
0.0
 11
-1042.026099555297
 21
-244.3894748050177
 31
0.0
1001
ACAD
1000
DSTYLE
1002
{
1070
    41
1040
40.0
1070
    42
1040
20.0
1070
    43
1040
200.0
1070
    44
1040
30.0
1070
    73
1070
     0
1070
    74
1070
     0
1070
    77
1070
     0
1070
    78
1070
     8
1070
   140
1040
64.0
1070
   147
1040
20.0
1070
   172
1070
     1
1070
   174
1070
     1
1070
   275
1070
     0
1070
   279
1070
     0
1070
   284
1070
     0
1070
   285
1070
     0
1070
   286
1070
     0
1070
   341
1005
30E
1070
   342
1005
30B
1002
}
  0
LINE
  5
9CF
  8
SIZE
  6
CONTINUOUS
 62
    30
 10
-925.6053506212918
 20
-44.99999999999989
 30
0.0
 11
-925.6053506212918
 21
-46.99999999999989
 31
0.0
  0
CIRCLE
  5
9D0
  8
SIZE
  6
CONTINUOUS
 62
    30
 10
-925.6053506212918
 20
-44.99999999999989
 30
0.0
 40
6.0
  0
CIRCLE
  5
9D1
  8
SIZE
  6
CONTINUOUS
 62
    30
 10
-787.6148515236425
 20
-24.99999999999989
 30
0.0
 40
6.0
  0
LINE
  5
9D2
  8
SIZE
  6
CONTINUOUS
 62
    30
 10
-787.6148515236425
 20
-24.99999999999989
 30
0.0
 11
-787.6148515236425
 21
-27.0
 31
0.0
  0
LINE
  5
9D3
  8
SIZE
  6
CONTINUOUS
 62
    30
 10
-454.9999999999998
 20
-256.214600683159
 30
0.0
 11
-314.9999999999998
 21
-256.214600683159
 31
0.0
  0
TEXT
  5
9D4
  8
SIZE
  6
CONTINUOUS
 62
    30
 10
-430.9999999999998
 20
-236.2146006831586
 30
0.0
 40
64.0
  1
34
 41
0.9
  0
LINE
  5
9D5
  8
SIZE
  6
CONTINUOUS
 62
    30
 10
-454.9999999999998
 20
-246.979074
 30
0.0
 11
-454.9999999999998
 21
-226.214600683159
 31
0.0
  0
LINE
  5
9D6
  8
SIZE
  6
CONTINUOUS
 62
    30
 10
-488.9999999999998
 20
-118.0
 30
0.0
 11
-488.9999999999998
 21
-286.214600683159
 31
0.0
  0
LINE
  5
9D7
  8
SIZE
  6
CONTINUOUS
 62
    30
 10
-517.9999999999998
 20
-65.0
 30
0.0
 11
-517.9999999999998
 21
-410.30428882084
 31
0.0
  0
LINE
  5
9D8
  8
SIZE
  6
BYBLOCK
 62
    30
 10
-454.9999999999998
 20
-125.5647649999999
 30
0.0
 11
-454.9999999999998
 21
-411.6529079999999
 31
0.0
  0
LINE
  5
9D9
  8
SIZE
  6
BYBLOCK
 62
    30
 10
-454.9999999999998
 20
-124.9999999999998
 30
0.0
 11
-454.9999999999998
 21
-266.979074
 31
0.0
  0
CIRCLE
  5
9DA
  8
SIZE
  6
CONTINUOUS
 62
    30
 10
-488.9999999999998
 20
-256.214600683159
 30
0.0
 40
6.0
  0
CIRCLE
  5
9DB
  8
SIZE
  6
CONTINUOUS
 62
    30
 10
-517.9999999999998
 20
-381.652908
 30
0.0
 40
6.0
  0
CIRCLE
  5
9DC
  8
SIZE
  6
CONTINUOUS
 62
    30
 10
-454.9999999999998
 20
-381.652908
 30
0.0
 40
6.0
  0
CIRCLE
  5
9DD
  8
SIZE
  6
CONTINUOUS
 62
    30
 10
-454.9999999999998
 20
-256.214600683159
 30
0.0
 40
6.0
  0
LINE
  5
9DE
  8
SIZE
  6
CONTINUOUS
 62
    30
 10
-488.9999999999998
 20
-256.214600683159
 30
0.0
 11
-454.9999999999998
 21
-256.214600683159
 31
0.0
  0
LINE
  5
9DF
  8
SIZE
  6
CONTINUOUS
 62
    30
 10
-488.9999999999998
 20
-256.214600683159
 30
0.0
 11
-490.9999999999998
 21
-256.214600683159
 31
0.0
  0
CIRCLE
  5
9E0
  8
FIX
  6
CONTINUOUS
 62
    11
 10
-494.9999999999998
 20
-25.0
 30
0.0
 40
6.0
  0
LINE
  5
9E1
  8
NOTE
  6
CONTINUOUS
 62
     4
 10
-484.7336776878826
 20
-25.0
 30
0.0
 11
-523.5402135346624
 21
-25.0
 31
0.0
  0
ARC
  5
9E2
  8
DETAIL
  6
CONTINUOUS
 62
     5
 10
-494.9999999999998
 20
-25.0
 30
0.0
 40
6.0
 50
270.0
 51
90.0
  0
LINE
  5
9E3
  8
DETAIL
  6
CONTINUOUS
 62
     5
 10
-454.9999999999998
 20
-45.0
 30
0.0
 11
-517.9999999999998
 21
-45.0
 31
0.0
  0
LINE
  5
9E4
  8
NOTE
  6
CONTINUOUS
 62
     4
 10
-494.9999999999998
 20
-15.98033054620188
 30
0.0
 11
-494.9999999999998
 21
-34.50761344575488
 31
0.0
  0
LINE
  5
9E5
  8
DETAIL
  6
CONTINUOUS
 62
     5
 10
-517.9999999999998
 20
-31.0
 30
0.0
 11
-517.9999999999998
 21
-45.0
 31
0.0
  0
LINE
  5
9E6
  8
DETAIL
  6
CONTINUOUS
 62
     5
 10
-517.9999999999998
 20
-5.0
 30
0.0
 11
-517.9999999999998
 21
-19.0
 31
0.0
  0
LINE
  5
9E7
  8
DETAIL
  6
CONTINUOUS
 62
     5
 10
-517.9999999999998
 20
-5.0
 30
0.0
 11
-515.6999999999997
 21
-5.0
 31
0.0
  0
LINE
  5
9E8
  8
DETAIL
  6
CONTINUOUS
 62
     5
 10
-494.9999999999998
 20
-31.0
 30
0.0
 11
-517.9999999999998
 21
-31.0
 31
0.0
  0
LINE
  5
9E9
  8
DETAIL
  6
CONTINUOUS
 62
     5
 10
-494.9999999999998
 20
-19.0
 30
0.0
 11
-517.9999999999998
 21
-19.0
 31
0.0
  0
LINE
  5
9EA
  8
DETAIL
  6
CONTINUOUS
 62
     5
 10
-488.9999999999998
 20
-50.0
 30
0.0
 11
-488.9999999999998
 21
-94.0
 31
0.0
  0
ARC
  5
9EB
  8
DETAIL
  6
CONTINUOUS
 62
     5
 10
-449.9999999999998
 20
-105.0
 30
0.0
 40
5.0
 50
180.0
 51
270.0
  0
LINE
  5
9EC
  8
SIZE
  6
CONTINUOUS
 62
    30
 10
-537.9999999999998
 20
78.99999999999997
 30
0.0
 11
-692.9614675063001
 21
79.00000000000003
 31
0.0
  0
LINE
  5
9ED
  8
SIZE
  6
CONTINUOUS
 62
    30
 10
-537.9999999999998
 20
90.99999999999997
 30
0.0
 11
-691.2360022179043
 21
91.00000000000006
 31
0.0
  0
LINE
  5
9EE
  8
SIZE
  6
CONTINUOUS
 62
    30
 10
-543.1090301282152
 20
84.99999999999997
 30
0.0
 11
-813.7441328100992
 21
85.00000000000003
 31
0.0
  0
LINE
  5
9EF
  8
SIZE
  6
CONTINUOUS
 62
    30
 10
-537.9999999999998
 20
105.0
 30
0.0
 11
-950.0559930260813
 21
105.0000000000001
 31
0.0
  0
LINE
  5
9F0
  8
SIZE
  6
CONTINUOUS
 62
    30
 10
-494.9999999999998
 20
249.9766495957691
 30
0.0
 11
-656.6063379514596
 21
249.9766495957691
 31
0.0
  0
LINE
  5
9F1
  8
SIZE
  6
CONTINUOUS
 62
    30
 10
-925.6053506212918
 20
105.0000000000001
 30
0.0
 11
-925.6053506212918
 21
107.0000000000001
 31
0.0
  0
CIRCLE
  5
9F2
  8
SIZE
  6
CONTINUOUS
 62
    30
 10
-925.6053506212918
 20
107.0000000000001
 30
0.0
 40
6.0
  0
LINE
  5
9F3
  8
SIZE
  6
CONTINUOUS
 62
    30
 10
-668.5964296263098
 20
218.4419940689116
 30
0.0
 11
-668.5964296263098
 21
90.99999999999997
 31
0.0
  0
CIRCLE
  5
9F4
  8
SIZE
  6
CONTINUOUS
 62
    30
 10
-787.6148515236425
 20
85.00000000000003
 30
0.0
 40
6.0
  0
LINE
  5
9F5
  8
SIZE
  6
CONTINUOUS
 62
    30
 10
-787.6148515236425
 20
85.00000000000003
 30
0.0
 11
-787.6148515236425
 21
87.00000000000003
 31
0.0
  0
LINE
  5
9F6
  8
SIZE
  6
CONTINUOUS
 62
    30
 10
-668.5964296263098
 20
90.99999999999997
 30
0.0
 11
-668.5964296263098
 21
93.0
 31
0.0
  0
LINE
  5
9F7
  8
SIZE
  6
CONTINUOUS
 62
    30
 10
-668.5964296263098
 20
78.99999999999997
 30
0.0
 11
-668.5964296263098
 21
76.99999999999997
 31
0.0
  0
LINE
  5
9F8
  8
SIZE
  6
CONTINUOUS
 62
    30
 10
-668.5964296263098
 20
90.99999999999997
 30
0.0
 11
-668.5964296263098
 21
78.99999999999997
 31
0.0
  0
LINE
  5
9F9
  8
SIZE
  6
CONTINUOUS
 62
    30
 10
-668.5964296263098
 20
90.99999999999997
 30
0.0
 11
-668.5964296263098
 21
78.99999999999997
 31
0.0
  0
CIRCLE
  5
9FA
  8
SIZE
  6
CONTINUOUS
 62
    30
 10
-668.5964296263098
 20
93.0
 30
0.0
 40
6.0
  0
CIRCLE
  5
9FB
  8
SIZE
  6
CONTINUOUS
 62
    30
 10
-668.5964296263098
 20
76.99999999999997
 30
0.0
 40
6.0
  0
TEXT
  5
9FC
  8
SIZE
  6
CONTINUOUS
 62
    30
 10
-688.5964296263098
 20
116.1562797831973
 30
0.0
 40
64.0
  1
12
 50
90.0
 41
0.9
  0
LINE
  5
9FD
  8
DETAIL
  6
CONTINUOUS
 62
     5
 10
-449.9999999999998
 20
110.0
 30
0.0
 11
0.0
 21
110.0
 31
0.0
  0
LINE
  5
9FE
  8
SIZE
  6
CONTINUOUS
 62
    30
 10
-517.9999999999998
 20
125.0
 30
0.0
 11
-517.9999999999998
 21
404.7900844728028
 31
0.0
  0
LINE
  5
9FF
  8
SIZE
  6
CONTINUOUS
 62
    30
 10
-494.9999999999998
 20
114.3216154388337
 30
0.0
 11
-494.9999999999998
 21
279.976649595769
 31
0.0
  0
CIRCLE
  5
A00
  8
FIX
  6
CONTINUOUS
 62
    11
 10
-494.9999999999998
 20
84.99999999999997
 30
0.0
 40
6.0
  0
LINE
  5
A01
  8
NOTE
  6
CONTINUOUS
 62
     4
 10
-484.7336776878826
 20
84.99999999999997
 30
0.0
 11
-523.1090301282154
 21
84.99999999999997
 31
0.0
  0
ARC
  5
A02
  8
DETAIL
  6
CONTINUOUS
 62
     5
 10
-494.9999999999998
 20
84.99999999999997
 30
0.0
 40
6.0
 50
270.0
 51
90.0
  0
LINE
  5
A03
  8
DETAIL
  6
CONTINUOUS
 62
     5
 10
-454.9999999999998
 20
105.0
 30
0.0
 11
-517.9999999999998
 21
105.0
 31
0.0
  0
LINE
  5
A04
  8
NOTE
  6
CONTINUOUS
 62
     4
 10
-494.9999999999998
 20
94.32161543883373
 30
0.0
 11
-494.9999999999998
 21
75.79433692121617
 31
0.0
  0
LINE
  5
A05
  8
DETAIL
  6
CONTINUOUS
 62
     5
 10
-517.9999999999998
 20
105.0
 30
0.0
 11
-517.9999999999998
 21
90.99999999999997
 31
0.0
  0
LINE
  5
A06
  8
DETAIL
  6
CONTINUOUS
 62
     5
 10
-517.9999999999998
 20
78.99999999999997
 30
0.0
 11
-517.9999999999998
 21
64.99999999999997
 31
0.0
  0
LINE
  5
A07
  8
DETAIL
  6
CONTINUOUS
 62
     5
 10
-517.9999999999998
 20
64.99999999999997
 30
0.0
 11
-515.6999999999997
 21
64.99999999999997
 31
0.0
  0
LINE
  5
A08
  8
DETAIL
  6
CONTINUOUS
 62
     5
 10
-494.9999999999998
 20
78.99999999999997
 30
0.0
 11
-517.9999999999998
 21
78.99999999999997
 31
0.0
  0
LINE
  5
A09
  8
DETAIL
  6
CONTINUOUS
 62
     5
 10
-494.9999999999998
 20
90.99999999999997
 30
0.0
 11
-517.9999999999998
 21
90.99999999999997
 31
0.0
  0
ARC
  5
A0A
  8
DETAIL
  6
CONTINUOUS
 62
     5
 10
-449.9999999999998
 20
105.0
 30
0.0
 40
5.0
 50
90.0
 51
180.0
  0
CIRCLE
  5
A0B
  8
SIZE
  6
CONTINUOUS
 62
    30
 10
-494.9999999999998
 20
249.9766495957691
 30
0.0
 40
6.0
  0
TEXT
  5
A0C
  8
SIZE
  6
CONTINUOUS
 62
    30
 10
-635.3809740594164
 20
270.7003919531858
 30
0.0
 40
64.0
  1
23
 41
0.9
  0
CIRCLE
  5
A0D
  8
SIZE
  6
CONTINUOUS
 62
    30
 10
-517.9999999999998
 20
249.9766495957691
 30
0.0
 40
6.0
  0
LINE
  5
A0E
  8
SIZE
  6
CONTINUOUS
 62
    30
 10
-517.9999999999998
 20
269.9766495957691
 30
0.0
 11
-517.9999999999998
 21
280.7003919531861
 31
0.0
  0
LINE
  5
A0F
  8
SIZE
  6
CONTINUOUS
 62
    30
 10
-494.9999999999998
 20
269.9766495957691
 30
0.0
 11
-494.9999999999998
 21
280.7003919531861
 31
0.0
  0
CIRCLE
  5
A10
  8
SIZE
  6
CONTINUOUS
 62
    30
 10
-517.9999999999998
 20
374.7900844728026
 30
0.0
 40
6.0
  0
LINE
  5
A11
  8
DETAIL
  6
CONTINUOUS
 62
     5
 10
455.0000000000001
 20
105.0
 30
0.0
 11
455.0000000000001
 21
-105.0
 31
0.0
  0
LINE
  5
A12
  8
DETAIL
  6
CONTINUOUS
 62
     5
 10
515.7000000000003
 20
64.99999999999997
 30
0.0
 11
515.7000000000003
 21
-5.0
 31
0.0
  0
TEXT
  5
A13
  8
SIZE
  6
BYBLOCK
 62
    30
 10
737.0424910000002
 20
-74.057143
 30
0.0
 40
64.0
  1
220
 50
90.0
 41
0.9
  0
LINE
  5
A14
  8
SIZE
  6
BYBLOCK
 62
    30
 10
769.0424909999992
 20
108.0
 30
0.0
 11
769.0424909999992
 21
0.0
 31
0.0
  0
LINE
  5
A15
  8
DETAIL
  6
CONTINUOUS
 62
     5
 10
455.0000000000001
 20
105.0
 30
0.0
 11
455.0000000000001
 21
-105.0
 31
0.0
  0
LINE
  5
A16
  8
SIZE
  6
BYBLOCK
 62
    30
 10
470.0000000000003
 20
-110.0
 30
0.0
 11
799.0424909999983
 21
-110.0
 31
0.0
  0
LINE
  5
A17
  8
SIZE
  6
BYBLOCK
 62
    30
 10
455.0000000000001
 20
-125.5647649999999
 30
0.0
 11
455.0000000000001
 21
-411.6529079999999
 31
0.0
  0
CIRCLE
  5
A18
  8
SIZE
  6
CONTINUOUS
 62
    30
 10
455.0000000000001
 20
-381.652908
 30
0.0
 40
6.0
  0
CIRCLE
  5
A19
  8
FIX
  6
CONTINUOUS
 62
    11
 10
495.0000000000003
 20
-25.0
 30
0.0
 40
6.0
  0
LINE
  5
A1A
  8
NOTE
  6
CONTINUOUS
 62
     4
 10
485.6683063405226
 20
-25.0
 30
0.0
 11
523.5894353189722
 21
-25.0
 31
0.0
  0
ARC
  5
A1B
  8
DETAIL
  6
CONTINUOUS
 62
     5
 10
495.0000000000003
 20
-25.0
 30
0.0
 40
6.0
 50
90.0
 51
270.0
  0
LINE
  5
A1C
  8
DETAIL
  6
CONTINUOUS
 62
     5
 10
455.0000000000001
 20
-45.0
 30
0.0
 11
518.0
 21
-45.0
 31
0.0
  0
ARC
  5
A1D
  8
DETAIL
  6
CONTINUOUS
 62
     5
 10
450.0000000000002
 20
-105.0
 30
0.0
 40
5.0
 50
270.0
 51
0.0
  0
LINE
  5
A1E
  8
NOTE
  6
CONTINUOUS
 62
     4
 10
495.0000000000003
 20
-15.549463603932
 30
0.0
 11
495.0000000000003
 21
-34.07674650348508
 31
0.0
  0
LINE
  5
A1F
  8
DETAIL
  6
CONTINUOUS
 62
     5
 10
518.0
 20
-31.0
 30
0.0
 11
518.0
 21
-45.0
 31
0.0
  0
LINE
  5
A20
  8
DETAIL
  6
CONTINUOUS
 62
     5
 10
518.0
 20
-5.0
 30
0.0
 11
518.0
 21
-19.0
 31
0.0
  0
LINE
  5
A21
  8
DETAIL
  6
CONTINUOUS
 62
     5
 10
515.7000000000003
 20
-5.0
 30
0.0
 11
518.0
 21
-5.0
 31
0.0
  0
LINE
  5
A22
  8
DETAIL
  6
CONTINUOUS
 62
     5
 10
495.0000000000003
 20
-31.0
 30
0.0
 11
518.0
 21
-31.0
 31
0.0
  0
LINE
  5
A23
  8
DETAIL
  6
CONTINUOUS
 62
     5
 10
495.0000000000003
 20
-19.0
 30
0.0
 11
518.0
 21
-19.0
 31
0.0
  0
CIRCLE
  5
A24
  8
SIZE
  6
CONTINUOUS
 62
    30
 10
769.0424909999992
 20
-110.0
 30
0.0
 40
6.0
  0
LINE
  5
A25
  8
SIZE
  6
BYBLOCK
 62
    30
 10
769.0424909999992
 20
-108.0
 30
0.0
 11
769.0424909999992
 21
0.0
 31
0.0
  0
TEXT
  5
A26
  8
NOTE
  6
CONTINUOUS
 62
     4
 10
617.1688922811509
 20
282.9917019710955
 30
0.0
 40
64.0
  1
AH-4
 41
0.9
  0
LINE
  5
A27
  8
SIZE
  6
BYBLOCK
 62
    30
 10
470.0000000000003
 20
110.0
 30
0.0
 11
799.0424909999983
 21
110.0
 31
0.0
  0
LINE
  5
A28
  8
NOTE
  6
CONTINUOUS
 62
     4
 10
517.9595344419552
 20
117.7545382841629
 30
0.0
 11
613.63297177615
 21
254.2442077007144
 31
0.0
1001
ACAD
1000
DSTYLE
1002
{
1070
    41
1040
40.0
1070
    42
1040
20.0
1070
    43
1040
200.0
1070
    44
1040
30.0
1070
    73
1070
     0
1070
    74
1070
     0
1070
    77
1070
     0
1070
    78
1070
     8
1070
   140
1040
64.0
1070
   147
1040
20.0
1070
   172
1070
     1
1070
   174
1070
     1
1070
   275
1070
     0
1070
   279
1070
     0
1070
   284
1070
     0
1070
   285
1070
     0
1070
   286
1070
     0
1070
   341
1005
30E
1070
   342
1005
30B
1002
}
  0
LINE
  5
A29
  8
SIZE
  6
CONTINUOUS
 62
    30
 10
518.0
 20
125.0
 30
0.0
 11
518.0
 21
404.7900844728028
 31
0.0
  0
LINE
  5
A2A
  8
SIZE
  6
CONTINUOUS
 62
    30
 10
495.0000000000003
 20
114.7524823811036
 30
0.0
 11
495.0000000000003
 21
279.976649595769
 31
0.0
  0
LINE
  5
A2B
  8
DETAIL
  6
CONTINUOUS
 62
     5
 10
455.0000000000001
 20
105.0
 30
0.0
 11
518.0
 21
105.0
 31
0.0
  0
CIRCLE
  5
A2C
  8
FIX
  6
CONTINUOUS
 62
    11
 10
495.0000000000003
 20
84.99999999999997
 30
0.0
 40
6.0
  0
LINE
  5
A2D
  8
NOTE
  6
CONTINUOUS
 62
     4
 10
483.9435727147322
 20
84.99999999999997
 30
0.0
 11
523.158251912525
 21
84.99999999999997
 31
0.0
  0
ARC
  5
A2E
  8
DETAIL
  6
CONTINUOUS
 62
     5
 10
495.0000000000003
 20
84.99999999999997
 30
0.0
 40
6.0
 50
90.0
 51
270.0
  0
ARC
  5
A2F
  8
DETAIL
  6
CONTINUOUS
 62
     5
 10
450.0000000000002
 20
105.0
 30
0.0
 40
5.0
 50
0.0
 51
90.0
  0
ARC
  5
A30
  8
DETAIL
  6
CONTINUOUS
 62
     5
 10
450.0000000000002
 20
105.0
 30
0.0
 40
5.0
 50
0.0
 51
90.0
  0
LINE
  5
A31
  8
NOTE
  6
CONTINUOUS
 62
     4
 10
495.0000000000003
 20
94.75248238110365
 30
0.0
 11
495.0000000000003
 21
75.79433692121617
 31
0.0
  0
LINE
  5
A32
  8
DETAIL
  6
CONTINUOUS
 62
     5
 10
518.0
 20
78.99999999999997
 30
0.0
 11
518.0
 21
64.99999999999997
 31
0.0
  0
LINE
  5
A33
  8
DETAIL
  6
CONTINUOUS
 62
     5
 10
518.0
 20
105.0
 30
0.0
 11
518.0
 21
90.99999999999997
 31
0.0
  0
LINE
  5
A34
  8
DETAIL
  6
CONTINUOUS
 62
     5
 10
515.7000000000003
 20
64.99999999999997
 30
0.0
 11
518.0
 21
64.99999999999997
 31
0.0
  0
LINE
  5
A35
  8
DETAIL
  6
CONTINUOUS
 62
     5
 10
495.0000000000003
 20
78.99999999999997
 30
0.0
 11
518.0
 21
78.99999999999997
 31
0.0
  0
LINE
  5
A36
  8
DETAIL
  6
CONTINUOUS
 62
     5
 10
495.0000000000003
 20
90.99999999999997
 30
0.0
 11
518.0
 21
90.99999999999997
 31
0.0
  0
CIRCLE
  5
A37
  8
SIZE
  6
CONTINUOUS
 62
    30
 10
495.0000000000003
 20
249.9766495957691
 30
0.0
 40
6.0
  0
CIRCLE
  5
A38
  8
SIZE
  6
CONTINUOUS
 62
    30
 10
518.0
 20
374.7900844728026
 30
0.0
 40
6.0
  0
CIRCLE
  5
A39
  8
SIZE
  6
CONTINUOUS
 62
    30
 10
769.0424909999992
 20
110.0
 30
0.0
 40
6.0
  0
TEXT
  5
A3A
  8
ETC
  6
CONTINUOUS
 62
    61
 10
655.2911502022894
 20
716.5304624083317
 30
0.0
 40
64.0
  1
AH-3009TCA_6
 41
0.9
  0
TEXT
  5
A3B
  8
ETC
  6
CONTINUOUS
 62
    61
 10
898.6149311920262
 20
453.6197102278575
 30
0.0
 40
50.0
  1
AH-3009TCA-G
 41
0.9
  0
TEXT
  5
A3C
  8
ETC
  6
CONTINUOUS
 62
    61
 10
896.2256383316792
 20
528.9773567605943
 30
0.0
 40
50.0
  1
AH-3009TCA
 41
0.9
  0
TEXT
  5
A3D
  8
ETC
  6
CONTINUOUS
 62
    61
 10
644.9434952022891
 20
608.8630474083317
 30
0.0
 40
64.0
  1
産業扇
 41
0.9
  0
LINE
  5
A3E
  8
DETAIL
  6
CONTINUOUS
 62
     5
 10
457.3000000000001
 20
105.0
 30
0.0
 11
457.3000000000001
 21
-45.0
 31
0.0
  0
LINE
  5
A3F
  8
DETAIL
  6
CONTINUOUS
 62
     5
 10
515.7000000000003
 20
-5.0
 30
0.0
 11
515.7000000000003
 21
-19.0
 31
0.0
  0
LINE
  5
A40
  8
DETAIL
  6
CONTINUOUS
 62
     5
 10
515.7000000000003
 20
-31.0
 30
0.0
 11
515.7000000000003
 21
-45.0
 31
0.0
  0
LINE
  5
A41
  8
DETAIL
  6
CONTINUOUS
 62
     5
 10
515.7000000000003
 20
78.99999999999997
 30
0.0
 11
515.7000000000003
 21
64.99999999999997
 31
0.0
  0
LINE
  5
A42
  8
DETAIL
  6
CONTINUOUS
 62
     5
 10
515.7000000000003
 20
105.0
 30
0.0
 11
515.7000000000003
 21
90.99999999999997
 31
0.0
  0
LINE
  5
A43
  8
DETAIL
  6
CONTINUOUS
 62
     5
 10
-515.6999999999997
 20
78.99999999999997
 30
0.0
 11
-515.6999999999997
 21
64.99999999999997
 31
0.0
  0
LINE
  5
A44
  8
DETAIL
  6
CONTINUOUS
 62
     5
 10
-515.6999999999997
 20
105.0
 30
0.0
 11
-515.6999999999997
 21
90.99999999999997
 31
0.0
  0
LINE
  5
A45
  8
DETAIL
  6
CONTINUOUS
 62
     5
 10
-515.6999999999997
 20
-5.0
 30
0.0
 11
-515.6999999999997
 21
-19.0
 31
0.0
  0
LINE
  5
A46
  8
DETAIL
  6
CONTINUOUS
 62
     5
 10
-515.6999999999997
 20
-31.0
 30
0.0
 11
-515.6999999999997
 21
-45.0
 31
0.0
  0
LINE
  5
A47
  8
DETAIL
  6
CONTINUOUS
 62
     5
 10
-457.2999999999996
 20
106.2
 30
0.0
 11
-457.2999999999996
 21
-45.0
 31
0.0
  0
LINE
  5
A48
  8
NOTE
  6
CONTINUOUS
 62
     4
 10
613.63297177615
 20
254.2442077007144
 30
0.0
 11
861.5607891814611
 21
254.2442077007144
 31
0.0
  0
LINE
  5
A49
  8
DETAIL
  6
CONTINUOUS
 62
     5
 10
-454.9999999999998
 20
-50.0
 30
0.0
 11
-488.9999999999998
 21
-50.0
 31
0.0
  0
LINE
  5
A4A
  8
DETAIL
  6
CONTINUOUS
 62
     5
 10
-454.9999999999998
 20
-94.0
 30
0.0
 11
-488.9999999999998
 21
-94.0
 31
0.0
  0
LINE
  5
A4B
  8
OUTLINE
  6
CONTINUOUS
 62
     3
 10
-449.9999999999997
 20
110.0
 30
0.0
 11
450.0000000000002
 21
110.0
 31
0.0
  0
LINE
  5
A4C
  8
OUTLINE
  6
CONTINUOUS
 62
     3
 10
450.0000000000002
 20
-110.0
 30
0.0
 11
-449.9999999999998
 21
-110.0
 31
0.0
  0
LINE
  5
A4D
  8
OUTLINE
  6
CONTINUOUS
 62
     3
 10
-454.9999999999997
 20
105.0
 30
0.0
 11
-454.9999999999998
 21
-105.0
 31
0.0
  0
LINE
  5
A4E
  8
OUTLINE
  6
CONTINUOUS
 62
     3
 10
455.0000000000001
 20
105.0
 30
0.0
 11
455.0000000000001
 21
-105.0
 31
0.0
  0
ARC
  5
A4F
  8
OUTLINE
  6
CONTINUOUS
 62
     3
 10
-449.9999999999997
 20
105.0
 30
0.0
 40
5.0
 50
90.0
 51
180.0
  0
ARC
  5
A50
  8
OUTLINE
  6
CONTINUOUS
 62
     3
 10
450.0000000000002
 20
105.0
 30
0.0
 40
5.0
 50
0.0
 51
90.0
  0
ARC
  5
A51
  8
OUTLINE
  6
CONTINUOUS
 62
     3
 10
450.0000000000002
 20
-105.0
 30
0.0
 40
5.0
 50
270.0
 51
0.0
  0
ARC
  5
A52
  8
OUTLINE
  6
CONTINUOUS
 62
     3
 10
-449.9999999999998
 20
-105.0
 30
0.0
 40
5.0
 50
180.0
 51
270.0
  0
LINE
  5
A53
  8
ARRANGE
  6
CONTINUOUS
 62
     1
 10
-14.14213562373092
 20
-14.14213562373089
 30
0.0
 11
14.14213562373101
 21
14.14213562373101
 31
0.0
  0
LINE
  5
A54
  8
ARRANGE
  6
CONTINUOUS
 62
     1
 10
14.14213562373101
 20
-14.14213562373089
 30
0.0
 11
-14.14213562373101
 21
14.14213562373101
 31
0.0
  0
TEXT
  5
A5C
  8
ETC
  6
CONTINUOUS
 62
    61
 10
902.4510369847312
 20
301.0302119378595
 30
0.0
 40
50.0
  1
AH-3009SA-G
 41
0.9
  0
TEXT
  5
A5D
  8
ETC
  6
CONTINUOUS
 62
    61
 10
900.0617441243833
 20
376.3878584705963
 30
0.0
 40
50.0
  1
AH-3009SA
 41
0.9
  0
ENDSEC
  0
EOF
