  0
SECTION
  2
HEADER
  9
$ACADVER
  1
AC1009
  9
$DWGCODEPAGE
  3
dos932
  9
$INSBASE
 10
0.0
 20
0.0
 30
0.0
  9
$EXTMIN
 10
-1075.863631425733
 20
-535.12572082123552
 30
-0.0030516297567118
  9
$EXTMAX
 10
1562.132275374759
 20
708.8012776905689
 30
0.0007631257219032
  9
$LIMMIN
 10
-2970.0
 20
-2100.0
  9
$LIMMAX
 10
2970.0
 20
2100.0
  9
$ORTHOMODE
 70
     1
  9
$REGENMODE
 70
     1
  9
$FILLMODE
 70
     1
  9
$QTEXTMODE
 70
     0
  9
$MIRRTEXT
 70
     0
  9
$LTSCALE
 40
20.0
  9
$ATTMODE
 70
     1
  9
$TEXTSIZE
 40
64.0
  9
$TRACEWID
 40
0.05
  9
$TEXTSTYLE
  7
STANDARD
  9
$CLAYER
  8
SIZE
  9
$CELTYPE
  6
CONTINUOUS
  9
$CECOLOR
 62
     7
  9
$DIMSCALE
 40
1.0
  9
$DIMASZ
 40
12.0
  9
$DIMEXO
 40
20.0
  9
$DIMDLI
 40
200.0
  9
$DIMRND
 40
0.0
  9
$DIMDLE
 40
0.0
  9
$DIMEXE
 40
20.0
  9
$DIMTP
 40
0.0
  9
$DIMTM
 40
0.0
  9
$DIMTXT
 40
64.0
  9
$DIMCEN
 40
0.09
  9
$DIMTSZ
 40
0.0
  9
$DIMTOL
 70
     0
  9
$DIMLIM
 70
     0
  9
$DIMTIH
 70
     0
  9
$DIMTOH
 70
     0
  9
$DIMSE1
 70
     0
  9
$DIMSE2
 70
     0
  9
$DIMTAD
 70
     1
  9
$DIMZIN
 70
     8
  9
$DIMBLK
  1

  9
$DIMASO
 70
     1
  9
$DIMSHO
 70
     0
  9
$DIMPOST
  1

  9
$DIMAPOST
  1

  9
$DIMALT
 70
     0
  9
$DIMALTD
 70
     2
  9
$DIMALTF
 40
25.399999999999999
  9
$DIMLFAC
 40
1.0
  9
$DIMTOFL
 70
     1
  9
$DIMTVP
 40
0.0
  9
$DIMTIX
 70
     1
  9
$DIMSOXD
 70
     0
  9
$DIMSAH
 70
     0
  9
$DIMBLK1
  1

  9
$DIMBLK2
  1

  9
$DIMSTYLE
  2
STANDARD
  9
$DIMCLRD
 70
     7
  9
$DIMCLRE
 70
     7
  9
$DIMCLRT
 70
     7
  9
$DIMTFAC
 40
1.0
  9
$DIMGAP
 40
25.0
  9
$LUNITS
 70
     2
  9
$LUPREC
 70
     4
  9
$SKETCHINC
 40
0.1
  9
$FILLETRAD
 40
3.0
  9
$AUNITS
 70
     1
  9
$AUPREC
 70
     3
  9
$MENU
  1
ACAD
  9
$ELEVATION
 40
0.0
  9
$PELEVATION
 40
0.0
  9
$THICKNESS
 40
0.0
  9
$LIMCHECK
 70
     0
  9
$CHAMFERA
 40
0.0
  9
$CHAMFERB
 40
0.0
  9
$SKPOLY
 70
     0
  9
$TDCREATE
 40
2453019.62301037
  9
$TDUPDATE
 40
2459017.564866562
  9
$TDINDWG
 40
1.7191595023
  9
$TDUSRTIMER
 40
1.7191595023
  9
$USRTIMER
 70
     1
  9
$ANGBASE
 50
0.0
  9
$ANGDIR
 70
     0
  9
$PDMODE
 70
     3
  9
$PDSIZE
 40
-2.0
  9
$PLINEWID
 40
0.0
  9
$SPLFRAME
 70
     0
  9
$SPLINETYPE
 70
     6
  9
$SPLINESEGS
 70
     8
  9
$SURFTAB1
 70
     6
  9
$SURFTAB2
 70
     6
  9
$SURFTYPE
 70
     6
  9
$SURFU
 70
     6
  9
$SURFV
 70
     6
  9
$UCSNAME
  2

  9
$UCSORG
 10
0.0
 20
0.0
 30
0.0
  9
$UCSXDIR
 10
1.0
 20
0.0
 30
0.0
  9
$UCSYDIR
 10
0.0
 20
1.0
 30
0.0
  9
$PUCSNAME
  2

  9
$PUCSORG
 10
0.0
 20
0.0
 30
0.0
  9
$PUCSXDIR
 10
1.0
 20
0.0
 30
0.0
  9
$PUCSYDIR
 10
0.0
 20
1.0
 30
0.0
  9
$USERI1
 70
     0
  9
$USERI2
 70
     0
  9
$USERI3
 70
     0
  9
$USERI4
 70
     0
  9
$USERI5
 70
     0
  9
$USERR1
 40
20.0
  9
$USERR2
 40
0.0
  9
$USERR3
 40
0.0
  9
$USERR4
 40
0.0
  9
$USERR5
 40
0.0
  9
$WORLDVIEW
 70
     1
  9
$SHADEDGE
 70
     3
  9
$SHADEDIF
 70
    70
  9
$TILEMODE
 70
     1
  9
$MAXACTVP
 70
    48
  9
$PINSBASE
 10
0.0
 20
0.0
 30
0.0
  9
$PLIMCHECK
 70
     0
  9
$PEXTMIN
 10
-100000000000000000000.0
 20
-100000000000000000000.0
 30
-100000000000000000000.0
  9
$PEXTMAX
 10
100000000000000000000.0
 20
100000000000000000000.0
 30
100000000000000000000.0
  9
$PLIMMIN
 10
0.0
 20
0.0
  9
$PLIMMAX
 10
12.0
 20
9.0
  9
$UNITMODE
 70
     0
  9
$VISRETAIN
 70
     0
  9
$PLINEGEN
 70
     0
  9
$PSLTSCALE
 70
     0
  9
$TREEDEPTH
 70
  3020
  9
$ATTDIA
 70
     0
  9
$ATTREQ
 70
     1
  9
$BLIPMODE
 70
     1
  9
$COORDS
 70
     1
  9
$DRAGMODE
 70
     2
  9
$OSMODE
 70
     0
  9
$HANDLING
 70
     0
  9
$HANDSEED
  5
F038
  0
ENDSEC
  0
SECTION
  2
TABLES
  0
TABLE
  2
LTYPE
 70
     3
  0
LTYPE
  2
CONTINUOUS
 70
     0
  3
実線
 72
    65
 73
     0
 40
0.0
  0
LTYPE
  2
DASHDOT
 70
     0
  3
____ _ ____ _ ____ _ ____ _ ____ _ ____ _ ____
 72
    65
 73
     4
 40
5.5
 49
4.0
 49
-0.6
 49
0.3
 49
-0.6
  0
LTYPE
  2
DASHED
 70
     0
  3
-- -- -- -- -- -- -- -- -- -- -- -- -- -- --
 72
    65
 73
     2
 40
0.75
 49
0.5
 49
-0.25
  0
ENDTAB
  0
TABLE
  2
LAYER
 70
    12
  0
LAYER
  2
0
 70
     0
 62
     7
  6
CONTINUOUS
  0
LAYER
  2
BASIS
 70
     0
 62
     6
  6
DASHDOT
  0
LAYER
  2
OUTLINE
 70
     0
 62
     3
  6
CONTINUOUS
  0
LAYER
  2
DETAIL
 70
     0
 62
     5
  6
CONTINUOUS
  0
LAYER
  2
SIZE
 70
     0
 62
    30
  6
CONTINUOUS
  0
LAYER
  2
ARRANGE
 70
     0
 62
     1
  6
CONTINUOUS
  0
LAYER
  2
ETC
 70
     0
 62
    61
  6
CONTINUOUS
  0
LAYER
  2
FIX
 70
     0
 62
    11
  6
CONTINUOUS
  0
LAYER
  2
NOTE
 70
     0
 62
     4
  6
CONTINUOUS
  0
LAYER
  2
DEFPOINTS
 70
    64
 62
     7
  6
CONTINUOUS
  0
LAYER
  2
SERVICESPACE
 70
    64
 62
     2
  6
DASHDOT
  0
LAYER
  2
SYMBOLLINE
 70
    64
 62
    15
  6
CONTINUOUS
  0
ENDTAB
  0
TABLE
  2
STYLE
 70
     1
  0
STYLE
  2
STANDARD
 70
     0
 40
64.0
 41
0.9
 50
0.0
 71
     0
 42
64.0
  3
SIMPLEX.shx
  4
BIGFONT.shx
  0
ENDTAB
  0
TABLE
  2
APPID
 70
    19
  0
APPID
  2
ACAD
 70
     0
  0
APPID
  2
AUTOCAD_POSTSCRIPT_FIGURE
 70
     0
  0
APPID
  2
ACAD_EXEMPT_FROM_CAD_STANDARDS
 70
     0
  0
APPID
  2
ACAD_PSEXT
 70
     0
  0
APPID
  2
ACAUTHENVIRON
 70
     0
  0
APPID
  2
GENIUS_GENOENT_13
 70
     0
  0
APPID
  2
GENIUS_GENCFG_13
 70
     0
  0
APPID
  2
GENIUS_GENCFG0_13
 70
     0
  0
APPID
  2
GENIUS_GENCFG1_13
 70
     0
  0
APPID
  2
GENIUS_GENCFG2_13
 70
     0
  0
APPID
  2
GENIUS_GENCFG3_13
 70
     0
  0
APPID
  2
GENIUS_GENCFG4_13
 70
     0
  0
APPID
  2
GENIUS_GEVCFG0_13
 70
     0
  0
APPID
  2
CONTENTBLOCKICON
 70
     0
  0
APPID
  2
CONTENTBLOCKDESCRIPTION
 70
     0
  0
APPID
  2
ACAD_NAV_VCDISPLAY
 70
     0
  0
APPID
  2
ACAD_MLEADERVER
 70
     0
  0
APPID
  2
ACDBDYNAMICBLOCKTRUENAME
 70
     0
  0
APPID
  2
ACDBDYNAMICBLOCKGUID
 70
     0
  0
ENDTAB
  0
TABLE
  2
DIMSTYLE
 70
     1
  0
DIMSTYLE
  2
STANDARD
 70
     0
  3

  4

  5
_ORIGIN
  6

  7

 40
1.0
 41
12.0
 42
20.0
 43
200.0
 44
20.0
 45
0.0
 46
0.0
 47
0.0
 48
0.0
140
64.0
141
0.09
142
0.0
143
25.399999999999999
144
1.0
145
0.0
146
1.0
147
25.0
 71
     0
 72
     0
 73
     0
 74
     0
 75
     0
 76
     0
 77
     1
 78
     8
170
     0
171
     2
172
     1
173
     0
174
     1
175
     0
176
     7
177
     7
178
     7
  0
ENDTAB
  0
TABLE
  2
VIEW
 70
     1
  0
VIEW
  2
ALL
 70
     0
 40
4282.6198079999986
 10
0.0
 20
41.309904000000003
 41
5940.0
 11
0.0
 21
0.0
 31
1.0
 12
0.0
 22
0.0
 32
0.0
 42
50.0
 43
0.0
 44
0.0
 50
0.0
 71
     0
  0
ENDTAB
  0
TABLE
  2
UCS
 70
     0
  0
ENDTAB
  0
TABLE
  2
VPORT
 70
     1
  0
VPORT
  2
*ACTIVE
 70
     0
 10
0.0
 20
0.0
 11
1.0
 21
1.0
 12
243.13432197451311
 22
86.837778434666689
 13
0.0
 23
0.0
 14
1.0
 24
1.0
 15
0.0
 25
0.0
 16
0.0
 26
0.0
 36
1.0
 17
0.0
 27
0.0
 37
0.0
 40
1515.0596831091971
 41
1.747787610619469
 42
50.0
 43
0.0
 44
0.0
 50
0.0
 51
0.0
 71
     0
 72
  1000
 73
     1
 74
     3
 75
     0
 76
     0
 77
     0
 78
     0
  0
ENDTAB
  0
ENDSEC
  0
SECTION
  2
BLOCKS
  0
BLOCK
  8
0
  2
_ORIGIN
 70
     0
 10
0.0
 20
0.0
 30
0.0
  3
_ORIGIN
  1
_ORIGIN
  0
CIRCLE
  8
0
  6
CONTINUOUS
 62
     7
 10
0.0
 20
0.0
 30
0.0
 40
0.5
  0
LINE
  8
0
  6
CONTINUOUS
 62
     7
 10
0.0
 20
0.0
 30
0.0
 11
-1.0
 21
0.0
 31
0.0
  0
ENDBLK
  8
0
  0
ENDSEC
  0
SECTION
  2
ENTITIES
  0
TEXT
  8
ETC
  6
CONTINUOUS
 62
    61
 10
771.87954900000022
 20
644.78456600000004
 30
0.0
 40
64.0
  1
APF-2515HSB2_2
 41
0.9
  0
TEXT
  8
ETC
  6
CONTINUOUS
 62
    61
 10
767.69355499999983
 20
526.82925599999999
 30
0.0
 40
64.0
  1
産業扇
 41
0.9
  0
TEXT
  8
ETC
  6
CONTINUOUS
 62
    61
 10
818.30105700000013
 20
419.90832
 30
0.0
 40
40.0
  1
APF-2515HSB2
 41
0.9
  0
CIRCLE
  8
ARRANGE
  6
CONTINUOUS
 62
     1
 10
0.0
 20
0.0
 30
0.0
 40
40.0
  0
POINT
  8
ARRANGE
  6
CONTINUOUS
 62
     1
 10
0.0
 20
0.0
 30
0.0
  0
LINE
  8
BASIS
  6
DASHDOT
 62
     6
 10
0.0
 20
-136.558032
 30
0.0
 11
0.0
 21
149.251409
 31
0.0
  0
LINE
  8
BASIS
  6
DASHDOT
 62
     6
 10
798.14427599999999
 20
0.0
 30
0.0
 11
-780.38073200000008
 21
0.0
 31
0.0
  0
LINE
  8
NOTE
  6
CONTINUOUS
 62
     4
 10
741.5
 20
-16.0
 30
0.0
 11
887.24510600000031
 21
155.254311
 31
0.0
  0
LINE
  8
NOTE
  6
CONTINUOUS
 62
     4
 10
887.24510600000031
 20
155.254311
 30
0.0
 11
1562.0529059999999
 21
155.254311
 31
0.0
  0
TEXT
  8
NOTE
  6
CONTINUOUS
 62
     4
 10
916.1703950000001
 20
173.055431
 30
0.0
 40
64.0
  1
AH 2-φ10×16
 41
0.9
  0
LINE
  8
OUTLINE
  6
CONTINUOUS
 62
     3
 10
-717.99999500000013
 20
84.999995000000013
 30
0.0
 11
718.00000999999975
 21
84.999995000000013
 31
0.0
  0
LINE
  8
OUTLINE
  6
CONTINUOUS
 62
     3
 10
-717.99999500000013
 20
-37.0
 30
0.0
 11
-444.49999000000031
 21
-37.0
 31
0.0
  0
LINE
  8
OUTLINE
  6
CONTINUOUS
 62
     3
 10
-274.49999500000013
 20
-37.0
 30
0.0
 11
-272.5
 21
-37.0
 31
0.0
  0
LINE
  8
OUTLINE
  6
CONTINUOUS
 62
     3
 10
272.5
 20
-37.0
 30
0.0
 11
274.50000999999969
 21
-37.0
 31
0.0
  0
LINE
  8
OUTLINE
  6
CONTINUOUS
 62
     3
 10
444.50000499999987
 20
-37.0
 30
0.0
 11
718.00000999999975
 21
-37.0
 31
0.0
  0
LINE
  8
NOTE
  6
CONTINUOUS
 62
     4
 10
-741.5
 20
-7.3279149999999618
 30
0.0
 11
-741.5
 21
-27.423204999999999
 31
0.0
  0
LINE
  8
OUTLINE
  6
CONTINUOUS
 62
     3
 10
-717.99999500000013
 20
-37.0
 30
0.0
 11
-717.99999500000013
 21
-36.200005000000033
 31
0.0
  0
LINE
  8
OUTLINE
  6
CONTINUOUS
 62
     3
 10
-443.98899999999998
 20
-62.549994999999967
 30
0.0
 11
-444.49999000000031
 21
-37.0
 31
0.0
  0
LINE
  8
OUTLINE
  6
CONTINUOUS
 62
     3
 10
-429.49999000000031
 20
-68.5
 30
0.0
 11
-429.49999000000031
 21
-83.5
 31
0.0
  0
LINE
  8
OUTLINE
  6
CONTINUOUS
 62
     3
 10
-427.99999000000031
 20
-85.0
 30
0.0
 11
-293.99999500000013
 21
-85.0
 31
0.0
  0
ARC
  8
OUTLINE
  6
CONTINUOUS
 62
     3
 10
-427.99999000000031
 20
-83.5
 30
0.0
 40
1.5
 50
180.0
 51
270.0
  0
LINE
  8
OUTLINE
  6
CONTINUOUS
 62
     3
 10
-277.51049499999999
 20
-65.000004999999987
 30
0.0
 11
-284.5
 21
-65.000004999999987
 31
0.0
  0
LINE
  8
OUTLINE
  6
CONTINUOUS
 62
     3
 10
-441.48948999999988
 20
-65.000004999999987
 30
0.0
 11
-442.99999000000031
 21
-65.000004999999987
 31
0.0
  0
LINE
  8
OUTLINE
  6
CONTINUOUS
 62
     3
 10
-430.99999000000031
 20
-67.0
 30
0.0
 11
-442.99999000000031
 21
-67.0
 31
0.0
  0
ARC
  8
OUTLINE
  6
CONTINUOUS
 62
     3
 10
-441.48948999999988
 20
-62.5
 30
0.0
 40
2.5000049999999998
 50
181.14576300000081
 51
270.0
  0
LINE
  8
OUTLINE
  6
CONTINUOUS
 62
     3
 10
-442.99999000000031
 20
-65.000004999999987
 30
0.0
 11
-442.99999000000031
 21
-67.0
 31
0.0
  0
ARC
  8
OUTLINE
  6
CONTINUOUS
 62
     3
 10
-430.99999000000031
 20
-68.5
 30
0.0
 40
1.5
 50
0.0
 51
90.0
  0
LINE
  8
OUTLINE
  6
CONTINUOUS
 62
     3
 10
-717.99999500000013
 20
77.0
 30
0.0
 11
-717.99999500000013
 21
84.999995000000013
 31
0.0
  0
LINE
  8
OUTLINE
  6
CONTINUOUS
 62
     3
 10
-272.5
 20
-62.000004999999987
 30
0.0
 11
272.5
 21
-62.000004999999987
 31
0.0
  0
LINE
  8
OUTLINE
  6
CONTINUOUS
 62
     3
 10
-275.01100000000002
 20
-62.549994999999967
 30
0.0
 11
-274.49999500000013
 21
-37.0
 31
0.0
  0
LINE
  8
OUTLINE
  6
CONTINUOUS
 62
     3
 10
-272.5
 20
-37.0
 30
0.0
 11
-272.5
 21
-62.000004999999987
 31
0.0
  0
LINE
  8
OUTLINE
  6
CONTINUOUS
 62
     3
 10
-292.49999500000013
 20
-68.5
 30
0.0
 11
-292.49999500000013
 21
-83.5
 31
0.0
  0
ARC
  8
OUTLINE
  6
CONTINUOUS
 62
     3
 10
-293.99999500000013
 20
-83.5
 30
0.0
 40
1.5
 50
270.0
 51
0.0
  0
ARC
  8
OUTLINE
  6
CONTINUOUS
 62
     3
 10
-277.51049499999999
 20
-62.5
 30
0.0
 40
2.5000049999999998
 50
270.0
 51
358.85423699999922
  0
LINE
  8
OUTLINE
  6
CONTINUOUS
 62
     3
 10
-290.99999500000013
 20
-67.0
 30
0.0
 11
-286.0
 21
-67.0
 31
0.0
  0
ARC
  8
OUTLINE
  6
CONTINUOUS
 62
     3
 10
-290.99999500000013
 20
-68.5
 30
0.0
 40
1.5
 50
90.0
 51
180.0
  0
LINE
  8
OUTLINE
  6
CONTINUOUS
 62
     3
 10
-284.5
 20
-65.000004999999987
 30
0.0
 11
-284.5
 21
-65.5
 31
0.0
  0
ARC
  8
OUTLINE
  6
CONTINUOUS
 62
     3
 10
-286.0
 20
-65.5
 30
0.0
 40
1.5
 50
270.0
 51
0.0
  0
LINE
  8
NOTE
  6
CONTINUOUS
 62
     4
 10
741.5
 20
-7.4036800000000076
 30
0.0
 11
741.5
 21
-26.532219999999999
 31
0.0
  0
LINE
  8
OUTLINE
  6
CONTINUOUS
 62
     3
 10
718.00000999999975
 20
-37.0
 30
0.0
 11
718.00000999999975
 21
-36.200005000000033
 31
0.0
  0
LINE
  8
OUTLINE
  6
CONTINUOUS
 62
     3
 10
428.00000499999987
 20
-67.0
 30
0.0
 11
433.0
 21
-67.0
 31
0.0
  0
LINE
  8
OUTLINE
  6
CONTINUOUS
 62
     3
 10
275.01100000000002
 20
-62.549994999999967
 30
0.0
 11
274.50000999999969
 21
-37.0
 31
0.0
  0
LINE
  8
OUTLINE
  6
CONTINUOUS
 62
     3
 10
272.5
 20
-37.0
 30
0.0
 11
272.5
 21
-62.000004999999987
 31
0.0
  0
LINE
  8
OUTLINE
  6
CONTINUOUS
 62
     3
 10
288.00000999999969
 20
-67.0
 30
0.0
 11
276.00000999999969
 21
-67.0
 31
0.0
  0
LINE
  8
OUTLINE
  6
CONTINUOUS
 62
     3
 10
441.48950500000001
 20
-65.000004999999987
 30
0.0
 11
434.5
 21
-65.000004999999987
 31
0.0
  0
LINE
  8
OUTLINE
  6
CONTINUOUS
 62
     3
 10
277.51051000000012
 20
-65.000004999999987
 30
0.0
 11
276.00000999999969
 21
-65.000004999999987
 31
0.0
  0
ARC
  8
OUTLINE
  6
CONTINUOUS
 62
     3
 10
277.51051000000012
 20
-62.5
 30
0.0
 40
2.5000049999999998
 50
181.14576300000081
 51
270.0
  0
LINE
  8
OUTLINE
  6
CONTINUOUS
 62
     3
 10
276.00000999999969
 20
-65.000004999999987
 30
0.0
 11
276.00000999999969
 21
-67.0
 31
0.0
  0
LINE
  8
OUTLINE
  6
CONTINUOUS
 62
     3
 10
289.50000999999969
 20
-68.5
 30
0.0
 11
289.50000999999969
 21
-83.5
 31
0.0
  0
LINE
  8
OUTLINE
  6
CONTINUOUS
 62
     3
 10
291.00000999999969
 20
-85.0
 30
0.0
 11
425.00000499999987
 21
-85.0
 31
0.0
  0
ARC
  8
OUTLINE
  6
CONTINUOUS
 62
     3
 10
291.00000999999969
 20
-83.5
 30
0.0
 40
1.5
 50
180.0
 51
270.0
  0
ARC
  8
OUTLINE
  6
CONTINUOUS
 62
     3
 10
288.00000999999969
 20
-68.5
 30
0.0
 40
1.5
 50
0.0
 51
90.0
  0
LINE
  8
OUTLINE
  6
CONTINUOUS
 62
     3
 10
426.50000499999987
 20
-68.5
 30
0.0
 11
426.50000499999987
 21
-83.5
 31
0.0
  0
ARC
  8
OUTLINE
  6
CONTINUOUS
 62
     3
 10
425.00000499999987
 20
-83.5
 30
0.0
 40
1.5
 50
270.0
 51
0.0
  0
ARC
  8
OUTLINE
  6
CONTINUOUS
 62
     3
 10
428.00000499999987
 20
-68.5
 30
0.0
 40
1.5
 50
90.0
 51
180.0
  0
LINE
  8
OUTLINE
  6
CONTINUOUS
 62
     3
 10
443.98899999999998
 20
-62.549994999999967
 30
0.0
 11
444.50000499999987
 21
-37.0
 31
0.0
  0
ARC
  8
OUTLINE
  6
CONTINUOUS
 62
     3
 10
441.48950500000001
 20
-62.5
 30
0.0
 40
2.5000049999999998
 50
270.0
 51
358.85423699999922
  0
ARC
  8
OUTLINE
  6
CONTINUOUS
 62
     3
 10
433.0
 20
-65.5
 30
0.0
 40
1.5
 50
270.0
 51
0.0
  0
LINE
  8
OUTLINE
  6
CONTINUOUS
 62
     3
 10
434.5
 20
-65.000004999999987
 30
0.0
 11
434.5
 21
-65.5
 31
0.0
  0
LINE
  8
OUTLINE
  6
CONTINUOUS
 62
     3
 10
718.00000999999975
 20
77.0
 30
0.0
 11
718.00000999999975
 21
84.999995000000013
 31
0.0
  0
LINE
  8
SIZE
  6
CONTINUOUS
 62
    30
 10
-737.99999500000013
 20
84.999995000000013
 30
0.0
 11
-1006.680547
 21
84.999995000000013
 31
0.0
  0
LINE
  8
SIZE
  6
CONTINUOUS
 62
    30
 10
-447.99999000000031
 20
-85.0
 30
0.0
 11
-1006.680547
 21
-85.0
 31
0.0
  0
LINE
  8
SIZE
  6
CONTINUOUS
 62
    30
 10
-986.68054699999993
 20
72.999995000000013
 30
0.0
 11
-986.68054699999993
 21
-73.0
 31
0.0
  0
CIRCLE
  8
SIZE
  6
CONTINUOUS
 62
    30
 10
-986.68054699999993
 20
84.999995000000013
 30
0.0
 40
6.0
  0
LINE
  8
SIZE
  6
CONTINUOUS
 62
    30
 10
-986.68054699999993
 20
84.999995000000013
 30
0.0
 11
-986.68054699999993
 21
72.999995000000013
 31
0.0
  0
CIRCLE
  8
SIZE
  6
CONTINUOUS
 62
    30
 10
-986.68054699999993
 20
-85.0
 30
0.0
 40
6.0
  0
LINE
  8
SIZE
  6
CONTINUOUS
 62
    30
 10
-986.68054699999993
 20
-85.0
 30
0.0
 11
-986.68054699999993
 21
-73.0
 31
0.0
  0
TEXT
  8
SIZE
  6
CONTINUOUS
 62
    30
 10
-1011.680547
 20
-68.571431571428562
 30
0.0
 40
64.0
  1
170
 50
90.0
 41
0.9
 72
     1
 11
-1011.680547
 21
-0.0000029999999924
 31
0.0
  0
LINE
  8
SIZE
  6
CONTINUOUS
 62
    30
 10
-741.5
 20
-47.423205000000003
 30
0.0
 11
-741.5
 21
-414.92609199999993
 31
0.0
  0
LINE
  8
SIZE
  6
CONTINUOUS
 62
    30
 10
741.5
 20
-47.423205000000003
 30
0.0
 11
741.5
 21
-414.92609199999993
 31
0.0
  0
LINE
  8
SIZE
  6
CONTINUOUS
 62
    30
 10
-729.5
 20
-394.92609199999993
 30
0.0
 11
729.5
 21
-394.92609199999993
 31
0.0
  0
CIRCLE
  8
SIZE
  6
CONTINUOUS
 62
    30
 10
-741.5
 20
-394.92609199999993
 30
0.0
 40
6.0
  0
LINE
  8
SIZE
  6
CONTINUOUS
 62
    30
 10
-741.5
 20
-394.92609199999993
 30
0.0
 11
-729.5
 21
-394.92609199999993
 31
0.0
  0
CIRCLE
  8
SIZE
  6
CONTINUOUS
 62
    30
 10
741.5
 20
-394.92609199999993
 30
0.0
 40
6.0
  0
LINE
  8
SIZE
  6
CONTINUOUS
 62
    30
 10
741.5
 20
-394.92609199999993
 30
0.0
 11
729.5
 21
-394.92609199999993
 31
0.0
  0
TEXT
  8
SIZE
  6
CONTINUOUS
 62
    30
 10
-337.18502942857162
 20
-369.92609199999993
 30
0.0
 40
64.0
  1
1483（取付ピッチ）
 41
0.9
 72
     1
 11
-14.076458000000001
 21
-369.92609199999993
 31
0.0
  0
LINE
  8
NOTE
  6
CONTINUOUS
 62
     4
 10
741.5
 20
-16.0
 30
0.0
 11
752.87209100000018
 21
20.59776399999998
 31
0.0
  0
LINE
  8
NOTE
  6
CONTINUOUS
 62
     4
 10
741.5
 20
-16.0
 30
0.0
 11
775.80836399999998
 21
1.077966000000004
 31
0.0
  0
LINE
  8
SIZE
  6
CONTINUOUS
 62
    30
 10
-753.5
 20
-37.60000500000001
 30
0.0
 11
-753.5
 21
-534.92609200000004
 31
0.0
  0
LINE
  8
SIZE
  6
CONTINUOUS
 62
    30
 10
753.5
 20
-37.60000500000001
 30
0.0
 11
753.5
 21
-534.92609200000004
 31
0.0
  0
LINE
  8
SIZE
  6
CONTINUOUS
 62
    30
 10
-741.5
 20
-514.92609200000004
 30
0.0
 11
741.5
 21
-514.92609200000004
 31
0.0
  0
CIRCLE
  8
SIZE
  6
CONTINUOUS
 62
    30
 10
-753.5
 20
-514.92609200000004
 30
0.0
 40
6.0
  0
LINE
  8
SIZE
  6
CONTINUOUS
 62
    30
 10
-753.5
 20
-514.92609200000004
 30
0.0
 11
-741.5
 21
-514.92609200000004
 31
0.0
  0
CIRCLE
  8
SIZE
  6
CONTINUOUS
 62
    30
 10
753.5
 20
-514.92609200000004
 30
0.0
 40
6.0
  0
LINE
  8
SIZE
  6
CONTINUOUS
 62
    30
 10
753.5
 20
-514.92609200000004
 30
0.0
 11
741.5
 21
-514.92609200000004
 31
0.0
  0
TEXT
  8
SIZE
  6
CONTINUOUS
 62
    30
 10
-96.0
 20
-489.92609199999993
 30
0.0
 40
64.0
  1
1507
 41
0.9
 72
     1
 11
0.0
 21
-489.92609199999993
 31
0.0
  0
LINE
  8
SIZE
  6
CONTINUOUS
 62
    30
 10
-719.99999000000003
 20
-54.199995000000001
 30
0.0
 11
-719.99999000000003
 21
-294.92609199999993
 31
0.0
  0
LINE
  8
SIZE
  6
CONTINUOUS
 62
    30
 10
720.00000499999987
 20
-54.199995000000001
 30
0.0
 11
720.00000499999987
 21
-294.92609199999993
 31
0.0
  0
LINE
  8
SIZE
  6
CONTINUOUS
 62
    30
 10
-707.99999000000003
 20
-274.92609199999993
 30
0.0
 11
708.00000499999987
 21
-274.92609199999993
 31
0.0
  0
CIRCLE
  8
SIZE
  6
CONTINUOUS
 62
    30
 10
-719.99999000000003
 20
-274.92609199999993
 30
0.0
 40
6.0
  0
LINE
  8
SIZE
  6
CONTINUOUS
 62
    30
 10
-719.99999000000003
 20
-274.92609199999993
 30
0.0
 11
-707.99999000000003
 21
-274.92609199999993
 31
0.0
  0
CIRCLE
  8
SIZE
  6
CONTINUOUS
 62
    30
 10
720.00000499999987
 20
-274.92609199999993
 30
0.0
 40
6.0
  0
LINE
  8
SIZE
  6
CONTINUOUS
 62
    30
 10
720.00000499999987
 20
-274.92609199999993
 30
0.0
 11
708.00000499999987
 21
-274.92609199999993
 31
0.0
  0
TEXT
  8
SIZE
  6
CONTINUOUS
 62
    30
 10
-95.999992999999904
 20
-249.9260919999999
 30
0.0
 40
64.0
  1
1440
 41
0.9
 72
     1
 11
0.000007000000096
 21
-249.9260919999999
 31
0.0
  0
LINE
  8
SIZE
  6
CONTINUOUS
 62
    30
 10
-737.99999500000013
 20
84.999995000000013
 30
0.0
 11
-886.68054699999993
 21
84.999995000000013
 31
0.0
  0
LINE
  8
SIZE
  6
CONTINUOUS
 62
    30
 10
-773.5
 20
-16.0
 30
0.0
 11
-886.68054699999993
 21
-16.0
 31
0.0
  0
LINE
  8
SIZE
  6
CONTINUOUS
 62
    30
 10
-866.68054699999993
 20
-4.0
 30
0.0
 11
-866.68054699999993
 21
72.999995000000013
 31
0.0
  0
LINE
  8
SIZE
  6
CONTINUOUS
 62
    30
 10
-866.68054699999993
 20
84.999995000000013
 30
0.0
 11
-866.68054699999993
 21
259.45713799999999
 31
0.0
  0
CIRCLE
  8
SIZE
  6
CONTINUOUS
 62
    30
 10
-866.68054699999993
 20
-16.0
 30
0.0
 40
6.0
  0
LINE
  8
SIZE
  6
CONTINUOUS
 62
    30
 10
-866.68054699999993
 20
-16.0
 30
0.0
 11
-866.68054699999993
 21
-4.0
 31
0.0
  0
CIRCLE
  8
SIZE
  6
CONTINUOUS
 62
    30
 10
-866.68054699999993
 20
84.999995000000013
 30
0.0
 40
6.0
  0
LINE
  8
SIZE
  6
CONTINUOUS
 62
    30
 10
-866.68054699999993
 20
84.999995000000013
 30
0.0
 11
-866.68054699999993
 21
72.999995000000013
 31
0.0
  0
TEXT
  8
SIZE
  6
CONTINUOUS
 62
    30
 10
-891.68054699999993
 20
121.9999945714286
 30
0.0
 40
64.0
  1
101
 50
90.0
 41
0.9
 72
     1
 11
-891.68054699999993
 21
178.228566
 31
0.0
  0
LINE
  8
SIZE
  6
CONTINUOUS
 62
    30
 10
-757.0
 20
18.800000000000011
 30
0.0
 11
-886.68054699999993
 21
18.800000000000011
 31
0.0
  0
LINE
  8
SIZE
  6
CONTINUOUS
 62
    30
 10
-773.5
 20
-16.0
 30
0.0
 11
-886.68054699999993
 21
-16.0
 31
0.0
  0
LINE
  8
SIZE
  6
CONTINUOUS
 62
    30
 10
-866.68054699999993
 20
30.800000000000011
 30
0.0
 11
-866.68054699999993
 21
42.800000000000011
 31
0.0
  0
LINE
  8
SIZE
  6
CONTINUOUS
 62
    30
 10
-866.68054699999993
 20
-28.0
 30
0.0
 11
-866.68054699999993
 21
-216.83320699999999
 31
0.0
  0
LINE
  8
SIZE
  6
CONTINUOUS
 62
    30
 10
-866.68054699999993
 20
18.800000000000011
 30
0.0
 11
-866.68054699999993
 21
-16.0
 31
0.0
  0
CIRCLE
  8
SIZE
  6
CONTINUOUS
 62
    30
 10
-866.68054699999993
 20
18.800000000000011
 30
0.0
 40
6.0
  0
LINE
  8
SIZE
  6
CONTINUOUS
 62
    30
 10
-866.68054699999993
 20
18.800000000000011
 30
0.0
 11
-866.68054699999993
 21
30.800000000000011
 31
0.0
  0
CIRCLE
  8
SIZE
  6
CONTINUOUS
 62
    30
 10
-866.68054699999993
 20
-16.0
 30
0.0
 40
6.0
  0
LINE
  8
SIZE
  6
CONTINUOUS
 62
    30
 10
-866.68054699999993
 20
-16.0
 30
0.0
 11
-866.68054699999993
 21
-28.0
 31
0.0
  0
TEXT
  8
SIZE
  6
CONTINUOUS
 62
    30
 10
-891.68054699999993
 20
-191.8332064285714
 30
0.0
 40
64.0
  1
35
 50
90.0
 41
0.9
 72
     1
 11
-891.68054699999993
 21
-145.204635
 31
0.0
  0
CIRCLE
  8
FIX
  6
CONTINUOUS
 62
    11
 10
-741.5
 20
-16.0
 30
0.0
 40
5.0
  0
CIRCLE
  8
FIX
  6
CONTINUOUS
 62
    11
 10
741.5
 20
-16.0
 30
0.0
 40
5.0
  0
LINE
  8
NOTE
  6
CONTINUOUS
 62
     4
 10
887.24510600000031
 20
-283.80281000000002
 30
0.0
 11
1028.18533
 21
-283.80281000000002
 31
0.0
  0
TEXT
  8
NOTE
  6
CONTINUOUS
 62
     4
 10
916.1703950000001
 20
-266.00169099999988
 30
0.0
 40
64.0
  1
EL
 41
0.9
  0
LINE
  8
NOTE
  6
CONTINUOUS
 62
     4
 10
887.24510600000031
 20
-283.80281000000002
 30
0.0
 11
5.5749120000000403
 21
-44.305831000000012
 31
0.0
  0
LINE
  8
NOTE
  6
CONTINUOUS
 62
     4
 10
5.5749120000000403
 20
-44.305831000000012
 30
0.0
 11
22.309224000000089
 21
-56.994591000000007
 31
0.0
  0
LINE
  8
NOTE
  6
CONTINUOUS
 62
     4
 10
5.5749120000000403
 20
-44.305831000000012
 30
0.0
 11
26.543431000000059
 21
-45.47333500000002
 31
0.0
  0
LINE
  8
NOTE
  6
CONTINUOUS
 62
     4
 10
-606.79439700000012
 20
95.0
 30
0.0
 11
-451.32236599999987
 21
277.68370299999998
 31
0.0
  0
LINE
  8
NOTE
  6
CONTINUOUS
 62
     4
 10
-451.32236599999987
 20
277.68370299999998
 30
0.0
 11
282.15952499999997
 21
277.68370299999998
 31
0.0
  0
TEXT
  8
NOTE
  6
CONTINUOUS
 62
     4
 10
-422.3970760000002
 20
295.48482300000001
 30
0.0
 40
64.0
  1
隙間防止用クッション
 41
0.9
  0
TEXT
  8
NOTE
  6
CONTINUOUS
 62
     4
 10
-422.3970760000002
 20
198.385651
 30
0.0
 40
64.0
  1
（厚さ10mm）付
 41
0.9
  0
LINE
  8
NOTE
  6
CONTINUOUS
 62
     4
 10
-606.79439700000012
 20
95.0
 30
0.0
 11
-596.11874899999998
 21
124.475233
 31
0.0
  0
LINE
  8
NOTE
  6
CONTINUOUS
 62
     4
 10
-606.79439700000012
 20
95.0
 30
0.0
 11
-578.9666299999999
 21
109.781001
 31
0.0
  0
LINE
  8
DETAIL
  6
DASHED
 62
     5
 10
-717.99999500000013
 20
95.0
 30
0.0
 11
718.00000999999975
 21
95.0
 31
0.0
  0
LINE
  8
DETAIL
  6
CONTINUOUS
 62
     5
 10
4.0554000000001906
 20
-62.000004999999987
 30
0.0
 11
272.5
 21
-62.000004999999987
 31
0.0
  0
LINE
  8
DETAIL
  6
CONTINUOUS
 62
     5
 10
-717.99999500000013
 20
77.799994999999967
 30
0.0
 11
718.00000999999975
 21
77.799994999999967
 31
0.0
  0
LINE
  8
DETAIL
  6
CONTINUOUS
 62
     5
 10
-717.99999500000013
 20
77.0
 30
0.0
 11
718.00000999999975
 21
77.0
 31
0.0
  0
LINE
  8
DETAIL
  6
CONTINUOUS
 62
     5
 10
-717.99999500000013
 20
84.999995000000013
 30
0.0
 11
718.00000999999975
 21
84.999995000000013
 31
0.0
  0
LINE
  8
DETAIL
  6
CONTINUOUS
 62
     5
 10
-717.99999500000013
 20
-37.0
 30
0.0
 11
718.00000999999975
 21
-37.0
 31
0.0
  0
LINE
  8
DETAIL
  6
CONTINUOUS
 62
     5
 10
-418.49999500000013
 20
-70.499995000000013
 30
0.0
 11
-300.4999899999998
 21
-70.499995000000013
 31
0.0
  0
LINE
  8
DETAIL
  6
CONTINUOUS
 62
     5
 10
-390.4999899999998
 20
-74.000004999999987
 30
0.0
 11
-403.49999500000013
 21
-74.000004999999987
 31
0.0
  0
LINE
  8
DETAIL
  6
CONTINUOUS
 62
     5
 10
-721.59999500000004
 20
-14.39999499999999
 30
0.0
 11
-721.59999500000004
 21
17.199995000000001
 31
0.0
  0
LINE
  8
DETAIL
  6
CONTINUOUS
 62
     5
 10
-719.99999000000003
 20
-14.39999499999999
 30
0.0
 11
-719.99999000000003
 21
17.199995000000001
 31
0.0
  0
LINE
  8
DETAIL
  6
CONTINUOUS
 62
     5
 10
-719.99999000000003
 20
-34.600000000000023
 30
0.0
 11
-719.99999000000003
 21
75.39999499999999
 31
0.0
  0
LINE
  8
DETAIL
  6
CONTINUOUS
 62
     5
 10
-719.19999499999994
 20
75.000004999999987
 30
0.0
 11
-719.19999499999994
 21
-34.199995000000001
 31
0.0
  0
LINE
  8
DETAIL
  6
CONTINUOUS
 62
     5
 10
-717.99999500000013
 20
-37.0
 30
0.0
 11
-717.99999500000013
 21
77.0
 31
0.0
  0
LINE
  8
DETAIL
  6
CONTINUOUS
 62
     5
 10
-719.19999499999994
 20
-34.600000000000023
 30
0.0
 11
-719.19999499999994
 21
-34.199995000000001
 31
0.0
  0
ARC
  8
DETAIL
  6
CONTINUOUS
 62
     5
 10
-718.40000000000009
 20
-34.600000000000023
 30
0.0
 40
0.799995
 50
180.0
 51
270.0
  0
ARC
  8
DETAIL
  6
CONTINUOUS
 62
     5
 10
-718.40000000000009
 20
-34.600000000000023
 30
0.0
 40
1.6000049999999999
 50
180.0
 51
270.0
  0
LINE
  8
DETAIL
  6
CONTINUOUS
 62
     5
 10
-718.40000000000009
 20
-36.200005000000033
 30
0.0
 11
-717.99999500000013
 21
-36.200005000000033
 31
0.0
  0
LINE
  8
DETAIL
  6
CONTINUOUS
 62
     5
 10
-718.40000000000009
 20
-35.39999499999999
 30
0.0
 11
-717.99999500000013
 21
-35.39999499999999
 31
0.0
  0
LINE
  8
DETAIL
  6
CONTINUOUS
 62
     5
 10
-719.99999000000003
 20
-34.199995000000001
 30
0.0
 11
-717.99999500000013
 21
-34.199995000000001
 31
0.0
  0
LINE
  8
DETAIL
  6
CONTINUOUS
 62
     5
 10
-723.20000000000005
 20
-16.0
 30
0.0
 11
-753.5
 21
-16.0
 31
0.0
  0
LINE
  8
DETAIL
  6
CONTINUOUS
 62
     5
 10
-723.20000000000005
 20
-17.60000500000001
 30
0.0
 11
-753.5
 21
-17.60000500000001
 31
0.0
  0
LINE
  8
DETAIL
  6
CONTINUOUS
 62
     5
 10
-753.5
 20
-17.60000500000001
 30
0.0
 11
-753.5
 21
-16.0
 31
0.0
  0
ARC
  8
DETAIL
  6
CONTINUOUS
 62
     5
 10
-723.20000000000005
 20
-14.39999499999999
 30
0.0
 40
1.6000049999999999
 50
270.0
 51
0.0
  0
ARC
  8
DETAIL
  6
CONTINUOUS
 62
     5
 10
-723.20000000000005
 20
-14.39999499999999
 30
0.0
 40
3.1999949999999999
 50
270.0
 51
0.0
  0
ARC
  8
DETAIL
  6
CONTINUOUS
 62
     5
 10
-710.99999000000003
 20
-33.399999999999977
 30
0.0
 40
6.1000050000000003
 50
219.60198300000221
 51
320.39803500000392
  0
LINE
  8
DETAIL
  6
CONTINUOUS
 62
     5
 10
-706.29999499999985
 20
-37.0
 30
0.0
 11
-715.70000000000005
 21
-37.0
 31
0.0
  0
LINE
  8
DETAIL
  6
CONTINUOUS
 62
     5
 10
-715.70000000000005
 20
-37.0
 30
0.0
 11
-715.70000000000005
 21
-37.288450000000012
 31
0.0
  0
LINE
  8
DETAIL
  6
CONTINUOUS
 62
     5
 10
-706.29999499999985
 20
-37.0
 30
0.0
 11
-706.29999499999985
 21
-37.288450000000012
 31
0.0
  0
LINE
  8
DETAIL
  6
CONTINUOUS
 62
     5
 10
-715.70000000000005
 20
-37.288450000000012
 30
0.0
 11
-706.29999499999985
 21
-37.288450000000012
 31
0.0
  0
LINE
  8
DETAIL
  6
CONTINUOUS
 62
     5
 10
-443.98899999999998
 20
-62.549994999999967
 30
0.0
 11
-444.49999000000031
 21
-37.0
 31
0.0
  0
LINE
  8
DETAIL
  6
CONTINUOUS
 62
     5
 10
-426.47569000000021
 20
-63.039985000000001
 30
0.0
 11
-426.94669000000022
 21
-39.490000000000009
 31
0.0
  0
LINE
  8
DETAIL
  6
CONTINUOUS
 62
     5
 10
-429.49999000000031
 20
-68.5
 30
0.0
 11
-429.49999000000031
 21
-83.5
 31
0.0
  0
LINE
  8
DETAIL
  6
CONTINUOUS
 62
     5
 10
-427.99999000000031
 20
-85.0
 30
0.0
 11
-293.99999500000013
 21
-85.0
 31
0.0
  0
ARC
  8
DETAIL
  6
CONTINUOUS
 62
     5
 10
-427.99999000000031
 20
-83.5
 30
0.0
 40
1.5
 50
180.0
 51
270.0
  0
LINE
  8
DETAIL
  6
CONTINUOUS
 62
     5
 10
-403.49999500000013
 20
-74.000004999999987
 30
0.0
 11
-403.49999500000013
 21
-83.999995000000013
 31
0.0
  0
LINE
  8
DETAIL
  6
CONTINUOUS
 62
     5
 10
-405.4999899999998
 20
-74.000004999999987
 30
0.0
 11
-405.4999899999998
 21
-83.999995000000013
 31
0.0
  0
LINE
  8
DETAIL
  6
CONTINUOUS
 62
     5
 10
-418.49999500000013
 20
-74.000004999999987
 30
0.0
 11
-418.49999500000013
 21
-83.999995000000013
 31
0.0
  0
ARC
  8
DETAIL
  6
CONTINUOUS
 62
     5
 10
-419.5
 20
-83.999995000000013
 30
0.0
 40
1.000005
 50
270.0
 51
0.0
  0
ARC
  8
DETAIL
  6
CONTINUOUS
 62
     5
 10
-404.5
 20
-83.999995000000013
 30
0.0
 40
1.000005
 50
180.0
 51
359.81749534215538
  0
LINE
  8
DETAIL
  6
CONTINUOUS
 62
     5
 10
-405.4999899999998
 20
-74.000004999999987
 30
0.0
 11
-418.49999500000013
 21
-74.000004999999987
 31
0.0
  0
ARC
  8
DETAIL
  6
CONTINUOUS
 62
     5
 10
-424.47609999999992
 20
-62.999995000000013
 30
0.0
 40
1.999995
 50
181.14576300000081
 51
270.0
  0
LINE
  8
DETAIL
  6
CONTINUOUS
 62
     5
 10
-277.51049499999999
 20
-65.000004999999987
 30
0.0
 11
-442.99999000000031
 21
-65.000004999999987
 31
0.0
  0
LINE
  8
DETAIL
  6
CONTINUOUS
 62
     5
 10
-430.99999000000031
 20
-67.0
 30
0.0
 11
-442.99999000000031
 21
-67.0
 31
0.0
  0
ARC
  8
DETAIL
  6
CONTINUOUS
 62
     5
 10
-433.99999000000031
 20
-63.399999999999977
 30
0.0
 40
6.1000050000000003
 50
219.60198300000221
 51
314.70060900000749
  0
LINE
  8
DETAIL
  6
CONTINUOUS
 62
     5
 10
-438.69999999999982
 20
-67.288450000000012
 30
0.0
 11
-430.11560500000002
 21
-67.288450000000012
 31
0.0
  0
ARC
  8
DETAIL
  6
CONTINUOUS
 62
     5
 10
-441.48948999999988
 20
-62.5
 30
0.0
 40
2.5000049999999998
 50
181.14576300000081
 51
270.0
  0
LINE
  8
DETAIL
  6
CONTINUOUS
 62
     5
 10
-442.99999000000031
 20
-65.000004999999987
 30
0.0
 11
-442.99999000000031
 21
-67.0
 31
0.0
  0
LINE
  8
DETAIL
  6
CONTINUOUS
 62
     5
 10
-438.69999999999982
 20
-67.0
 30
0.0
 11
-438.69999999999982
 21
-67.288450000000012
 31
0.0
  0
ARC
  8
DETAIL
  6
CONTINUOUS
 62
     5
 10
-430.99999000000031
 20
-68.5
 30
0.0
 40
1.5
 50
0.0
 51
90.0
  0
LINE
  8
DETAIL
  6
CONTINUOUS
 62
     5
 10
-433.99999000000031
 20
-65.000004999999987
 30
0.0
 11
-433.99999000000031
 21
-67.0
 31
0.0
  0
LINE
  8
DETAIL
  6
CONTINUOUS
 62
     5
 10
-418.49999500000013
 20
-65.000004999999987
 30
0.0
 11
-418.49999500000013
 21
-70.499995000000013
 31
0.0
  0
ARC
  8
DETAIL
  6
CONTINUOUS
 62
     5
 10
-434.5
 20
-37.39998700000001
 30
0.0
 40
6.1000310000000004
 50
219.60198300000221
 51
320.39803500000392
  0
LINE
  8
DETAIL
  6
CONTINUOUS
 62
     5
 10
-439.20002400000021
 20
-41.288451000000009
 30
0.0
 11
-429.79997599999979
 21
-41.288451000000009
 31
0.0
  0
LINE
  8
DETAIL
  6
CONTINUOUS
 62
     5
 10
-427.44659499999989
 20
-38.999995000000013
 30
0.0
 11
-443.47979500000019
 21
-38.999995000000013
 31
0.0
  0
LINE
  8
DETAIL
  6
CONTINUOUS
 62
     5
 10
-429.29999499999991
 20
-41.000004999999987
 30
0.0
 11
-439.69999000000013
 21
-41.000004999999987
 31
0.0
  0
LINE
  8
DETAIL
  6
CONTINUOUS
 62
     5
 10
-439.20002400000021
 20
-41.000004999999987
 30
0.0
 11
-439.20002400000021
 21
-41.288451000000009
 31
0.0
  0
ARC
  8
DETAIL
  6
CONTINUOUS
 62
     5
 10
-443.47979500000019
 20
-38.000004999999987
 30
0.0
 40
1.000005
 50
181.14576300000081
 51
270.0
  0
ARC
  8
DETAIL
  6
CONTINUOUS
 62
     5
 10
-440.29998999999998
 20
-39.299994999999967
 30
0.0
 40
0.3
 50
0.0
 51
90.0
  0
LINE
  8
DETAIL
  6
CONTINUOUS
 62
     5
 10
-439.99999000000031
 20
-39.299994999999967
 30
0.0
 11
-439.99999000000031
 21
-40.700005000000033
 31
0.0
  0
ARC
  8
DETAIL
  6
CONTINUOUS
 62
     5
 10
-439.69999000000013
 20
-40.700005000000033
 30
0.0
 40
0.3
 50
180.0
 51
270.0
  0
LINE
  8
DETAIL
  6
CONTINUOUS
 62
     5
 10
-429.79997599999979
 20
-41.000004999999987
 30
0.0
 11
-429.79997599999979
 21
-41.288451000000009
 31
0.0
  0
ARC
  8
DETAIL
  6
CONTINUOUS
 62
     5
 10
-427.44659499999989
 20
-39.500004999999987
 30
0.0
 40
0.499995
 50
1.145763000000825
 51
90.0
  0
ARC
  8
DETAIL
  6
CONTINUOUS
 62
     5
 10
-428.69999499999989
 20
-39.299994999999967
 30
0.0
 40
0.3
 50
90.0
 51
180.0
  0
LINE
  8
DETAIL
  6
CONTINUOUS
 62
     5
 10
-428.99999500000013
 20
-39.299994999999967
 30
0.0
 11
-428.99999500000013
 21
-40.700005000000033
 31
0.0
  0
ARC
  8
DETAIL
  6
CONTINUOUS
 62
     5
 10
-429.29999499999991
 20
-40.700005000000033
 30
0.0
 40
0.3
 50
270.0
 51
0.0
  0
LINE
  8
DETAIL
  6
CONTINUOUS
 62
     5
 10
-721.59999500000004
 20
5.1000179999999773
 30
0.0
 11
-721.59999500000004
 21
-4.300028999999995
 31
0.0
  0
ARC
  8
DETAIL
  6
CONTINUOUS
 62
     5
 10
-717.99997699999994
 20
0.3999949999999899
 30
0.0
 40
6.1000310000000004
 50
129.60196500000521
 51
230.3980169999964
  0
LINE
  8
DETAIL
  6
CONTINUOUS
 62
     5
 10
-721.88844100000006
 20
-4.300028999999995
 30
0.0
 11
-721.88844100000006
 21
5.1000179999999773
 31
0.0
  0
LINE
  8
DETAIL
  6
CONTINUOUS
 62
     5
 10
-721.59999500000004
 20
5.1000179999999773
 30
0.0
 11
-721.88844100000006
 21
5.1000179999999773
 31
0.0
  0
LINE
  8
DETAIL
  6
CONTINUOUS
 62
     5
 10
-721.59999500000004
 20
-4.300028999999995
 30
0.0
 11
-721.88844100000006
 21
-4.300028999999995
 31
0.0
  0
LINE
  8
DETAIL
  6
CONTINUOUS
 62
     5
 10
-737.0
 20
18.800000000000011
 30
0.0
 11
-723.20000000000005
 21
18.800000000000011
 31
0.0
  0
LINE
  8
DETAIL
  6
CONTINUOUS
 62
     5
 10
-737.0
 20
20.400004999999961
 30
0.0
 11
-723.20000000000005
 21
20.400004999999961
 31
0.0
  0
LINE
  8
DETAIL
  6
CONTINUOUS
 62
     5
 10
-737.0
 20
18.800000000000011
 30
0.0
 11
-737.0
 21
20.400004999999961
 31
0.0
  0
ARC
  8
DETAIL
  6
CONTINUOUS
 62
     5
 10
-723.20000000000005
 20
17.199995000000001
 30
0.0
 40
1.6000049999999999
 50
0.0
 51
90.0
  0
ARC
  8
DETAIL
  6
CONTINUOUS
 62
     5
 10
-723.20000000000005
 20
17.199995000000001
 30
0.0
 40
3.1999949999999999
 50
0.0
 51
90.0
  0
LINE
  8
DETAIL
  6
CONTINUOUS
 62
     5
 10
-717.99999500000013
 20
69.800000000000011
 30
0.0
 11
-717.99999500000013
 21
84.999995000000013
 31
0.0
  0
LINE
  8
DETAIL
  6
CONTINUOUS
 62
     5
 10
-719.19999499999994
 20
75.39999499999999
 30
0.0
 11
-719.19999499999994
 21
75.000004999999987
 31
0.0
  0
ARC
  8
DETAIL
  6
CONTINUOUS
 62
     5
 10
-718.40000000000009
 20
75.39999499999999
 30
0.0
 40
0.799995
 50
90.0
 51
180.0
  0
ARC
  8
DETAIL
  6
CONTINUOUS
 62
     5
 10
-718.40000000000009
 20
75.39999499999999
 30
0.0
 40
1.6000049999999999
 50
90.0
 51
180.0
  0
LINE
  8
DETAIL
  6
CONTINUOUS
 62
     5
 10
-719.99999000000003
 20
75.000004999999987
 30
0.0
 11
-717.99999500000013
 21
75.000004999999987
 31
0.0
  0
LINE
  8
DETAIL
  6
CONTINUOUS
 62
     5
 10
-718.40000000000009
 20
76.200005000000033
 30
0.0
 11
-717.99999500000013
 21
76.200005000000033
 31
0.0
  0
LINE
  8
DETAIL
  6
CONTINUOUS
 62
     5
 10
-718.40000000000009
 20
77.0
 30
0.0
 11
-717.99999500000013
 21
77.0
 31
0.0
  0
LINE
  8
DETAIL
  6
DASHED
 62
     5
 10
-717.99999500000013
 20
84.999995000000013
 30
0.0
 11
-717.99999500000013
 21
95.0
 31
0.0
  0
CIRCLE
  8
DETAIL
  6
CONTINUOUS
 62
     5
 10
-710.99999000000003
 20
21.000004999999991
 30
0.0
 40
4.700024
  0
LINE
  8
DETAIL
  6
CONTINUOUS
 62
     5
 10
-709.51505700000007
 20
19.515077000000019
 30
0.0
 11
-712.48492299999998
 21
22.484933000000009
 31
0.0
  0
LINE
  8
DETAIL
  6
CONTINUOUS
 62
     5
 10
-712.48491800000011
 20
19.515072000000028
 30
0.0
 11
-709.51506199999994
 21
22.484938
 31
0.0
  0
LINE
  8
DETAIL
  6
CONTINUOUS
 62
     5
 10
-706.29999499999985
 20
77.799994999999967
 30
0.0
 11
-715.70000000000005
 21
77.799994999999967
 31
0.0
  0
ARC
  8
DETAIL
  6
CONTINUOUS
 62
     5
 10
-710.99999000000003
 20
74.199995000000001
 30
0.0
 40
6.1000050000000003
 50
39.601964999996078
 51
140.39801699999779
  0
LINE
  8
DETAIL
  6
CONTINUOUS
 62
     5
 10
-706.29999499999985
 20
77.799994999999967
 30
0.0
 11
-706.29999499999985
 21
78.088444999999979
 31
0.0
  0
LINE
  8
DETAIL
  6
CONTINUOUS
 62
     5
 10
-715.70000000000005
 20
78.088444999999979
 30
0.0
 11
-706.29999499999985
 21
78.088444999999979
 31
0.0
  0
LINE
  8
DETAIL
  6
CONTINUOUS
 62
     5
 10
-715.70000000000005
 20
77.799994999999967
 30
0.0
 11
-715.70000000000005
 21
78.088444999999979
 31
0.0
  0
CIRCLE
  8
DETAIL
  6
CONTINUOUS
 62
     5
 10
-30.0
 20
-17.000004999999991
 30
0.0
 40
4.6999949999999986
  0
LINE
  8
DETAIL
  6
CONTINUOUS
 62
     5
 10
-272.5
 20
-62.000004999999987
 30
0.0
 11
0.9446100000000115
 21
-62.000004999999987
 31
0.0
  0
ARC
  8
DETAIL
  6
CONTINUOUS
 62
     5
 10
-299.5
 20
-83.999995000000013
 30
0.0
 40
1.000005
 50
180.0
 51
270.0
  0
LINE
  8
DETAIL
  6
CONTINUOUS
 62
     5
 10
-345.4999899999998
 20
-74.000004999999987
 30
0.0
 11
-358.49999500000013
 21
-74.000004999999987
 31
0.0
  0
ARC
  8
DETAIL
  6
CONTINUOUS
 62
     5
 10
-374.5
 20
-83.999995000000013
 30
0.0
 40
1.000005
 50
180.0
 51
359.81749534215538
  0
LINE
  8
DETAIL
  6
CONTINUOUS
 62
     5
 10
-375.4999899999998
 20
-74.000004999999987
 30
0.0
 11
-375.4999899999998
 21
-83.999995000000013
 31
0.0
  0
LINE
  8
DETAIL
  6
CONTINUOUS
 62
     5
 10
-388.49999500000013
 20
-74.000004999999987
 30
0.0
 11
-388.49999500000013
 21
-83.999995000000013
 31
0.0
  0
LINE
  8
DETAIL
  6
CONTINUOUS
 62
     5
 10
-390.4999899999998
 20
-74.000004999999987
 30
0.0
 11
-390.4999899999998
 21
-83.999995000000013
 31
0.0
  0
ARC
  8
DETAIL
  6
CONTINUOUS
 62
     5
 10
-389.5
 20
-83.999995000000013
 30
0.0
 40
1.000005
 50
180.0
 51
359.81749534215538
  0
LINE
  8
DETAIL
  6
CONTINUOUS
 62
     5
 10
-375.4999899999998
 20
-74.000004999999987
 30
0.0
 11
-388.49999500000013
 21
-74.000004999999987
 31
0.0
  0
LINE
  8
DETAIL
  6
CONTINUOUS
 62
     5
 10
-358.49999500000013
 20
-74.000004999999987
 30
0.0
 11
-358.49999500000013
 21
-83.999995000000013
 31
0.0
  0
LINE
  8
DETAIL
  6
CONTINUOUS
 62
     5
 10
-360.4999899999998
 20
-74.000004999999987
 30
0.0
 11
-360.4999899999998
 21
-83.999995000000013
 31
0.0
  0
LINE
  8
DETAIL
  6
CONTINUOUS
 62
     5
 10
-373.49999500000013
 20
-74.000004999999987
 30
0.0
 11
-373.49999500000013
 21
-83.999995000000013
 31
0.0
  0
ARC
  8
DETAIL
  6
CONTINUOUS
 62
     5
 10
-359.5
 20
-83.999995000000013
 30
0.0
 40
1.000005
 50
180.0
 51
359.81749534215538
  0
LINE
  8
DETAIL
  6
CONTINUOUS
 62
     5
 10
-360.4999899999998
 20
-74.000004999999987
 30
0.0
 11
-373.49999500000013
 21
-74.000004999999987
 31
0.0
  0
LINE
  8
DETAIL
  6
CONTINUOUS
 62
     5
 10
-315.4999899999998
 20
-74.000004999999987
 30
0.0
 11
-328.49999500000013
 21
-74.000004999999987
 31
0.0
  0
LINE
  8
DETAIL
  6
CONTINUOUS
 62
     5
 10
-343.49999500000013
 20
-74.000004999999987
 30
0.0
 11
-343.49999500000013
 21
-83.999995000000013
 31
0.0
  0
LINE
  8
DETAIL
  6
CONTINUOUS
 62
     5
 10
-345.4999899999998
 20
-74.000004999999987
 30
0.0
 11
-345.4999899999998
 21
-83.999995000000013
 31
0.0
  0
LINE
  8
DETAIL
  6
CONTINUOUS
 62
     5
 10
-330.4999899999998
 20
-74.000004999999987
 30
0.0
 11
-330.4999899999998
 21
-83.999995000000013
 31
0.0
  0
LINE
  8
DETAIL
  6
CONTINUOUS
 62
     5
 10
-328.49999500000013
 20
-74.000004999999987
 30
0.0
 11
-328.49999500000013
 21
-83.999995000000013
 31
0.0
  0
ARC
  8
DETAIL
  6
CONTINUOUS
 62
     5
 10
-344.5
 20
-83.999995000000013
 30
0.0
 40
1.000005
 50
180.0
 51
359.81749534215538
  0
ARC
  8
DETAIL
  6
CONTINUOUS
 62
     5
 10
-329.5
 20
-83.999995000000013
 30
0.0
 40
1.000005
 50
180.0
 51
359.81749534215538
  0
LINE
  8
DETAIL
  6
CONTINUOUS
 62
     5
 10
-330.4999899999998
 20
-74.000004999999987
 30
0.0
 11
-343.49999500000013
 21
-74.000004999999987
 31
0.0
  0
LINE
  8
DETAIL
  6
CONTINUOUS
 62
     5
 10
-315.4999899999998
 20
-74.000004999999987
 30
0.0
 11
-315.4999899999998
 21
-83.999995000000013
 31
0.0
  0
LINE
  8
DETAIL
  6
CONTINUOUS
 62
     5
 10
-313.49999500000013
 20
-74.000004999999987
 30
0.0
 11
-313.49999500000013
 21
-83.999995000000013
 31
0.0
  0
LINE
  8
DETAIL
  6
CONTINUOUS
 62
     5
 10
-300.4999899999998
 20
-74.000004999999987
 30
0.0
 11
-300.4999899999998
 21
-83.999995000000013
 31
0.0
  0
ARC
  8
DETAIL
  6
CONTINUOUS
 62
     5
 10
-314.5
 20
-83.999995000000013
 30
0.0
 40
1.000005
 50
180.0
 51
359.81749534215538
  0
LINE
  8
DETAIL
  6
CONTINUOUS
 62
     5
 10
-300.4999899999998
 20
-74.000004999999987
 30
0.0
 11
-313.49999500000013
 21
-74.000004999999987
 31
0.0
  0
LINE
  8
DETAIL
  6
CONTINUOUS
 62
     5
 10
-300.4999899999998
 20
-65.000004999999987
 30
0.0
 11
-300.4999899999998
 21
-70.499995000000013
 31
0.0
  0
LINE
  8
DETAIL
  6
CONTINUOUS
 62
     5
 10
-292.52080000000018
 20
-63.039985000000001
 30
0.0
 11
-292.04979999999978
 21
-39.490000000000009
 31
0.0
  0
LINE
  8
DETAIL
  6
CONTINUOUS
 62
     5
 10
-275.01100000000002
 20
-62.549994999999967
 30
0.0
 11
-274.49999500000013
 21
-37.0
 31
0.0
  0
LINE
  8
DETAIL
  6
CONTINUOUS
 62
     5
 10
-272.5
 20
-37.0
 30
0.0
 11
-272.5
 21
-62.000004999999987
 31
0.0
  0
LINE
  8
DETAIL
  6
CONTINUOUS
 62
     5
 10
-292.49999500000013
 20
-68.5
 30
0.0
 11
-292.49999500000013
 21
-83.5
 31
0.0
  0
ARC
  8
DETAIL
  6
CONTINUOUS
 62
     5
 10
-293.99999500000013
 20
-83.5
 30
0.0
 40
1.5
 50
270.0
 51
0.0
  0
ARC
  8
DETAIL
  6
CONTINUOUS
 62
     5
 10
-277.51049499999999
 20
-62.5
 30
0.0
 40
2.5000049999999998
 50
270.0
 51
358.85423699999922
  0
LINE
  8
DETAIL
  6
CONTINUOUS
 62
     5
 10
-290.99999500000013
 20
-67.0
 30
0.0
 11
-286.0
 21
-67.0
 31
0.0
  0
ARC
  8
DETAIL
  6
CONTINUOUS
 62
     5
 10
-294.52039000000008
 20
-62.999995000000013
 30
0.0
 40
1.999995
 50
270.0
 51
358.85423699999922
  0
ARC
  8
DETAIL
  6
CONTINUOUS
 62
     5
 10
-290.99999500000013
 20
-68.5
 30
0.0
 40
1.5
 50
90.0
 51
180.0
  0
LINE
  8
DETAIL
  6
CONTINUOUS
 62
     5
 10
-284.5
 20
-65.000004999999987
 30
0.0
 11
-284.5
 21
-65.5
 31
0.0
  0
ARC
  8
DETAIL
  6
CONTINUOUS
 62
     5
 10
-286.0
 20
-65.5
 30
0.0
 40
1.5
 50
270.0
 51
0.0
  0
LINE
  8
DETAIL
  6
CONTINUOUS
 62
     5
 10
-275.03009500000007
 20
-38.999995000000013
 30
0.0
 11
-291.54989500000011
 21
-38.999995000000013
 31
0.0
  0
ARC
  8
DETAIL
  6
CONTINUOUS
 62
     5
 10
-284.5
 20
-37.39998700000001
 30
0.0
 40
6.1000310000000004
 50
219.60196499999611
 51
320.39801699999782
  0
LINE
  8
DETAIL
  6
CONTINUOUS
 62
     5
 10
-289.69999000000013
 20
-41.000004999999987
 30
0.0
 11
-279.29999499999991
 21
-41.000004999999987
 31
0.0
  0
LINE
  8
DETAIL
  6
CONTINUOUS
 62
     5
 10
-279.79997599999979
 20
-41.288451000000009
 30
0.0
 11
-289.20002400000021
 21
-41.288451000000009
 31
0.0
  0
ARC
  8
DETAIL
  6
CONTINUOUS
 62
     5
 10
-291.54989500000011
 20
-39.500004999999987
 30
0.0
 40
0.499995
 50
90.0
 51
178.85423699999919
  0
ARC
  8
DETAIL
  6
CONTINUOUS
 62
     5
 10
-290.29998999999998
 20
-39.299994999999967
 30
0.0
 40
0.3
 50
0.0
 51
90.0
  0
LINE
  8
DETAIL
  6
CONTINUOUS
 62
     5
 10
-289.9999899999998
 20
-39.299994999999967
 30
0.0
 11
-289.9999899999998
 21
-40.700005000000033
 31
0.0
  0
ARC
  8
DETAIL
  6
CONTINUOUS
 62
     5
 10
-289.69999000000013
 20
-40.700005000000033
 30
0.0
 40
0.3
 50
180.0
 51
270.0
  0
LINE
  8
DETAIL
  6
CONTINUOUS
 62
     5
 10
-289.20002400000021
 20
-41.000004999999987
 30
0.0
 11
-289.20002400000021
 21
-41.288451000000009
 31
0.0
  0
ARC
  8
DETAIL
  6
CONTINUOUS
 62
     5
 10
-278.69999499999989
 20
-39.299994999999967
 30
0.0
 40
0.3
 50
90.0
 51
180.0
  0
LINE
  8
DETAIL
  6
CONTINUOUS
 62
     5
 10
-278.99999500000013
 20
-39.299994999999967
 30
0.0
 11
-278.99999500000013
 21
-40.700005000000033
 31
0.0
  0
ARC
  8
DETAIL
  6
CONTINUOUS
 62
     5
 10
-279.29999499999991
 20
-40.700005000000033
 30
0.0
 40
0.3
 50
270.0
 51
0.0
  0
LINE
  8
DETAIL
  6
CONTINUOUS
 62
     5
 10
-279.79997599999979
 20
-41.000004999999987
 30
0.0
 11
-279.79997599999979
 21
-41.288451000000009
 31
0.0
  0
LINE
  8
DETAIL
  6
CONTINUOUS
 62
     5
 10
-274.61999500000002
 20
-43.0
 30
0.0
 11
-272.5
 21
-43.0
 31
0.0
  0
ARC
  8
DETAIL
  6
CONTINUOUS
 62
     5
 10
-275.03009500000007
 20
-38.5
 30
0.0
 40
0.499995
 50
270.0
 51
358.85423699999922
  0
ARC
  8
DETAIL
  6
CONTINUOUS
 62
     5
 10
14.055405000000061
 20
-89.656600000000026
 30
0.0
 40
13.111005
 50
179.68099499999809
 51
270.0
  0
ARC
  8
DETAIL
  6
CONTINUOUS
 62
     5
 10
14.055405000000061
 20
-89.656600000000026
 30
0.0
 40
10.000005
 50
180.0
 51
270.0
  0
LINE
  8
DETAIL
  6
CONTINUOUS
 62
     5
 10
62.952119999999923
 20
-87.730360000000019
 30
0.0
 11
62.952119999999923
 21
-94.211844999999983
 31
0.0
  0
LINE
  8
DETAIL
  6
CONTINUOUS
 62
     5
 10
80.566530000000057
 20
-101.01403000000001
 30
0.0
 11
79.544714999999997
 21
-87.730360000000019
 31
0.0
  0
LINE
  8
DETAIL
  6
CONTINUOUS
 62
     5
 10
39.618779999999788
 20
-102.76739499999999
 30
0.0
 11
13.98239999999987
 21
-102.76739499999999
 31
0.0
  0
LINE
  8
DETAIL
  6
CONTINUOUS
 62
     5
 10
39.618779999999788
 20
-99.656605000000013
 30
0.0
 11
14.055405000000061
 21
-99.656605000000013
 31
0.0
  0
ARC
  8
DETAIL
  6
CONTINUOUS
 62
     5
 10
66.082319999999982
 20
-101.21183499999999
 30
0.0
 40
5.1851849999999997
 50
256.53292399999492
 51
270.0
  0
LINE
  8
DETAIL
  6
CONTINUOUS
 62
     5
 10
41.900265000000218
 20
-98.465575000000001
 30
0.0
 11
40.062570000000051
 21
-98.582605000000001
 31
0.0
  0
LINE
  8
DETAIL
  6
CONTINUOUS
 62
     5
 10
41.900265000000218
 20
-103.95963999999999
 30
0.0
 11
40.108650000000132
 21
-103.845685
 31
0.0
  0
LINE
  8
DETAIL
  6
CONTINUOUS
 62
     5
 10
39.618779999999788
 20
-99.095709999999997
 30
0.0
 11
39.618779999999788
 21
-103.32796
 31
0.0
  0
ARC
  8
DETAIL
  6
CONTINUOUS
 62
     5
 10
40.137299999999868
 20
-103.32796
 30
0.0
 40
0.51852
 50
180.0
 51
265.48601199999189
  0
ARC
  8
DETAIL
  6
CONTINUOUS
 62
     5
 10
40.137299999999868
 20
-99.095709999999997
 30
0.0
 40
0.51852
 50
94.513988000008055
 51
180.0
  0
LINE
  8
DETAIL
  6
CONTINUOUS
 62
     5
 10
59.840999999999887
 20
-97.322949999999992
 30
0.0
 11
59.840999999999887
 21
-105.100735
 31
0.0
  0
LINE
  8
DETAIL
  6
CONTINUOUS
 62
     5
 10
58.285455000000177
 20
-97.422025000000019
 30
0.0
 11
58.285455000000177
 21
-105.001795
 31
0.0
  0
LINE
  8
DETAIL
  6
CONTINUOUS
 62
     5
 10
56.93730000000005
 20
-97.507884999999987
 30
0.0
 11
56.93730000000005
 21
-104.91604
 31
0.0
  0
LINE
  8
DETAIL
  6
CONTINUOUS
 62
     5
 10
41.900265000000218
 20
-98.465575000000001
 30
0.0
 11
41.900265000000218
 21
-103.95963999999999
 31
0.0
  0
LINE
  8
DETAIL
  6
CONTINUOUS
 62
     5
 10
43.248419999999903
 20
-98.379700000000014
 30
0.0
 11
43.248419999999903
 21
-104.045395
 31
0.0
  0
LINE
  8
DETAIL
  6
CONTINUOUS
 62
     5
 10
44.596559999999947
 20
-98.293839999999989
 30
0.0
 11
44.596559999999947
 21
-104.131135
 31
0.0
  0
LINE
  8
DETAIL
  6
CONTINUOUS
 62
     5
 10
45.944715000000087
 20
-98.20798000000002
 30
0.0
 11
45.944715000000087
 21
-104.216875
 31
0.0
  0
LINE
  8
DETAIL
  6
CONTINUOUS
 62
     5
 10
47.292855000000152
 20
-98.122119999999995
 30
0.0
 11
47.292855000000152
 21
-104.30262999999999
 31
0.0
  0
LINE
  8
DETAIL
  6
CONTINUOUS
 62
     5
 10
48.848414999999932
 20
-98.023045000000025
 30
0.0
 11
48.848414999999932
 21
-104.40157000000001
 31
0.0
  0
LINE
  8
DETAIL
  6
CONTINUOUS
 62
     5
 10
50.196570000000072
 20
-97.937184999999999
 30
0.0
 11
50.196570000000072
 21
-104.48730999999999
 31
0.0
  0
LINE
  8
DETAIL
  6
CONTINUOUS
 62
     5
 10
54.241004999999859
 20
-97.679605000000038
 30
0.0
 11
54.241004999999859
 21
-104.744545
 31
0.0
  0
LINE
  8
DETAIL
  6
CONTINUOUS
 62
     5
 10
52.892864999999802
 20
-97.765465000000006
 30
0.0
 11
52.892864999999802
 21
-104.658805
 31
0.0
  0
LINE
  8
DETAIL
  6
CONTINUOUS
 62
     5
 10
51.544710000000123
 20
-97.851324999999974
 30
0.0
 11
51.544710000000123
 21
-104.573065
 31
0.0
  0
LINE
  8
DETAIL
  6
CONTINUOUS
 62
     5
 10
55.589159999999993
 20
-97.593745000000013
 30
0.0
 11
55.589159999999993
 21
-104.83029999999999
 31
0.0
  0
LINE
  8
DETAIL
  6
CONTINUOUS
 62
     5
 10
54.241004999999859
 20
-102.248875
 30
0.0
 11
52.892864999999802
 21
-102.248875
 31
0.0
  0
LINE
  8
DETAIL
  6
CONTINUOUS
 62
     5
 10
54.241004999999859
 20
-104.53672
 30
0.0
 11
52.892864999999802
 21
-104.45098
 31
0.0
  0
LINE
  8
DETAIL
  6
CONTINUOUS
 62
     5
 10
45.944715000000087
 20
-102.248875
 30
0.0
 11
44.596559999999947
 21
-102.248875
 31
0.0
  0
LINE
  8
DETAIL
  6
CONTINUOUS
 62
     5
 10
44.596559999999947
 20
-104.131135
 30
0.0
 11
43.248419999999903
 21
-104.045395
 31
0.0
  0
LINE
  8
DETAIL
  6
CONTINUOUS
 62
     5
 10
43.248419999999903
 20
-103.83757
 30
0.0
 11
41.900265000000218
 21
-103.75181499999999
 31
0.0
  0
LINE
  8
DETAIL
  6
CONTINUOUS
 62
     5
 10
45.944715000000087
 20
-104.00905
 30
0.0
 11
44.596559999999947
 21
-103.92331
 31
0.0
  0
LINE
  8
DETAIL
  6
CONTINUOUS
 62
     5
 10
48.848414999999932
 20
-104.19374500000001
 30
0.0
 11
47.292855000000152
 21
-104.09480499999999
 31
0.0
  0
LINE
  8
DETAIL
  6
CONTINUOUS
 62
     5
 10
47.292855000000152
 20
-104.30262999999999
 30
0.0
 11
45.944715000000087
 21
-104.216875
 31
0.0
  0
LINE
  8
DETAIL
  6
CONTINUOUS
 62
     5
 10
51.544710000000123
 20
-102.248875
 30
0.0
 11
50.196570000000072
 21
-102.248875
 31
0.0
  0
LINE
  8
DETAIL
  6
CONTINUOUS
 62
     5
 10
52.892864999999802
 20
-104.658805
 30
0.0
 11
51.544710000000123
 21
-104.573065
 31
0.0
  0
LINE
  8
DETAIL
  6
CONTINUOUS
 62
     5
 10
50.196570000000072
 20
-104.48730999999999
 30
0.0
 11
48.848414999999932
 21
-104.40157000000001
 31
0.0
  0
LINE
  8
DETAIL
  6
CONTINUOUS
 62
     5
 10
51.544710000000123
 20
-104.365225
 30
0.0
 11
50.196570000000072
 21
-104.27948499999999
 31
0.0
  0
LINE
  8
DETAIL
  6
CONTINUOUS
 62
     5
 10
59.840999999999887
 20
-102.248875
 30
0.0
 11
58.285455000000177
 21
-102.248875
 31
0.0
  0
LINE
  8
DETAIL
  6
CONTINUOUS
 62
     5
 10
59.854170000000067
 20
-104.89373500000001
 30
0.0
 11
58.285455000000177
 21
-104.79397
 31
0.0
  0
LINE
  8
DETAIL
  6
CONTINUOUS
 62
     5
 10
59.840999999999887
 20
-105.100735
 30
0.0
 11
64.973190000000159
 21
-106.27701999999999
 31
0.0
  0
LINE
  8
DETAIL
  6
CONTINUOUS
 62
     5
 10
56.93730000000005
 20
-102.248875
 30
0.0
 11
55.589159999999993
 21
-102.248875
 31
0.0
  0
LINE
  8
DETAIL
  6
CONTINUOUS
 62
     5
 10
58.285455000000177
 20
-105.001795
 30
0.0
 11
56.93730000000005
 21
-104.91604
 31
0.0
  0
LINE
  8
DETAIL
  6
CONTINUOUS
 62
     5
 10
55.589159999999993
 20
-104.83029999999999
 30
0.0
 11
54.241004999999859
 21
-104.744545
 31
0.0
  0
LINE
  8
DETAIL
  6
CONTINUOUS
 62
     5
 10
56.93730000000005
 20
-104.708215
 30
0.0
 11
55.589159999999993
 21
-104.62247499999999
 31
0.0
  0
LINE
  8
DETAIL
  6
CONTINUOUS
 62
     5
 10
54.241004999999859
 20
-100.174795
 30
0.0
 11
52.892864999999802
 21
-100.174795
 31
0.0
  0
LINE
  8
DETAIL
  6
CONTINUOUS
 62
     5
 10
54.241004999999859
 20
-97.887429999999995
 30
0.0
 11
52.892864999999802
 21
-97.97329000000002
 31
0.0
  0
LINE
  8
DETAIL
  6
CONTINUOUS
 62
     5
 10
45.944715000000087
 20
-100.174795
 30
0.0
 11
44.596559999999947
 21
-100.174795
 31
0.0
  0
LINE
  8
DETAIL
  6
CONTINUOUS
 62
     5
 10
43.248419999999903
 20
-98.58753999999999
 30
0.0
 11
41.900265000000218
 21
-98.673400000000015
 31
0.0
  0
LINE
  8
DETAIL
  6
CONTINUOUS
 62
     5
 10
44.596559999999947
 20
-98.293839999999989
 30
0.0
 11
43.248419999999903
 21
-98.379700000000014
 31
0.0
  0
LINE
  8
DETAIL
  6
CONTINUOUS
 62
     5
 10
45.944715000000087
 20
-98.415804999999978
 30
0.0
 11
44.596559999999947
 21
-98.501680000000022
 31
0.0
  0
LINE
  8
DETAIL
  6
CONTINUOUS
 62
     5
 10
48.848414999999932
 20
-98.230885000000001
 30
0.0
 11
47.292855000000152
 21
-98.329945000000009
 31
0.0
  0
LINE
  8
DETAIL
  6
CONTINUOUS
 62
     5
 10
47.292855000000152
 20
-98.122119999999995
 30
0.0
 11
45.944715000000087
 21
-98.20798000000002
 31
0.0
  0
LINE
  8
DETAIL
  6
CONTINUOUS
 62
     5
 10
51.544710000000123
 20
-100.174795
 30
0.0
 11
50.196570000000072
 21
-100.174795
 31
0.0
  0
LINE
  8
DETAIL
  6
CONTINUOUS
 62
     5
 10
52.892864999999802
 20
-97.765465000000006
 30
0.0
 11
51.544710000000123
 21
-97.851324999999974
 31
0.0
  0
LINE
  8
DETAIL
  6
CONTINUOUS
 62
     5
 10
50.196570000000072
 20
-97.937184999999999
 30
0.0
 11
48.848414999999932
 21
-98.023045000000025
 31
0.0
  0
LINE
  8
DETAIL
  6
CONTINUOUS
 62
     5
 10
51.544710000000123
 20
-98.059149999999988
 30
0.0
 11
50.196570000000072
 21
-98.145025000000032
 31
0.0
  0
LINE
  8
DETAIL
  6
CONTINUOUS
 62
     5
 10
59.840999999999887
 20
-100.174795
 30
0.0
 11
58.285455000000177
 21
-100.174795
 31
0.0
  0
LINE
  8
DETAIL
  6
CONTINUOUS
 62
     5
 10
59.854185000000143
 20
-97.529935000000023
 30
0.0
 11
58.285455000000177
 21
-97.629850000000033
 31
0.0
  0
LINE
  8
DETAIL
  6
CONTINUOUS
 62
     5
 10
56.93730000000005
 20
-97.715710000000001
 30
0.0
 11
55.589159999999993
 21
-97.80156999999997
 31
0.0
  0
LINE
  8
DETAIL
  6
CONTINUOUS
 62
     5
 10
56.93730000000005
 20
-100.174795
 30
0.0
 11
55.589159999999993
 21
-100.174795
 31
0.0
  0
LINE
  8
DETAIL
  6
CONTINUOUS
 62
     5
 10
58.285455000000177
 20
-97.422025000000019
 30
0.0
 11
56.93730000000005
 21
-97.507884999999987
 31
0.0
  0
LINE
  8
DETAIL
  6
CONTINUOUS
 62
     5
 10
55.589159999999993
 20
-97.593745000000013
 30
0.0
 11
54.241004999999859
 21
-97.679605000000038
 31
0.0
  0
ARC
  8
DETAIL
  6
CONTINUOUS
 62
     5
 10
59.840999999999887
 20
-94.211844999999983
 30
0.0
 40
3.1111049999999998
 50
270.0
 51
0.0
  0
LINE
  8
DETAIL
  6
CONTINUOUS
 62
     5
 10
76.433594999999968
 20
-97.322949999999992
 30
0.0
 11
76.433594999999968
 21
-102.76739499999999
 31
0.0
  0
LINE
  8
DETAIL
  6
CONTINUOUS
 62
     5
 10
66.063224999999875
 20
-97.322949999999992
 30
0.0
 11
66.063224999999875
 21
-102.76739499999999
 31
0.0
  0
LINE
  8
DETAIL
  6
CONTINUOUS
 62
     5
 10
76.917765000000145
 20
-105.990955
 30
0.0
 11
80.461035000000265
 21
-101.36929000000001
 31
0.0
  0
ARC
  8
DETAIL
  6
CONTINUOUS
 62
     5
 10
66.581744999999955
 20
-102.76739499999999
 30
0.0
 40
0.51852
 50
180.0
 51
270.0
  0
ARC
  8
DETAIL
  6
CONTINUOUS
 62
     5
 10
75.915074999999888
 20
-102.76739499999999
 30
0.0
 40
0.51852
 50
270.0
 51
0.0
  0
ARC
  8
DETAIL
  6
CONTINUOUS
 62
     5
 10
76.094759999999951
 20
-105.35997999999999
 30
0.0
 40
1.03704
 50
270.0
 51
322.52382000000239
  0
LINE
  8
DETAIL
  6
CONTINUOUS
 62
     5
 10
76.094759999999951
 20
-106.39702
 30
0.0
 11
66.082319999999982
 21
-106.39702
 31
0.0
  0
LINE
  8
DETAIL
  6
CONTINUOUS
 62
     5
 10
75.915074999999888
 20
-103.285915
 30
0.0
 11
66.581744999999955
 21
-103.285915
 31
0.0
  0
ARC
  8
DETAIL
  6
CONTINUOUS
 62
     5
 10
80.049539999999979
 20
-101.05379499999999
 30
0.0
 40
0.51852
 50
322.52382000000239
 51
4.3987049999997678
  0
LINE
  8
DETAIL
  6
CONTINUOUS
 62
     5
 10
76.433594999999968
 20
-97.322949999999992
 30
0.0
 11
66.063224999999875
 21
-97.322949999999992
 31
0.0
  0
ARC
  8
DETAIL
  6
CONTINUOUS
 62
     5
 10
14.000009999999749
 20
-34.600000000000023
 30
0.0
 40
6.1000050000000003
 50
219.60198300000221
 51
320.39803500000392
  0
LINE
  8
DETAIL
  6
CONTINUOUS
 62
     5
 10
7.3662150000000111
 20
-38.199999999999989
 30
0.0
 11
18.70000500000015
 21
-38.199999999999989
 31
0.0
  0
LINE
  8
DETAIL
  6
CONTINUOUS
 62
     5
 10
2.5000049999998741
 20
-37.600000000000023
 30
0.0
 11
272.5
 21
-37.600000000000023
 31
0.0
  0
LINE
  8
DETAIL
  6
CONTINUOUS
 62
     5
 10
9.3000000000001819
 20
-38.48845
 30
0.0
 11
18.70000500000015
 21
-38.48845
 31
0.0
  0
LINE
  8
DETAIL
  6
CONTINUOUS
 62
     5
 10
0.9446100000000115
 20
-89.72959000000003
 30
0.0
 11
0.9446100000000115
 21
-38.216724999999997
 31
0.0
  0
LINE
  8
DETAIL
  6
CONTINUOUS
 62
     5
 10
4.0554000000001906
 20
-89.656600000000026
 30
0.0
 11
4.0554000000001906
 21
-38.216724999999997
 31
0.0
  0
LINE
  8
DETAIL
  6
CONTINUOUS
 62
     5
 10
-314.70001899999988
 20
-37.888445999999988
 30
0.0
 11
-75.299970999999914
 21
-37.888445999999988
 31
0.0
  0
LINE
  8
DETAIL
  6
CONTINUOUS
 62
     5
 10
-75.299970999999914
 20
-37.600000000000023
 30
0.0
 11
-75.299970999999914
 21
-37.888445999999988
 31
0.0
  0
LINE
  8
DETAIL
  6
CONTINUOUS
 62
     5
 10
-314.70001899999988
 20
-37.600000000000023
 30
0.0
 11
-314.70001899999988
 21
-37.888445999999988
 31
0.0
  0
LINE
  8
DETAIL
  6
CONTINUOUS
 62
     5
 10
-5.7829950000000281
 20
-37.600000000000023
 30
0.0
 11
-314.70001899999988
 21
-37.600000000000023
 31
0.0
  0
LINE
  8
DETAIL
  6
CONTINUOUS
 62
     5
 10
-5.0999999999999091
 20
-45.059124999999987
 30
0.0
 11
-5.0999999999999091
 21
-41.000004999999987
 31
0.0
  0
LINE
  8
DETAIL
  6
CONTINUOUS
 62
     5
 10
5.7830100000001039
 20
-37.600000000000023
 30
0.0
 11
5.4737249999998312
 21
-43.501600000000003
 31
0.0
  0
LINE
  8
DETAIL
  6
CONTINUOUS
 62
     5
 10
-5.8144350000002314
 20
-37.0
 30
0.0
 11
-5.4999900000002526
 21
-43.0
 31
0.0
  0
ARC
  8
DETAIL
  6
CONTINUOUS
 62
     5
 10
0.0
 20
-43.0
 30
0.0
 40
5.5000050000000007
 50
157.99909100000559
 51
279.8893359999945
  0
ARC
  8
DETAIL
  6
CONTINUOUS
 62
     5
 10
2.5000049999998741
 20
-41.300004999999999
 30
0.0
 40
4.3000050000000014
 50
291.20589900000721
 51
23.342483999998169
  0
ARC
  8
DETAIL
  6
CONTINUOUS
 62
     5
 10
2.5000049999998741
 20
-41.300004999999999
 30
0.0
 40
3.700005
 50
294.85845099999898
 51
23.342483999998169
  0
ARC
  8
DETAIL
  6
CONTINUOUS
 62
     5
 10
2.5000049999998741
 20
-41.300004999999999
 30
0.0
 40
4.3000050000000014
 50
90.0
 51
248.79410099999279
  0
ARC
  8
DETAIL
  6
CONTINUOUS
 62
     5
 10
2.5000049999998741
 20
-41.300004999999999
 30
0.0
 40
3.700005
 50
90.0
 51
245.14154900000099
  0
ARC
  8
DETAIL
  6
CONTINUOUS
 62
     5
 10
2.5000049999998741
 20
-40.911115000000002
 30
0.0
 40
3.1111049999999998
 50
60.003342000004331
 51
119.9966579999957
  0
LINE
  8
DETAIL
  6
CONTINUOUS
 62
     5
 10
1.5586199999997921
 20
-37.72175500000003
 30
0.0
 11
2.7554249999998319
 21
-37.809325000000001
 31
0.0
  0
LINE
  8
DETAIL
  6
CONTINUOUS
 62
     5
 10
-1.3445849999998249
 20
-37.50932499999999
 30
0.0
 11
0.264075000000048
 21
-37.62704500000001
 31
0.0
  0
ARC
  8
DETAIL
  6
CONTINUOUS
 62
     5
 10
-1.5999900000001619
 20
-41.000004999999987
 30
0.0
 40
3.4999950000000002
 50
85.815083999990918
 51
180.0
  0
LINE
  8
DETAIL
  6
CONTINUOUS
 62
     5
 10
5.7830100000001039
 20
-37.600000000000023
 30
0.0
 11
5.6671649999998408
 21
-39.810339999999997
 31
0.0
  0
LINE
  8
DETAIL
  6
CONTINUOUS
 62
     5
 10
9.300014999999803
 20
-38.199999999999989
 30
0.0
 11
9.300014999999803
 21
-38.48845
 31
0.0
  0
ARC
  8
DETAIL
  6
CONTINUOUS
 62
     5
 10
7.3662150000000111
 20
-39.200005000000033
 30
0.0
 40
1.6000049999999999
 50
90.0
 51
203.34248399999819
  0
ARC
  8
DETAIL
  6
CONTINUOUS
 62
     5
 10
7.3662150000000111
 20
-39.200005000000033
 30
0.0
 40
1.000005
 50
90.0
 51
203.34248399999819
  0
LINE
  8
DETAIL
  6
CONTINUOUS
 62
     5
 10
-28.515075000000252
 20
-15.51508000000001
 30
0.0
 11
-31.484910000000131
 21
-18.484929999999959
 31
0.0
  0
LINE
  8
DETAIL
  6
CONTINUOUS
 62
     5
 10
-31.484924999999748
 20
-15.51508000000001
 30
0.0
 11
-28.515075000000252
 21
-18.484915000000001
 31
0.0
  0
LINE
  8
DETAIL
  6
CONTINUOUS
 62
     5
 10
79.544714999999997
 20
-87.730360000000019
 30
0.0
 11
62.952119999999923
 21
-87.730360000000019
 31
0.0
  0
LINE
  8
DETAIL
  6
CONTINUOUS
 62
     5
 10
74.515080000000125
 20
-71.027199999999993
 30
0.0
 11
74.515080000000125
 21
-83.582215000000019
 31
0.0
  0
LINE
  8
DETAIL
  6
CONTINUOUS
 62
     5
 10
67.981754999999794
 20
-71.027199999999993
 30
0.0
 11
67.981754999999794
 21
-83.582215000000019
 31
0.0
  0
LINE
  8
DETAIL
  6
CONTINUOUS
 62
     5
 10
74.722485000000233
 20
-83.582215000000019
 30
0.0
 11
67.774335000000065
 21
-83.582215000000019
 31
0.0
  0
LINE
  8
DETAIL
  6
CONTINUOUS
 62
     5
 10
67.774335000000065
 20
-83.582215000000019
 30
0.0
 11
67.774335000000065
 21
-87.730360000000019
 31
0.0
  0
LINE
  8
DETAIL
  6
CONTINUOUS
 62
     5
 10
74.722485000000233
 20
-83.582215000000019
 30
0.0
 11
74.722485000000233
 21
-87.730360000000019
 31
0.0
  0
CIRCLE
  8
DETAIL
  6
CONTINUOUS
 62
     5
 10
71.248410000000149
 20
-75.597025000000031
 30
0.0
 40
1.5555600000000001
  0
CIRCLE
  8
DETAIL
  6
CONTINUOUS
 62
     5
 10
71.248410000000149
 20
-75.597025000000031
 30
0.0
 40
1.8148200000000001
  0
ARC
  8
DETAIL
  6
CONTINUOUS
 62
     5
 10
71.248410000000149
 20
-76.322949999999992
 30
0.0
 40
6.2222249999999999
 50
58.331756999996223
 51
121.6682430000038
  0
LINE
  8
DETAIL
  6
CONTINUOUS
 62
     5
 10
74.515080000000125
 20
-71.027199999999993
 30
0.0
 11
67.981754999999794
 21
-71.027199999999993
 31
0.0
  0
LINE
  8
DETAIL
  6
CONTINUOUS
 62
     5
 10
18.500009999999751
 20
-37.0
 30
0.0
 11
18.500009999999751
 21
-38.199999999999989
 31
0.0
  0
LINE
  8
DETAIL
  6
CONTINUOUS
 62
     5
 10
18.70000500000015
 20
-38.199999999999989
 30
0.0
 11
18.70000500000015
 21
-38.48845
 31
0.0
  0
CIRCLE
  8
DETAIL
  6
CONTINUOUS
 62
     5
 10
-489.99999500000013
 20
38.0
 30
0.0
 40
4.700024
  0
LINE
  8
DETAIL
  6
CONTINUOUS
 62
     5
 10
-491.48492799999991
 20
39.484927999999968
 30
0.0
 11
-488.51506199999989
 21
36.515072000000032
 31
0.0
  0
LINE
  8
DETAIL
  6
CONTINUOUS
 62
     5
 10
-488.51506699999982
 20
39.484933000000012
 30
0.0
 11
-491.48492299999998
 21
36.515066999999988
 31
0.0
  0
LINE
  8
DETAIL
  6
CONTINUOUS
 62
     5
 10
-469.79998999999998
 20
78.088444999999979
 30
0.0
 11
-479.19999499999989
 21
78.088444999999979
 31
0.0
  0
ARC
  8
DETAIL
  6
CONTINUOUS
 62
     5
 10
-474.5
 20
74.199995000000001
 30
0.0
 40
6.1000050000000003
 50
39.601983000002249
 51
140.39803500000389
  0
LINE
  8
DETAIL
  6
CONTINUOUS
 62
     5
 10
-479.19999499999989
 20
77.799994999999967
 30
0.0
 11
-479.19999499999989
 21
78.088444999999979
 31
0.0
  0
LINE
  8
DETAIL
  6
CONTINUOUS
 62
     5
 10
-469.79998999999998
 20
77.799994999999967
 30
0.0
 11
-469.79998999999998
 21
78.088444999999979
 31
0.0
  0
CIRCLE
  8
DETAIL
  6
CONTINUOUS
 62
     5
 10
0.0
 20
21.000004999999991
 30
0.0
 40
4.700024
  0
LINE
  8
DETAIL
  6
CONTINUOUS
 62
     5
 10
1.4849329999997281
 20
19.515077000000019
 30
0.0
 11
-1.4849329999997281
 21
22.484933000000009
 31
0.0
  0
LINE
  8
DETAIL
  6
CONTINUOUS
 62
     5
 10
-1.4849279999998539
 20
19.515072000000028
 30
0.0
 11
1.4849279999998539
 21
22.484938
 31
0.0
  0
LINE
  8
DETAIL
  6
CONTINUOUS
 62
     5
 10
4.7000100000000202
 20
78.088444999999979
 30
0.0
 11
-4.6999949999999444
 21
78.088444999999979
 31
0.0
  0
ARC
  8
DETAIL
  6
CONTINUOUS
 62
     5
 10
0.0
 20
74.199995000000001
 30
0.0
 40
6.1000050000000003
 50
39.601983000002249
 51
140.39803500000389
  0
LINE
  8
DETAIL
  6
CONTINUOUS
 62
     5
 10
-4.6999949999999444
 20
77.799994999999967
 30
0.0
 11
-4.6999949999999444
 21
78.088444999999979
 31
0.0
  0
LINE
  8
DETAIL
  6
CONTINUOUS
 62
     5
 10
4.7000100000000202
 20
77.799994999999967
 30
0.0
 11
4.7000100000000202
 21
78.088444999999979
 31
0.0
  0
LINE
  8
DETAIL
  6
CONTINUOUS
 62
     5
 10
723.19999999999982
 20
-16.0
 30
0.0
 11
753.5
 21
-16.0
 31
0.0
  0
LINE
  8
DETAIL
  6
CONTINUOUS
 62
     5
 10
723.19999999999982
 20
-17.60000500000001
 30
0.0
 11
753.5
 21
-17.60000500000001
 31
0.0
  0
LINE
  8
DETAIL
  6
CONTINUOUS
 62
     5
 10
721.60001000000011
 20
-14.39999499999999
 30
0.0
 11
721.60001000000011
 21
17.199995000000001
 31
0.0
  0
LINE
  8
DETAIL
  6
CONTINUOUS
 62
     5
 10
720.00000499999987
 20
-14.39999499999999
 30
0.0
 11
720.00000499999987
 21
17.199995000000001
 31
0.0
  0
LINE
  8
DETAIL
  6
CONTINUOUS
 62
     5
 10
719.20001000000002
 20
75.000004999999987
 30
0.0
 11
719.20001000000002
 21
-34.199995000000001
 31
0.0
  0
LINE
  8
DETAIL
  6
CONTINUOUS
 62
     5
 10
720.00000499999987
 20
-34.600000000000023
 30
0.0
 11
720.00000499999987
 21
75.39999499999999
 31
0.0
  0
LINE
  8
DETAIL
  6
CONTINUOUS
 62
     5
 10
718.00000999999975
 20
-37.0
 30
0.0
 11
718.00000999999975
 21
77.0
 31
0.0
  0
LINE
  8
DETAIL
  6
CONTINUOUS
 62
     5
 10
427.44661000000002
 20
-38.999995000000013
 30
0.0
 11
443.47980999999982
 21
-38.999995000000013
 31
0.0
  0
LINE
  8
DETAIL
  6
CONTINUOUS
 62
     5
 10
429.30000999999987
 20
-41.000004999999987
 30
0.0
 11
439.70000499999969
 21
-41.000004999999987
 31
0.0
  0
LINE
  8
DETAIL
  6
CONTINUOUS
 62
     5
 10
428.00000499999987
 20
-67.0
 30
0.0
 11
433.0
 21
-67.0
 31
0.0
  0
LINE
  8
DETAIL
  6
CONTINUOUS
 62
     5
 10
439.20002399999981
 20
-41.288451000000009
 30
0.0
 11
429.79997600000019
 21
-41.288451000000009
 31
0.0
  0
ARC
  8
DETAIL
  6
CONTINUOUS
 62
     5
 10
434.5
 20
-37.39998700000001
 30
0.0
 40
6.1000310000000004
 50
219.60196499999611
 51
320.39801699999782
  0
LINE
  8
DETAIL
  6
CONTINUOUS
 62
     5
 10
300.50000499999987
 20
-70.499995000000013
 30
0.0
 11
418.50000999999969
 21
-70.499995000000013
 31
0.0
  0
LINE
  8
DETAIL
  6
CONTINUOUS
 62
     5
 10
343.50000999999969
 20
-74.000004999999987
 30
0.0
 11
330.50000499999987
 21
-74.000004999999987
 31
0.0
  0
LINE
  8
DETAIL
  6
CONTINUOUS
 62
     5
 10
275.01100000000002
 20
-62.549994999999967
 30
0.0
 11
274.50000999999969
 21
-37.0
 31
0.0
  0
LINE
  8
DETAIL
  6
CONTINUOUS
 62
     5
 10
292.52080000000018
 20
-63.039985000000001
 30
0.0
 11
292.04979999999978
 21
-39.490000000000009
 31
0.0
  0
LINE
  8
DETAIL
  6
CONTINUOUS
 62
     5
 10
272.5
 20
-37.0
 30
0.0
 11
272.5
 21
-62.000004999999987
 31
0.0
  0
ARC
  8
DETAIL
  6
CONTINUOUS
 62
     5
 10
285.00000999999969
 20
-63.399999999999977
 30
0.0
 40
6.1000050000000003
 50
219.60198300000221
 51
314.70060900000749
  0
LINE
  8
DETAIL
  6
CONTINUOUS
 62
     5
 10
280.30000000000018
 20
-67.288450000000012
 30
0.0
 11
288.88439499999998
 21
-67.288450000000012
 31
0.0
  0
LINE
  8
DETAIL
  6
CONTINUOUS
 62
     5
 10
288.00000999999969
 20
-67.0
 30
0.0
 11
276.00000999999969
 21
-67.0
 31
0.0
  0
LINE
  8
DETAIL
  6
CONTINUOUS
 62
     5
 10
441.48950500000001
 20
-65.000004999999987
 30
0.0
 11
276.00000999999969
 21
-65.000004999999987
 31
0.0
  0
LINE
  8
DETAIL
  6
CONTINUOUS
 62
     5
 10
280.30000000000018
 20
-67.0
 30
0.0
 11
280.30000000000018
 21
-67.288450000000012
 31
0.0
  0
ARC
  8
DETAIL
  6
CONTINUOUS
 62
     5
 10
277.51051000000012
 20
-62.5
 30
0.0
 40
2.5000049999999998
 50
181.14576300000081
 51
270.0
  0
LINE
  8
DETAIL
  6
CONTINUOUS
 62
     5
 10
276.00000999999969
 20
-65.000004999999987
 30
0.0
 11
276.00000999999969
 21
-67.0
 31
0.0
  0
LINE
  8
DETAIL
  6
CONTINUOUS
 62
     5
 10
289.50000999999969
 20
-68.5
 30
0.0
 11
289.50000999999969
 21
-83.5
 31
0.0
  0
LINE
  8
DETAIL
  6
CONTINUOUS
 62
     5
 10
313.50000999999969
 20
-74.000004999999987
 30
0.0
 11
300.50000499999987
 21
-74.000004999999987
 31
0.0
  0
LINE
  8
DETAIL
  6
CONTINUOUS
 62
     5
 10
300.50000499999987
 20
-74.000004999999987
 30
0.0
 11
300.50000499999987
 21
-83.999995000000013
 31
0.0
  0
LINE
  8
DETAIL
  6
CONTINUOUS
 62
     5
 10
291.00000999999969
 20
-85.0
 30
0.0
 11
425.00000499999987
 21
-85.0
 31
0.0
  0
ARC
  8
DETAIL
  6
CONTINUOUS
 62
     5
 10
291.00000999999969
 20
-83.5
 30
0.0
 40
1.5
 50
180.0
 51
270.0
  0
ARC
  8
DETAIL
  6
CONTINUOUS
 62
     5
 10
299.5
 20
-83.999995000000013
 30
0.0
 40
1.000005
 50
270.0
 51
0.0
  0
LINE
  8
DETAIL
  6
CONTINUOUS
 62
     5
 10
313.50000999999969
 20
-74.000004999999987
 30
0.0
 11
313.50000999999969
 21
-83.999995000000013
 31
0.0
  0
LINE
  8
DETAIL
  6
CONTINUOUS
 62
     5
 10
315.50000499999987
 20
-74.000004999999987
 30
0.0
 11
315.50000499999987
 21
-83.999995000000013
 31
0.0
  0
LINE
  8
DETAIL
  6
CONTINUOUS
 62
     5
 10
328.50000999999969
 20
-74.000004999999987
 30
0.0
 11
328.50000999999969
 21
-83.999995000000013
 31
0.0
  0
LINE
  8
DETAIL
  6
CONTINUOUS
 62
     5
 10
330.50000499999987
 20
-74.000004999999987
 30
0.0
 11
330.50000499999987
 21
-83.999995000000013
 31
0.0
  0
ARC
  8
DETAIL
  6
CONTINUOUS
 62
     5
 10
314.5
 20
-83.999995000000013
 30
0.0
 40
1.000005
 50
180.0
 51
359.81749534215538
  0
ARC
  8
DETAIL
  6
CONTINUOUS
 62
     5
 10
329.5
 20
-83.999995000000013
 30
0.0
 40
1.000005
 50
180.0
 51
359.81749534215538
  0
LINE
  8
DETAIL
  6
CONTINUOUS
 62
     5
 10
328.50000999999969
 20
-74.000004999999987
 30
0.0
 11
315.50000499999987
 21
-74.000004999999987
 31
0.0
  0
ARC
  8
DETAIL
  6
CONTINUOUS
 62
     5
 10
294.52040500000021
 20
-62.999995000000013
 30
0.0
 40
1.999995
 50
181.14576300000081
 51
270.0
  0
LINE
  8
DETAIL
  6
CONTINUOUS
 62
     5
 10
285.00000999999969
 20
-65.000004999999987
 30
0.0
 11
285.00000999999969
 21
-67.0
 31
0.0
  0
ARC
  8
DETAIL
  6
CONTINUOUS
 62
     5
 10
288.00000999999969
 20
-68.5
 30
0.0
 40
1.5
 50
0.0
 51
90.0
  0
LINE
  8
DETAIL
  6
CONTINUOUS
 62
     5
 10
300.50000499999987
 20
-65.000004999999987
 30
0.0
 11
300.50000499999987
 21
-70.499995000000013
 31
0.0
  0
LINE
  8
DETAIL
  6
CONTINUOUS
 62
     5
 10
275.03011000000009
 20
-38.999995000000013
 30
0.0
 11
291.54990999999973
 21
-38.999995000000013
 31
0.0
  0
LINE
  8
DETAIL
  6
CONTINUOUS
 62
     5
 10
289.70000499999969
 20
-41.000004999999987
 30
0.0
 11
279.30000999999987
 21
-41.000004999999987
 31
0.0
  0
LINE
  8
DETAIL
  6
CONTINUOUS
 62
     5
 10
279.79997600000019
 20
-41.288451000000009
 30
0.0
 11
289.20002399999981
 21
-41.288451000000009
 31
0.0
  0
ARC
  8
DETAIL
  6
CONTINUOUS
 62
     5
 10
284.5
 20
-37.39998700000001
 30
0.0
 40
6.1000310000000004
 50
219.60198300000221
 51
320.39803500000392
  0
LINE
  8
DETAIL
  6
CONTINUOUS
 62
     5
 10
274.62001000000009
 20
-43.0
 30
0.0
 11
272.5
 21
-43.0
 31
0.0
  0
ARC
  8
DETAIL
  6
CONTINUOUS
 62
     5
 10
275.03011000000009
 20
-38.5
 30
0.0
 40
0.499995
 50
181.14576300000081
 51
270.0
  0
ARC
  8
DETAIL
  6
CONTINUOUS
 62
     5
 10
278.70001000000002
 20
-39.299994999999967
 30
0.0
 40
0.3
 50
0.0
 51
90.0
  0
LINE
  8
DETAIL
  6
CONTINUOUS
 62
     5
 10
279.00000999999969
 20
-39.299994999999967
 30
0.0
 11
279.00000999999969
 21
-40.700005000000033
 31
0.0
  0
ARC
  8
DETAIL
  6
CONTINUOUS
 62
     5
 10
279.30000999999987
 20
-40.700005000000033
 30
0.0
 40
0.3
 50
180.0
 51
270.0
  0
LINE
  8
DETAIL
  6
CONTINUOUS
 62
     5
 10
279.79997600000019
 20
-41.000004999999987
 30
0.0
 11
279.79997600000019
 21
-41.288451000000009
 31
0.0
  0
ARC
  8
DETAIL
  6
CONTINUOUS
 62
     5
 10
291.54990999999973
 20
-39.500004999999987
 30
0.0
 40
0.499995
 50
1.145763000000825
 51
90.0
  0
ARC
  8
DETAIL
  6
CONTINUOUS
 62
     5
 10
290.30000500000011
 20
-39.299994999999967
 30
0.0
 40
0.3
 50
90.0
 51
180.0
  0
LINE
  8
DETAIL
  6
CONTINUOUS
 62
     5
 10
290.00000499999987
 20
-39.299994999999967
 30
0.0
 11
290.00000499999987
 21
-40.700005000000033
 31
0.0
  0
ARC
  8
DETAIL
  6
CONTINUOUS
 62
     5
 10
289.70000499999969
 20
-40.700005000000033
 30
0.0
 40
0.3
 50
270.0
 51
0.0
  0
LINE
  8
DETAIL
  6
CONTINUOUS
 62
     5
 10
289.20002399999981
 20
-41.000004999999987
 30
0.0
 11
289.20002399999981
 21
-41.288451000000009
 31
0.0
  0
LINE
  8
DETAIL
  6
CONTINUOUS
 62
     5
 10
426.47570499999978
 20
-63.039985000000001
 30
0.0
 11
426.94670500000029
 21
-39.490000000000009
 31
0.0
  0
LINE
  8
DETAIL
  6
CONTINUOUS
 62
     5
 10
388.50000999999969
 20
-74.000004999999987
 30
0.0
 11
375.50000499999987
 21
-74.000004999999987
 31
0.0
  0
LINE
  8
DETAIL
  6
CONTINUOUS
 62
     5
 10
358.50000999999969
 20
-74.000004999999987
 30
0.0
 11
345.50000499999987
 21
-74.000004999999987
 31
0.0
  0
LINE
  8
DETAIL
  6
CONTINUOUS
 62
     5
 10
345.50000499999987
 20
-74.000004999999987
 30
0.0
 11
345.50000499999987
 21
-83.999995000000013
 31
0.0
  0
LINE
  8
DETAIL
  6
CONTINUOUS
 62
     5
 10
343.50000999999969
 20
-74.000004999999987
 30
0.0
 11
343.50000999999969
 21
-83.999995000000013
 31
0.0
  0
ARC
  8
DETAIL
  6
CONTINUOUS
 62
     5
 10
344.5
 20
-83.999995000000013
 30
0.0
 40
1.000005
 50
180.0
 51
359.81749534215538
  0
LINE
  8
DETAIL
  6
CONTINUOUS
 62
     5
 10
358.50000999999969
 20
-74.000004999999987
 30
0.0
 11
358.50000999999969
 21
-83.999995000000013
 31
0.0
  0
LINE
  8
DETAIL
  6
CONTINUOUS
 62
     5
 10
360.50000499999987
 20
-74.000004999999987
 30
0.0
 11
360.50000499999987
 21
-83.999995000000013
 31
0.0
  0
LINE
  8
DETAIL
  6
CONTINUOUS
 62
     5
 10
373.50000999999969
 20
-74.000004999999987
 30
0.0
 11
373.50000999999969
 21
-83.999995000000013
 31
0.0
  0
LINE
  8
DETAIL
  6
CONTINUOUS
 62
     5
 10
375.50000499999987
 20
-74.000004999999987
 30
0.0
 11
375.50000499999987
 21
-83.999995000000013
 31
0.0
  0
ARC
  8
DETAIL
  6
CONTINUOUS
 62
     5
 10
359.5
 20
-83.999995000000013
 30
0.0
 40
1.000005
 50
180.0
 51
359.81749534215538
  0
ARC
  8
DETAIL
  6
CONTINUOUS
 62
     5
 10
374.5
 20
-83.999995000000013
 30
0.0
 40
1.000005
 50
180.0
 51
359.81749534215538
  0
LINE
  8
DETAIL
  6
CONTINUOUS
 62
     5
 10
373.50000999999969
 20
-74.000004999999987
 30
0.0
 11
360.50000499999987
 21
-74.000004999999987
 31
0.0
  0
LINE
  8
DETAIL
  6
CONTINUOUS
 62
     5
 10
426.50000499999987
 20
-68.5
 30
0.0
 11
426.50000499999987
 21
-83.5
 31
0.0
  0
LINE
  8
DETAIL
  6
CONTINUOUS
 62
     5
 10
418.50000999999969
 20
-74.000004999999987
 30
0.0
 11
405.50000499999987
 21
-74.000004999999987
 31
0.0
  0
LINE
  8
DETAIL
  6
CONTINUOUS
 62
     5
 10
405.50000499999987
 20
-74.000004999999987
 30
0.0
 11
405.50000499999987
 21
-83.999995000000013
 31
0.0
  0
LINE
  8
DETAIL
  6
CONTINUOUS
 62
     5
 10
403.50000999999969
 20
-74.000004999999987
 30
0.0
 11
403.50000999999969
 21
-83.999995000000013
 31
0.0
  0
LINE
  8
DETAIL
  6
CONTINUOUS
 62
     5
 10
390.50000499999987
 20
-74.000004999999987
 30
0.0
 11
390.50000499999987
 21
-83.999995000000013
 31
0.0
  0
LINE
  8
DETAIL
  6
CONTINUOUS
 62
     5
 10
388.50000999999969
 20
-74.000004999999987
 30
0.0
 11
388.50000999999969
 21
-83.999995000000013
 31
0.0
  0
ARC
  8
DETAIL
  6
CONTINUOUS
 62
     5
 10
389.5
 20
-83.999995000000013
 30
0.0
 40
1.000005
 50
180.0
 51
359.81749534215538
  0
ARC
  8
DETAIL
  6
CONTINUOUS
 62
     5
 10
404.5
 20
-83.999995000000013
 30
0.0
 40
1.000005
 50
180.0
 51
359.81749534215538
  0
LINE
  8
DETAIL
  6
CONTINUOUS
 62
     5
 10
403.50000999999969
 20
-74.000004999999987
 30
0.0
 11
390.50000499999987
 21
-74.000004999999987
 31
0.0
  0
LINE
  8
DETAIL
  6
CONTINUOUS
 62
     5
 10
418.50000999999969
 20
-74.000004999999987
 30
0.0
 11
418.50000999999969
 21
-83.999995000000013
 31
0.0
  0
ARC
  8
DETAIL
  6
CONTINUOUS
 62
     5
 10
419.5
 20
-83.999995000000013
 30
0.0
 40
1.000005
 50
180.0
 51
270.0
  0
ARC
  8
DETAIL
  6
CONTINUOUS
 62
     5
 10
425.00000499999987
 20
-83.5
 30
0.0
 40
1.5
 50
270.0
 51
0.0
  0
LINE
  8
DETAIL
  6
CONTINUOUS
 62
     5
 10
418.50000999999969
 20
-65.000004999999987
 30
0.0
 11
418.50000999999969
 21
-70.499995000000013
 31
0.0
  0
ARC
  8
DETAIL
  6
CONTINUOUS
 62
     5
 10
424.47609999999992
 20
-62.999995000000013
 30
0.0
 40
1.999995
 50
270.0
 51
358.85423699999922
  0
ARC
  8
DETAIL
  6
CONTINUOUS
 62
     5
 10
428.00000499999987
 20
-68.5
 30
0.0
 40
1.5
 50
90.0
 51
180.0
  0
ARC
  8
DETAIL
  6
CONTINUOUS
 62
     5
 10
427.44661000000002
 20
-39.500004999999987
 30
0.0
 40
0.499995
 50
90.0
 51
178.85423699999919
  0
ARC
  8
DETAIL
  6
CONTINUOUS
 62
     5
 10
428.70001000000002
 20
-39.299994999999967
 30
0.0
 40
0.3
 50
0.0
 51
90.0
  0
LINE
  8
DETAIL
  6
CONTINUOUS
 62
     5
 10
429.00000999999969
 20
-39.299994999999967
 30
0.0
 11
429.00000999999969
 21
-40.700005000000033
 31
0.0
  0
ARC
  8
DETAIL
  6
CONTINUOUS
 62
     5
 10
429.30000999999987
 20
-40.700005000000033
 30
0.0
 40
0.3
 50
180.0
 51
270.0
  0
LINE
  8
DETAIL
  6
CONTINUOUS
 62
     5
 10
429.79997600000019
 20
-41.000004999999987
 30
0.0
 11
429.79997600000019
 21
-41.288451000000009
 31
0.0
  0
LINE
  8
DETAIL
  6
CONTINUOUS
 62
     5
 10
443.98899999999998
 20
-62.549994999999967
 30
0.0
 11
444.50000499999987
 21
-37.0
 31
0.0
  0
ARC
  8
DETAIL
  6
CONTINUOUS
 62
     5
 10
441.48950500000001
 20
-62.5
 30
0.0
 40
2.5000049999999998
 50
270.0
 51
358.85423699999922
  0
ARC
  8
DETAIL
  6
CONTINUOUS
 62
     5
 10
433.0
 20
-65.5
 30
0.0
 40
1.5
 50
270.0
 51
0.0
  0
LINE
  8
DETAIL
  6
CONTINUOUS
 62
     5
 10
434.5
 20
-65.000004999999987
 30
0.0
 11
434.5
 21
-65.5
 31
0.0
  0
ARC
  8
DETAIL
  6
CONTINUOUS
 62
     5
 10
443.47980999999982
 20
-38.000004999999987
 30
0.0
 40
1.000005
 50
270.0
 51
358.85423699999922
  0
ARC
  8
DETAIL
  6
CONTINUOUS
 62
     5
 10
440.30000500000011
 20
-39.299994999999967
 30
0.0
 40
0.3
 50
90.0
 51
180.0
  0
LINE
  8
DETAIL
  6
CONTINUOUS
 62
     5
 10
440.00000499999987
 20
-39.299994999999967
 30
0.0
 11
440.00000499999987
 21
-40.700005000000033
 31
0.0
  0
ARC
  8
DETAIL
  6
CONTINUOUS
 62
     5
 10
439.70000499999969
 20
-40.700005000000033
 30
0.0
 40
0.3
 50
270.0
 51
0.0
  0
LINE
  8
DETAIL
  6
CONTINUOUS
 62
     5
 10
439.20002399999981
 20
-41.000004999999987
 30
0.0
 11
439.20002399999981
 21
-41.288451000000009
 31
0.0
  0
LINE
  8
DETAIL
  6
CONTINUOUS
 62
     5
 10
715.69999999999982
 20
-37.0
 30
0.0
 11
706.30000999999993
 21
-37.0
 31
0.0
  0
LINE
  8
DETAIL
  6
CONTINUOUS
 62
     5
 10
706.30000999999993
 20
-37.288450000000012
 30
0.0
 11
715.69999999999982
 21
-37.288450000000012
 31
0.0
  0
ARC
  8
DETAIL
  6
CONTINUOUS
 62
     5
 10
711.00000499999987
 20
-33.399999999999977
 30
0.0
 40
6.1000050000000003
 50
219.60198300000221
 51
320.39803500000392
  0
LINE
  8
DETAIL
  6
CONTINUOUS
 62
     5
 10
706.30000999999993
 20
-37.0
 30
0.0
 11
706.30000999999993
 21
-37.288450000000012
 31
0.0
  0
LINE
  8
DETAIL
  6
CONTINUOUS
 62
     5
 10
715.69999999999982
 20
-37.0
 30
0.0
 11
715.69999999999982
 21
-37.288450000000012
 31
0.0
  0
ARC
  8
DETAIL
  6
CONTINUOUS
 62
     5
 10
718.40000000000009
 20
-34.600000000000023
 30
0.0
 40
1.6000049999999999
 50
270.0
 51
0.0
  0
ARC
  8
DETAIL
  6
CONTINUOUS
 62
     5
 10
718.40000000000009
 20
-34.600000000000023
 30
0.0
 40
0.799995
 50
270.0
 51
0.0
  0
LINE
  8
DETAIL
  6
CONTINUOUS
 62
     5
 10
719.20001000000002
 20
-34.600000000000023
 30
0.0
 11
719.20001000000002
 21
-34.199995000000001
 31
0.0
  0
LINE
  8
DETAIL
  6
CONTINUOUS
 62
     5
 10
720.00000499999987
 20
-34.199995000000001
 30
0.0
 11
718.00000999999975
 21
-34.199995000000001
 31
0.0
  0
LINE
  8
DETAIL
  6
CONTINUOUS
 62
     5
 10
718.40000000000009
 20
-35.39999499999999
 30
0.0
 11
718.00000999999975
 21
-35.39999499999999
 31
0.0
  0
LINE
  8
DETAIL
  6
CONTINUOUS
 62
     5
 10
718.40000000000009
 20
-36.200005000000033
 30
0.0
 11
718.00000999999975
 21
-36.200005000000033
 31
0.0
  0
ARC
  8
DETAIL
  6
CONTINUOUS
 62
     5
 10
723.19999999999982
 20
-14.39999499999999
 30
0.0
 40
1.6000049999999999
 50
180.0
 51
270.0
  0
ARC
  8
DETAIL
  6
CONTINUOUS
 62
     5
 10
723.19999999999982
 20
-14.39999499999999
 30
0.0
 40
3.1999949999999999
 50
180.0
 51
270.0
  0
CIRCLE
  8
DETAIL
  6
CONTINUOUS
 62
     5
 10
460.00000999999969
 20
38.0
 30
0.0
 40
4.700024
  0
LINE
  8
DETAIL
  6
CONTINUOUS
 62
     5
 10
458.51507700000002
 20
39.484927999999968
 30
0.0
 11
461.48494299999987
 21
36.515072000000032
 31
0.0
  0
LINE
  8
DETAIL
  6
CONTINUOUS
 62
     5
 10
461.48493800000011
 20
39.484933000000012
 30
0.0
 11
458.51508199999989
 21
36.515066999999988
 31
0.0
  0
LINE
  8
DETAIL
  6
CONTINUOUS
 62
     5
 10
479.20001000000002
 20
78.088444999999979
 30
0.0
 11
469.80000500000011
 21
78.088444999999979
 31
0.0
  0
ARC
  8
DETAIL
  6
CONTINUOUS
 62
     5
 10
474.5
 20
74.199995000000001
 30
0.0
 40
6.1000050000000003
 50
39.601983000002249
 51
140.39803500000389
  0
LINE
  8
DETAIL
  6
CONTINUOUS
 62
     5
 10
469.80000500000011
 20
77.799994999999967
 30
0.0
 11
469.80000500000011
 21
78.088444999999979
 31
0.0
  0
LINE
  8
DETAIL
  6
CONTINUOUS
 62
     5
 10
479.20001000000002
 20
77.799994999999967
 30
0.0
 11
479.20001000000002
 21
78.088444999999979
 31
0.0
  0
LINE
  8
DETAIL
  6
CONTINUOUS
 62
     5
 10
718.00000999999975
 20
27.199999999999989
 30
0.0
 11
718.00000999999975
 21
21.60000500000001
 31
0.0
  0
CIRCLE
  8
DETAIL
  6
CONTINUOUS
 62
     5
 10
711.00000499999987
 20
21.000004999999991
 30
0.0
 40
4.700024
  0
ARC
  8
DETAIL
  6
CONTINUOUS
 62
     5
 10
717.99999200000002
 20
0.3999949999999899
 30
0.0
 40
6.1000310000000004
 50
309.60198300000349
 51
50.398034999994742
  0
LINE
  8
DETAIL
  6
CONTINUOUS
 62
     5
 10
721.88845599999968
 20
-4.300028999999995
 30
0.0
 11
721.88845599999968
 21
5.1000179999999773
 31
0.0
  0
LINE
  8
DETAIL
  6
CONTINUOUS
 62
     5
 10
721.60001000000011
 20
5.1000179999999773
 30
0.0
 11
721.88845599999968
 21
5.1000179999999773
 31
0.0
  0
LINE
  8
DETAIL
  6
CONTINUOUS
 62
     5
 10
721.60001000000011
 20
-4.300028999999995
 30
0.0
 11
721.88845599999968
 21
-4.300028999999995
 31
0.0
  0
LINE
  8
DETAIL
  6
CONTINUOUS
 62
     5
 10
721.60001000000011
 20
5.1000179999999773
 30
0.0
 11
721.60001000000011
 21
-4.300028999999995
 31
0.0
  0
ARC
  8
DETAIL
  6
CONTINUOUS
 62
     5
 10
723.19999999999982
 20
17.199995000000001
 30
0.0
 40
1.6000049999999999
 50
90.0
 51
180.0
  0
ARC
  8
DETAIL
  6
CONTINUOUS
 62
     5
 10
723.19999999999982
 20
17.199995000000001
 30
0.0
 40
3.1999949999999999
 50
90.0
 51
180.0
  0
LINE
  8
DETAIL
  6
CONTINUOUS
 62
     5
 10
709.51507200000015
 20
19.515077000000019
 30
0.0
 11
712.48493800000006
 21
22.484933000000009
 31
0.0
  0
LINE
  8
DETAIL
  6
CONTINUOUS
 62
     5
 10
712.48493299999973
 20
19.515072000000028
 30
0.0
 11
709.51507700000002
 21
22.484938
 31
0.0
  0
LINE
  8
DETAIL
  6
CONTINUOUS
 62
     5
 10
718.00000999999975
 20
21.60000500000001
 30
0.0
 11
718.69999999999982
 21
21.60000500000001
 31
0.0
  0
ARC
  8
DETAIL
  6
CONTINUOUS
 62
     5
 10
718.69999999999982
 20
21.099995000000039
 30
0.0
 40
0.499995
 50
0.0
 51
90.0
  0
LINE
  8
DETAIL
  6
CONTINUOUS
 62
     5
 10
737.0
 20
18.800000000000011
 30
0.0
 11
723.19999999999982
 21
18.800000000000011
 31
0.0
  0
LINE
  8
DETAIL
  6
CONTINUOUS
 62
     5
 10
737.0
 20
20.400004999999961
 30
0.0
 11
723.19999999999982
 21
20.400004999999961
 31
0.0
  0
LINE
  8
DETAIL
  6
CONTINUOUS
 62
     5
 10
737.0
 20
18.800000000000011
 30
0.0
 11
737.0
 21
20.400004999999961
 31
0.0
  0
ARC
  8
DETAIL
  6
CONTINUOUS
 62
     5
 10
718.69999999999982
 20
27.699995000000001
 30
0.0
 40
0.499995
 50
270.0
 51
0.0
  0
LINE
  8
DETAIL
  6
CONTINUOUS
 62
     5
 10
718.00000999999975
 20
27.199999999999989
 30
0.0
 11
718.69999999999982
 21
27.199999999999989
 31
0.0
  0
LINE
  8
DETAIL
  6
CONTINUOUS
 62
     5
 10
718.00000999999975
 20
69.800000000000011
 30
0.0
 11
718.00000999999975
 21
84.999995000000013
 31
0.0
  0
LINE
  8
DETAIL
  6
CONTINUOUS
 62
     5
 10
715.69999999999982
 20
78.088444999999979
 30
0.0
 11
706.30000999999993
 21
78.088444999999979
 31
0.0
  0
LINE
  8
DETAIL
  6
CONTINUOUS
 62
     5
 10
706.30000999999993
 20
77.799994999999967
 30
0.0
 11
715.69999999999982
 21
77.799994999999967
 31
0.0
  0
ARC
  8
DETAIL
  6
CONTINUOUS
 62
     5
 10
711.00000499999987
 20
74.199995000000001
 30
0.0
 40
6.1000050000000003
 50
39.601983000002249
 51
140.39803500000389
  0
LINE
  8
DETAIL
  6
CONTINUOUS
 62
     5
 10
706.30000999999993
 20
77.799994999999967
 30
0.0
 11
706.30000999999993
 21
78.088444999999979
 31
0.0
  0
LINE
  8
DETAIL
  6
CONTINUOUS
 62
     5
 10
715.69999999999982
 20
77.799994999999967
 30
0.0
 11
715.69999999999982
 21
78.088444999999979
 31
0.0
  0
ARC
  8
DETAIL
  6
CONTINUOUS
 62
     5
 10
718.40000000000009
 20
75.39999499999999
 30
0.0
 40
1.6000049999999999
 50
0.0
 51
90.0
  0
LINE
  8
DETAIL
  6
CONTINUOUS
 62
     5
 10
718.40000000000009
 20
77.0
 30
0.0
 11
718.00000999999975
 21
77.0
 31
0.0
  0
ARC
  8
DETAIL
  6
CONTINUOUS
 62
     5
 10
718.40000000000009
 20
75.39999499999999
 30
0.0
 40
0.799995
 50
0.0
 51
90.0
  0
LINE
  8
DETAIL
  6
CONTINUOUS
 62
     5
 10
719.20001000000002
 20
75.39999499999999
 30
0.0
 11
719.20001000000002
 21
75.000004999999987
 31
0.0
  0
LINE
  8
DETAIL
  6
CONTINUOUS
 62
     5
 10
718.40000000000009
 20
76.200005000000033
 30
0.0
 11
718.00000999999975
 21
76.200005000000033
 31
0.0
  0
LINE
  8
DETAIL
  6
CONTINUOUS
 62
     5
 10
720.00000499999987
 20
75.000004999999987
 30
0.0
 11
718.00000999999975
 21
75.000004999999987
 31
0.0
  0
LINE
  8
DETAIL
  6
DASHED
 62
     5
 10
718.00000999999975
 20
84.999995000000013
 30
0.0
 11
718.00000999999975
 21
95.0
 31
0.0
  0
LINE
  8
DETAIL
  6
CONTINUOUS
 62
     5
 10
753.5
 20
-16.0
 30
0.0
 11
753.5
 21
-17.60000500000001
 31
0.0
  0
LINE
  8
OUTLINE
  6
CONTINUOUS
 62
     3
 10
-719.99999000000003
 20
-34.600000000000023
 30
0.0
 11
-719.99999000000003
 21
75.39999499999999
 31
0.0
  0
ARC
  8
OUTLINE
  6
CONTINUOUS
 62
     3
 10
-718.40000000000009
 20
-34.600000000000023
 30
0.0
 40
1.6000049999999999
 50
180.0
 51
270.0
  0
LINE
  8
OUTLINE
  6
CONTINUOUS
 62
     3
 10
-718.40000000000009
 20
-36.200005000000033
 30
0.0
 11
-717.99999500000013
 21
-36.200005000000033
 31
0.0
  0
ARC
  8
OUTLINE
  6
CONTINUOUS
 62
     3
 10
-718.40000000000009
 20
75.39999499999999
 30
0.0
 40
1.6000049999999999
 50
90.0
 51
180.0
  0
LINE
  8
OUTLINE
  6
CONTINUOUS
 62
     3
 10
-718.40000000000009
 20
77.0
 30
0.0
 11
-717.99999500000013
 21
77.0
 31
0.0
  0
LINE
  8
OUTLINE
  6
CONTINUOUS
 62
     3
 10
720.00000499999987
 20
-34.600000000000023
 30
0.0
 11
720.00000499999987
 21
75.39999499999999
 31
0.0
  0
ARC
  8
OUTLINE
  6
CONTINUOUS
 62
     3
 10
718.40000000000009
 20
-34.600000000000023
 30
0.0
 40
1.6000049999999999
 50
270.0
 51
0.0
  0
LINE
  8
OUTLINE
  6
CONTINUOUS
 62
     3
 10
718.40000000000009
 20
-36.200005000000033
 30
0.0
 11
718.00000999999975
 21
-36.200005000000033
 31
0.0
  0
ARC
  8
OUTLINE
  6
CONTINUOUS
 62
     3
 10
718.40000000000009
 20
75.39999499999999
 30
0.0
 40
1.6000049999999999
 50
0.0
 51
90.0
  0
LINE
  8
OUTLINE
  6
CONTINUOUS
 62
     3
 10
718.40000000000009
 20
77.0
 30
0.0
 11
718.00000999999975
 21
77.0
 31
0.0
  0
ENDSEC
  0
EOF
