  0
SECTION
  2
HEADER
  9
$ACADVER
  1
AC1009
  9
$DWGCODEPAGE
  3
dos932
  9
$INSBASE
 10
0.0
 20
0.0
 30
0.0
  9
$EXTMIN
 10
-983.41368014623185
 20
-368.82017863544212
 30
-0.0030516297567118
  9
$EXTMAX
 10
1358.1985593170359
 20
941.11634143758056
 30
0.0007631257219032
  9
$LIMMIN
 10
-2970.0
 20
-2100.0
  9
$LIMMAX
 10
2970.0
 20
2100.0
  9
$ORTHOMODE
 70
     1
  9
$REGENMODE
 70
     1
  9
$FILLMODE
 70
     1
  9
$QTEXTMODE
 70
     0
  9
$MIRRTEXT
 70
     0
  9
$LTSCALE
 40
20.0
  9
$ATTMODE
 70
     1
  9
$TEXTSIZE
 40
64.0
  9
$TRACEWID
 40
0.05
  9
$TEXTSTYLE
  7
STANDARD
  9
$CLAYER
  8
SIZE
  9
$CELTYPE
  6
CONTINUOUS
  9
$CECOLOR
 62
     7
  9
$DIMSCALE
 40
1.0
  9
$DIMASZ
 40
12.0
  9
$DIMEXO
 40
20.0
  9
$DIMDLI
 40
200.0
  9
$DIMRND
 40
0.0
  9
$DIMDLE
 40
0.0
  9
$DIMEXE
 40
20.0
  9
$DIMTP
 40
0.0
  9
$DIMTM
 40
0.0
  9
$DIMTXT
 40
64.0
  9
$DIMCEN
 40
0.09
  9
$DIMTSZ
 40
0.0
  9
$DIMTOL
 70
     0
  9
$DIMLIM
 70
     0
  9
$DIMTIH
 70
     0
  9
$DIMTOH
 70
     0
  9
$DIMSE1
 70
     0
  9
$DIMSE2
 70
     0
  9
$DIMTAD
 70
     1
  9
$DIMZIN
 70
     8
  9
$DIMBLK
  1

  9
$DIMASO
 70
     1
  9
$DIMSHO
 70
     0
  9
$DIMPOST
  1

  9
$DIMAPOST
  1

  9
$DIMALT
 70
     0
  9
$DIMALTD
 70
     2
  9
$DIMALTF
 40
25.399999999999999
  9
$DIMLFAC
 40
1.0
  9
$DIMTOFL
 70
     1
  9
$DIMTVP
 40
0.0
  9
$DIMTIX
 70
     1
  9
$DIMSOXD
 70
     0
  9
$DIMSAH
 70
     0
  9
$DIMBLK1
  1

  9
$DIMBLK2
  1

  9
$DIMSTYLE
  2
STANDARD
  9
$DIMCLRD
 70
     7
  9
$DIMCLRE
 70
     7
  9
$DIMCLRT
 70
     7
  9
$DIMTFAC
 40
1.0
  9
$DIMGAP
 40
25.0
  9
$LUNITS
 70
     2
  9
$LUPREC
 70
     4
  9
$SKETCHINC
 40
0.1
  9
$FILLETRAD
 40
3.0
  9
$AUNITS
 70
     1
  9
$AUPREC
 70
     3
  9
$MENU
  1
ACAD
  9
$ELEVATION
 40
0.0
  9
$PELEVATION
 40
0.0
  9
$THICKNESS
 40
0.0
  9
$LIMCHECK
 70
     0
  9
$CHAMFERA
 40
0.0
  9
$CHAMFERB
 40
0.0
  9
$SKPOLY
 70
     0
  9
$TDCREATE
 40
2453019.62301037
  9
$TDUPDATE
 40
2459017.56599522
  9
$TDINDWG
 40
1.7289164468
  9
$TDUSRTIMER
 40
1.7289164468
  9
$USRTIMER
 70
     1
  9
$ANGBASE
 50
0.0
  9
$ANGDIR
 70
     0
  9
$PDMODE
 70
     3
  9
$PDSIZE
 40
-2.0
  9
$PLINEWID
 40
0.0
  9
$SPLFRAME
 70
     0
  9
$SPLINETYPE
 70
     6
  9
$SPLINESEGS
 70
     8
  9
$SURFTAB1
 70
     6
  9
$SURFTAB2
 70
     6
  9
$SURFTYPE
 70
     6
  9
$SURFU
 70
     6
  9
$SURFV
 70
     6
  9
$UCSNAME
  2

  9
$UCSORG
 10
0.0
 20
0.0
 30
0.0
  9
$UCSXDIR
 10
1.0
 20
0.0
 30
0.0
  9
$UCSYDIR
 10
0.0
 20
1.0
 30
0.0
  9
$PUCSNAME
  2

  9
$PUCSORG
 10
0.0
 20
0.0
 30
0.0
  9
$PUCSXDIR
 10
1.0
 20
0.0
 30
0.0
  9
$PUCSYDIR
 10
0.0
 20
1.0
 30
0.0
  9
$USERI1
 70
     0
  9
$USERI2
 70
     0
  9
$USERI3
 70
     0
  9
$USERI4
 70
     0
  9
$USERI5
 70
     0
  9
$USERR1
 40
20.0
  9
$USERR2
 40
0.0
  9
$USERR3
 40
0.0
  9
$USERR4
 40
0.0
  9
$USERR5
 40
0.0
  9
$WORLDVIEW
 70
     1
  9
$SHADEDGE
 70
     3
  9
$SHADEDIF
 70
    70
  9
$TILEMODE
 70
     1
  9
$MAXACTVP
 70
    48
  9
$PINSBASE
 10
0.0
 20
0.0
 30
0.0
  9
$PLIMCHECK
 70
     0
  9
$PEXTMIN
 10
-100000000000000000000.0
 20
-100000000000000000000.0
 30
-100000000000000000000.0
  9
$PEXTMAX
 10
100000000000000000000.0
 20
100000000000000000000.0
 30
100000000000000000000.0
  9
$PLIMMIN
 10
0.0
 20
0.0
  9
$PLIMMAX
 10
12.0
 20
9.0
  9
$UNITMODE
 70
     0
  9
$VISRETAIN
 70
     0
  9
$PLINEGEN
 70
     0
  9
$PSLTSCALE
 70
     0
  9
$TREEDEPTH
 70
  3020
  9
$ATTDIA
 70
     0
  9
$ATTREQ
 70
     1
  9
$BLIPMODE
 70
     1
  9
$COORDS
 70
     1
  9
$DRAGMODE
 70
     2
  9
$OSMODE
 70
     0
  9
$HANDLING
 70
     0
  9
$HANDSEED
  5
F3AA
  0
ENDSEC
  0
SECTION
  2
TABLES
  0
TABLE
  2
LTYPE
 70
     2
  0
LTYPE
  2
CONTINUOUS
 70
     0
  3
実線
 72
    65
 73
     0
 40
0.0
  0
LTYPE
  2
DASHDOT
 70
     0
  3
____ _ ____ _ ____ _ ____ _ ____ _ ____ _ ____
 72
    65
 73
     4
 40
5.5
 49
4.0
 49
-0.6
 49
0.3
 49
-0.6
  0
ENDTAB
  0
TABLE
  2
LAYER
 70
    12
  0
LAYER
  2
0
 70
     0
 62
     7
  6
CONTINUOUS
  0
LAYER
  2
BASIS
 70
     0
 62
     6
  6
DASHDOT
  0
LAYER
  2
OUTLINE
 70
     0
 62
     3
  6
CONTINUOUS
  0
LAYER
  2
DETAIL
 70
     0
 62
     5
  6
CONTINUOUS
  0
LAYER
  2
SIZE
 70
     0
 62
    30
  6
CONTINUOUS
  0
LAYER
  2
ARRANGE
 70
     0
 62
     1
  6
CONTINUOUS
  0
LAYER
  2
ETC
 70
     0
 62
    61
  6
CONTINUOUS
  0
LAYER
  2
FIX
 70
     0
 62
    11
  6
CONTINUOUS
  0
LAYER
  2
NOTE
 70
     0
 62
     4
  6
CONTINUOUS
  0
LAYER
  2
DEFPOINTS
 70
    64
 62
     7
  6
CONTINUOUS
  0
LAYER
  2
SERVICESPACE
 70
    64
 62
     2
  6
DASHDOT
  0
LAYER
  2
SYMBOLLINE
 70
    64
 62
    15
  6
CONTINUOUS
  0
ENDTAB
  0
TABLE
  2
STYLE
 70
     1
  0
STYLE
  2
STANDARD
 70
     0
 40
64.0
 41
0.9
 50
0.0
 71
     0
 42
64.0
  3
SIMPLEX.shx
  4
BIGFONT.shx
  0
ENDTAB
  0
TABLE
  2
APPID
 70
    19
  0
APPID
  2
ACAD
 70
     0
  0
APPID
  2
AUTOCAD_POSTSCRIPT_FIGURE
 70
     0
  0
APPID
  2
ACAD_EXEMPT_FROM_CAD_STANDARDS
 70
     0
  0
APPID
  2
ACAD_PSEXT
 70
     0
  0
APPID
  2
ACAUTHENVIRON
 70
     0
  0
APPID
  2
GENIUS_GENOENT_13
 70
     0
  0
APPID
  2
GENIUS_GENCFG_13
 70
     0
  0
APPID
  2
GENIUS_GENCFG0_13
 70
     0
  0
APPID
  2
GENIUS_GENCFG1_13
 70
     0
  0
APPID
  2
GENIUS_GENCFG2_13
 70
     0
  0
APPID
  2
GENIUS_GENCFG3_13
 70
     0
  0
APPID
  2
GENIUS_GENCFG4_13
 70
     0
  0
APPID
  2
GENIUS_GEVCFG0_13
 70
     0
  0
APPID
  2
CONTENTBLOCKICON
 70
     0
  0
APPID
  2
CONTENTBLOCKDESCRIPTION
 70
     0
  0
APPID
  2
ACAD_NAV_VCDISPLAY
 70
     0
  0
APPID
  2
ACAD_MLEADERVER
 70
     0
  0
APPID
  2
ACDBDYNAMICBLOCKTRUENAME
 70
     0
  0
APPID
  2
ACDBDYNAMICBLOCKGUID
 70
     0
  0
ENDTAB
  0
TABLE
  2
DIMSTYLE
 70
     1
  0
DIMSTYLE
  2
STANDARD
 70
     0
  3

  4

  5
_ORIGIN
  6

  7

 40
1.0
 41
12.0
 42
20.0
 43
200.0
 44
20.0
 45
0.0
 46
0.0
 47
0.0
 48
0.0
140
64.0
141
0.09
142
0.0
143
25.399999999999999
144
1.0
145
0.0
146
1.0
147
25.0
 71
     0
 72
     0
 73
     0
 74
     0
 75
     0
 76
     0
 77
     1
 78
     8
170
     0
171
     2
172
     1
173
     0
174
     1
175
     0
176
     7
177
     7
178
     7
  0
ENDTAB
  0
TABLE
  2
VIEW
 70
     1
  0
VIEW
  2
ALL
 70
     0
 40
4282.6198079999986
 10
0.0
 20
41.309904000000003
 41
5940.0
 11
0.0
 21
0.0
 31
1.0
 12
0.0
 22
0.0
 32
0.0
 42
50.0
 43
0.0
 44
0.0
 50
0.0
 71
     0
  0
ENDTAB
  0
TABLE
  2
UCS
 70
     0
  0
ENDTAB
  0
TABLE
  2
VPORT
 70
     1
  0
VPORT
  2
*ACTIVE
 70
     0
 10
0.0
 20
0.0
 11
1.0
 21
1.0
 12
187.392439585402
 22
286.14808140106919
 13
0.0
 23
0.0
 14
1.0
 24
1.0
 15
0.0
 25
0.0
 16
0.0
 26
0.0
 36
1.0
 17
0.0
 27
0.0
 37
0.0
 40
1344.8399553389229
 41
1.747787610619469
 42
50.0
 43
0.0
 44
0.0
 50
0.0
 51
0.0
 71
     0
 72
  1000
 73
     1
 74
     3
 75
     0
 76
     0
 77
     0
 78
     0
  0
ENDTAB
  0
ENDSEC
  0
SECTION
  2
BLOCKS
  0
BLOCK
  8
0
  2
_ORIGIN
 70
     0
 10
0.0
 20
0.0
 30
0.0
  3
_ORIGIN
  1
_ORIGIN
  0
CIRCLE
  8
0
  6
CONTINUOUS
 62
     7
 10
0.0
 20
0.0
 30
0.0
 40
0.5
  0
LINE
  8
0
  6
CONTINUOUS
 62
     7
 10
0.0
 20
0.0
 30
0.0
 11
-1.0
 21
0.0
 31
0.0
  0
ENDBLK
  8
0
  0
ENDSEC
  0
SECTION
  2
ENTITIES
  0
TEXT
  8
ETC
  6
CONTINUOUS
 62
    61
 10
509.55114099999992
 20
876.971317
 30
0.0
 40
64.0
  1
APF-2810YSB2_1
 41
0.9
  0
TEXT
  8
ETC
  6
CONTINUOUS
 62
    61
 10
505.36514699999998
 20
759.01600700000006
 30
0.0
 40
64.0
  1
産業扇
 41
0.9
  0
TEXT
  8
ETC
  6
CONTINUOUS
 62
    61
 10
555.97264900000027
 20
652.09507099999996
 30
0.0
 40
40.0
  1
APF-2810YSB2
 41
0.9
  0
CIRCLE
  8
ARRANGE
  6
CONTINUOUS
 62
     1
 10
0.0
 20
0.0
 30
0.0
 40
40.0
  0
POINT
  8
ARRANGE
  6
CONTINUOUS
 62
     1
 10
0.0
 20
0.0
 30
0.0
  0
LINE
  8
BASIS
  6
DASHDOT
 62
     6
 10
0.0
 20
-221.83489800000009
 30
0.0
 11
0.0
 21
52.567836
 31
0.0
  0
LINE
  8
NOTE
  6
CONTINUOUS
 62
     4
 10
511.5
 20
-17.700000000000049
 30
0.0
 11
683.26324100000011
 21
249.36893900000001
 31
0.0
  0
LINE
  8
NOTE
  6
CONTINUOUS
 62
     4
 10
683.26324100000011
 20
249.36893900000001
 30
0.0
 11
1358.071042
 21
249.36893900000001
 31
0.0
  0
TEXT
  8
NOTE
  6
CONTINUOUS
 62
     4
 10
712.1885299999999
 20
267.17005899999998
 30
0.0
 40
64.0
  1
AH 4-φ10×16
 41
0.9
  0
LINE
  8
NOTE
  6
CONTINUOUS
 62
     4
 10
-511.5
 20
-112.6999949999999
 30
0.0
 11
-511.5
 21
-82.699994999999944
 31
0.0
  0
ARC
  8
FIX
  6
CONTINUOUS
 62
    11
 10
-511.5
 20
-100.6999949999999
 30
0.0
 40
4.9999949999999993
 50
180.0
 51
0.0
  0
ARC
  8
FIX
  6
CONTINUOUS
 62
    11
 10
-511.5
 20
-94.699994999999944
 30
0.0
 40
4.9999949999999993
 50
0.0
 51
180.0
  0
LINE
  8
NOTE
  6
CONTINUOUS
 62
     4
 10
-522.50000999999975
 20
-97.699994999999944
 30
0.0
 11
-500.50000499999987
 21
-97.699994999999944
 31
0.0
  0
LINE
  8
FIX
  6
CONTINUOUS
 62
    11
 10
-516.50000999999975
 20
-100.6999949999999
 30
0.0
 11
-516.50000999999975
 21
-94.699994999999944
 31
0.0
  0
LINE
  8
FIX
  6
CONTINUOUS
 62
    11
 10
-506.50000499999987
 20
-100.6999949999999
 30
0.0
 11
-506.50000499999987
 21
-94.699994999999944
 31
0.0
  0
LINE
  8
FIX
  6
CONTINUOUS
 62
    11
 10
-506.50000499999987
 20
-20.700000000000049
 30
0.0
 11
-506.50000499999987
 21
-14.700000000000051
 31
0.0
  0
LINE
  8
FIX
  6
CONTINUOUS
 62
    11
 10
-516.50000999999975
 20
-20.700000000000049
 30
0.0
 11
-516.50000999999975
 21
-14.700000000000051
 31
0.0
  0
LINE
  8
NOTE
  6
CONTINUOUS
 62
     4
 10
-511.5
 20
-32.700000000000053
 30
0.0
 11
-511.5
 21
-2.700000000000045
 31
0.0
  0
ARC
  8
FIX
  6
CONTINUOUS
 62
    11
 10
-511.5
 20
-20.700000000000049
 30
0.0
 40
4.9999949999999993
 50
180.0
 51
0.0
  0
ARC
  8
FIX
  6
CONTINUOUS
 62
    11
 10
-511.5
 20
-14.700000000000051
 30
0.0
 40
4.9999949999999993
 50
0.0
 51
180.0
  0
LINE
  8
NOTE
  6
CONTINUOUS
 62
     4
 10
-522.50000999999975
 20
-17.700000000000049
 30
0.0
 11
-500.50000499999987
 21
-17.700000000000049
 31
0.0
  0
LINE
  8
NOTE
  6
CONTINUOUS
 62
     4
 10
511.5
 20
-112.6999949999999
 30
0.0
 11
511.5
 21
-82.699994999999944
 31
0.0
  0
ARC
  8
FIX
  6
CONTINUOUS
 62
    11
 10
511.5
 20
-100.6999949999999
 30
0.0
 40
4.9999949999999993
 50
180.0
 51
0.0
  0
ARC
  8
FIX
  6
CONTINUOUS
 62
    11
 10
511.5
 20
-94.699994999999944
 30
0.0
 40
4.9999949999999993
 50
0.0
 51
180.0
  0
LINE
  8
NOTE
  6
CONTINUOUS
 62
     4
 10
522.49999500000013
 20
-97.699994999999944
 30
0.0
 11
500.49999000000031
 21
-97.699994999999944
 31
0.0
  0
LINE
  8
FIX
  6
CONTINUOUS
 62
    11
 10
506.49999000000031
 20
-100.6999949999999
 30
0.0
 11
506.49999000000031
 21
-94.699994999999944
 31
0.0
  0
LINE
  8
FIX
  6
CONTINUOUS
 62
    11
 10
516.49999500000013
 20
-100.6999949999999
 30
0.0
 11
516.49999500000013
 21
-94.699994999999944
 31
0.0
  0
LINE
  8
FIX
  6
CONTINUOUS
 62
    11
 10
516.49999500000013
 20
-20.700000000000049
 30
0.0
 11
516.49999500000013
 21
-14.700000000000051
 31
0.0
  0
LINE
  8
FIX
  6
CONTINUOUS
 62
    11
 10
506.49999000000031
 20
-20.700000000000049
 30
0.0
 11
506.49999000000031
 21
-14.700000000000051
 31
0.0
  0
LINE
  8
NOTE
  6
CONTINUOUS
 62
     4
 10
511.5
 20
-32.700000000000053
 30
0.0
 11
511.5
 21
-2.700000000000045
 31
0.0
  0
ARC
  8
FIX
  6
CONTINUOUS
 62
    11
 10
511.5
 20
-20.700000000000049
 30
0.0
 40
4.9999949999999993
 50
180.0
 51
0.0
  0
ARC
  8
FIX
  6
CONTINUOUS
 62
    11
 10
511.5
 20
-14.700000000000051
 30
0.0
 40
4.9999949999999993
 50
0.0
 51
180.0
  0
LINE
  8
NOTE
  6
CONTINUOUS
 62
     4
 10
522.49999500000013
 20
-17.700000000000049
 30
0.0
 11
500.49999000000031
 21
-17.700000000000049
 31
0.0
  0
LINE
  8
SIZE
  6
CONTINUOUS
 62
    30
 10
-511.5
 20
17.300000000000011
 30
0.0
 11
-511.5
 21
393.17375700000002
 31
0.0
  0
LINE
  8
SIZE
  6
CONTINUOUS
 62
    30
 10
511.5
 20
17.300000000000011
 30
0.0
 11
511.5
 21
393.17375700000002
 31
0.0
  0
LINE
  8
SIZE
  6
CONTINUOUS
 62
    30
 10
-499.5
 20
373.17375700000002
 30
0.0
 11
499.5
 21
373.17375700000002
 31
0.0
  0
CIRCLE
  8
SIZE
  6
CONTINUOUS
 62
    30
 10
-511.5
 20
373.17375700000002
 30
0.0
 40
6.0
  0
LINE
  8
SIZE
  6
CONTINUOUS
 62
    30
 10
-511.5
 20
373.17375700000002
 30
0.0
 11
-499.5
 21
373.17375700000002
 31
0.0
  0
CIRCLE
  8
SIZE
  6
CONTINUOUS
 62
    30
 10
511.5
 20
373.17375700000002
 30
0.0
 40
6.0
  0
LINE
  8
SIZE
  6
CONTINUOUS
 62
    30
 10
511.5
 20
373.17375700000002
 30
0.0
 11
499.5
 21
373.17375700000002
 31
0.0
  0
TEXT
  8
SIZE
  6
CONTINUOUS
 62
    30
 10
-323.10857942857149
 20
398.17375700000002
 30
0.0
 40
64.0
  1
1023（取付ピッチ）
 41
0.9
 72
     1
 11
-0.0000079999999798
 21
398.17375700000002
 31
0.0
  0
LINE
  8
SIZE
  6
CONTINUOUS
 62
    30
 10
-475.00000999999969
 20
10.000009999999969
 30
0.0
 11
-475.00000999999969
 21
153.17375699999999
 31
0.0
  0
LINE
  8
SIZE
  6
CONTINUOUS
 62
    30
 10
473.0
 20
10.000009999999969
 30
0.0
 11
473.0
 21
153.17375699999999
 31
0.0
  0
LINE
  8
SIZE
  6
CONTINUOUS
 62
    30
 10
-463.00000999999969
 20
133.17375699999999
 30
0.0
 11
461.0
 21
133.17375699999999
 31
0.0
  0
CIRCLE
  8
SIZE
  6
CONTINUOUS
 62
    30
 10
-475.00000999999969
 20
133.17375699999999
 30
0.0
 40
6.0
  0
LINE
  8
SIZE
  6
CONTINUOUS
 62
    30
 10
-475.00000999999969
 20
133.17375699999999
 30
0.0
 11
-463.00000999999969
 21
133.17375699999999
 31
0.0
  0
CIRCLE
  8
SIZE
  6
CONTINUOUS
 62
    30
 10
473.0
 20
133.17375699999999
 30
0.0
 40
6.0
  0
LINE
  8
SIZE
  6
CONTINUOUS
 62
    30
 10
473.0
 20
133.17375699999999
 30
0.0
 11
461.0
 21
133.17375699999999
 31
0.0
  0
TEXT
  8
SIZE
  6
CONTINUOUS
 62
    30
 10
-75.057147857142724
 20
158.17375699999999
 30
0.0
 40
64.0
  1
948
 41
0.9
 72
     1
 11
-1.0000049999998739
 21
158.17375699999999
 31
0.0
  0
LINE
  8
SIZE
  6
CONTINUOUS
 62
    30
 10
-490.00000499999987
 20
17.0
 30
0.0
 11
-490.00000499999987
 21
273.17375700000002
 31
0.0
  0
LINE
  8
SIZE
  6
CONTINUOUS
 62
    30
 10
489.99999000000031
 20
17.400004999999961
 30
0.0
 11
489.99999000000031
 21
273.17375700000002
 31
0.0
  0
LINE
  8
SIZE
  6
CONTINUOUS
 62
    30
 10
-478.00000499999987
 20
253.17375699999999
 30
0.0
 11
477.99999000000031
 21
253.17375699999999
 31
0.0
  0
CIRCLE
  8
SIZE
  6
CONTINUOUS
 62
    30
 10
-490.00000499999987
 20
253.17375699999999
 30
0.0
 40
6.0
  0
LINE
  8
SIZE
  6
CONTINUOUS
 62
    30
 10
-490.00000499999987
 20
253.17375699999999
 30
0.0
 11
-478.00000499999987
 21
253.17375699999999
 31
0.0
  0
CIRCLE
  8
SIZE
  6
CONTINUOUS
 62
    30
 10
489.99999000000031
 20
253.17375699999999
 30
0.0
 40
6.0
  0
LINE
  8
SIZE
  6
CONTINUOUS
 62
    30
 10
489.99999000000031
 20
253.17375699999999
 30
0.0
 11
477.99999000000031
 21
253.17375699999999
 31
0.0
  0
TEXT
  8
SIZE
  6
CONTINUOUS
 62
    30
 10
-74.05715085714283
 20
278.17375700000002
 30
0.0
 40
64.0
  1
980
 41
0.9
 72
     1
 11
-0.0000079999999798
 21
278.17375700000002
 31
0.0
  0
LINE
  8
SIZE
  6
CONTINUOUS
 62
    30
 10
-523.5
 20
12.300005000000001
 30
0.0
 11
-523.5
 21
513.17375700000002
 31
0.0
  0
LINE
  8
SIZE
  6
CONTINUOUS
 62
    30
 10
523.5
 20
12.300005000000001
 30
0.0
 11
523.5
 21
513.17375700000002
 31
0.0
  0
LINE
  8
SIZE
  6
CONTINUOUS
 62
    30
 10
-511.5
 20
493.17375700000002
 30
0.0
 11
511.5
 21
493.17375700000002
 31
0.0
  0
CIRCLE
  8
SIZE
  6
CONTINUOUS
 62
    30
 10
-523.5
 20
493.17375700000002
 30
0.0
 40
6.0
  0
LINE
  8
SIZE
  6
CONTINUOUS
 62
    30
 10
-523.5
 20
493.17375700000002
 30
0.0
 11
-511.5
 21
493.17375700000002
 31
0.0
  0
CIRCLE
  8
SIZE
  6
CONTINUOUS
 62
    30
 10
523.5
 20
493.17375700000002
 30
0.0
 40
6.0
  0
LINE
  8
SIZE
  6
CONTINUOUS
 62
    30
 10
523.5
 20
493.17375700000002
 30
0.0
 11
511.5
 21
493.17375700000002
 31
0.0
  0
TEXT
  8
SIZE
  6
CONTINUOUS
 62
    30
 10
-96.0
 20
518.17375700000002
 30
0.0
 40
64.0
  1
1047
 41
0.9
 72
     1
 11
0.0
 21
518.17375700000002
 31
0.0
  0
LINE
  8
SIZE
  6
CONTINUOUS
 62
    30
 10
542.49999500000013
 20
-17.700000000000049
 30
0.0
 11
751.03147499999977
 21
-17.700000000000049
 31
0.0
  0
LINE
  8
SIZE
  6
CONTINUOUS
 62
    30
 10
542.49999500000013
 20
-97.699994999999944
 30
0.0
 11
751.03147499999977
 21
-97.699994999999944
 31
0.0
  0
LINE
  8
SIZE
  6
CONTINUOUS
 62
    30
 10
731.03147499999977
 20
-29.700000000000049
 30
0.0
 11
731.03147499999977
 21
-85.699994999999944
 31
0.0
  0
LINE
  8
SIZE
  6
CONTINUOUS
 62
    30
 10
731.03147499999977
 20
-97.699994999999944
 30
0.0
 11
731.03147499999977
 21
-324.58570900000001
 31
0.0
  0
CIRCLE
  8
SIZE
  6
CONTINUOUS
 62
    30
 10
731.03147499999977
 20
-17.700000000000049
 30
0.0
 40
6.0
  0
LINE
  8
SIZE
  6
CONTINUOUS
 62
    30
 10
731.03147499999977
 20
-17.700000000000049
 30
0.0
 11
731.03147499999977
 21
-29.700000000000049
 31
0.0
  0
CIRCLE
  8
SIZE
  6
CONTINUOUS
 62
    30
 10
731.03147499999977
 20
-97.699994999999944
 30
0.0
 40
6.0
  0
LINE
  8
SIZE
  6
CONTINUOUS
 62
    30
 10
731.03147499999977
 20
-97.699994999999944
 30
0.0
 11
731.03147499999977
 21
-85.699994999999944
 31
0.0
  0
TEXT
  8
SIZE
  6
CONTINUOUS
 62
    30
 10
706.03147499999977
 20
-299.58570942857142
 30
0.0
 40
64.0
  1
80
 50
90.0
 41
0.9
 72
     1
 11
706.03147499999977
 21
-252.95713799999999
 31
0.0
  0
LINE
  8
SIZE
  6
CONTINUOUS
 62
    30
 10
542.49999500000013
 20
-17.700000000000049
 30
0.0
 11
751.03147499999977
 21
-17.700000000000049
 31
0.0
  0
LINE
  8
SIZE
  6
CONTINUOUS
 62
    30
 10
507.99999500000013
 20
0.0
 30
0.0
 11
751.03147499999977
 21
0.0
 31
0.0
  0
LINE
  8
SIZE
  6
CONTINUOUS
 62
    30
 10
731.03147499999977
 20
-29.700000000000049
 30
0.0
 11
731.03147499999977
 21
-41.700000000000053
 31
0.0
  0
LINE
  8
SIZE
  6
CONTINUOUS
 62
    30
 10
731.03147499999977
 20
12.0
 30
0.0
 11
731.03147499999977
 21
156.28571400000001
 31
0.0
  0
LINE
  8
SIZE
  6
CONTINUOUS
 62
    30
 10
731.03147499999977
 20
-17.700000000000049
 30
0.0
 11
731.03147499999977
 21
0.0
 31
0.0
  0
CIRCLE
  8
SIZE
  6
CONTINUOUS
 62
    30
 10
731.03147499999977
 20
-17.700000000000049
 30
0.0
 40
6.0
  0
LINE
  8
SIZE
  6
CONTINUOUS
 62
    30
 10
731.03147499999977
 20
-17.700000000000049
 30
0.0
 11
731.03147499999977
 21
-29.700000000000049
 31
0.0
  0
CIRCLE
  8
SIZE
  6
CONTINUOUS
 62
    30
 10
731.03147499999977
 20
0.0
 30
0.0
 40
6.0
  0
LINE
  8
SIZE
  6
CONTINUOUS
 62
    30
 10
731.03147499999977
 20
0.0
 30
0.0
 11
731.03147499999977
 21
12.0
 31
0.0
  0
TEXT
  8
SIZE
  6
CONTINUOUS
 62
    30
 10
706.03147499999977
 20
48.999999857142853
 30
0.0
 40
64.0
  1
18
 50
90.0
 41
0.9
 72
     1
 11
706.03147499999977
 21
90.142856999999992
 31
0.0
  0
LINE
  8
SIZE
  6
CONTINUOUS
 62
    30
 10
507.99999500000013
 20
0.0
 30
0.0
 11
871.03147499999977
 21
0.0
 31
0.0
  0
LINE
  8
SIZE
  6
CONTINUOUS
 62
    30
 10
329.32388399999991
 20
-164.39999499999999
 30
0.0
 11
871.03147499999977
 21
-164.39999499999999
 31
0.0
  0
LINE
  8
SIZE
  6
CONTINUOUS
 62
    30
 10
851.03147499999977
 20
-12.0
 30
0.0
 11
851.03147499999977
 21
-152.39999499999999
 31
0.0
  0
CIRCLE
  8
SIZE
  6
CONTINUOUS
 62
    30
 10
851.03147499999977
 20
0.0
 30
0.0
 40
6.0
  0
LINE
  8
SIZE
  6
CONTINUOUS
 62
    30
 10
851.03147499999977
 20
0.0
 30
0.0
 11
851.03147499999977
 21
-12.0
 31
0.0
  0
CIRCLE
  8
SIZE
  6
CONTINUOUS
 62
    30
 10
851.03147499999977
 20
-164.39999499999999
 30
0.0
 40
6.0
  0
LINE
  8
SIZE
  6
CONTINUOUS
 62
    30
 10
851.03147499999977
 20
-164.39999499999999
 30
0.0
 11
851.03147499999977
 21
-152.39999499999999
 31
0.0
  0
TEXT
  8
SIZE
  6
CONTINUOUS
 62
    30
 10
826.03147499999977
 20
-152.14285414285709
 30
0.0
 40
64.0
  1
164
 50
90.0
 41
0.9
 72
     1
 11
826.03147499999977
 21
-82.199996999999939
 31
0.0
  0
LINE
  8
SIZE
  6
CONTINUOUS
 62
    30
 10
-495.00000999999969
 20
-9.9999900000000252
 30
0.0
 11
-646.35648899999978
 21
-9.9999900000000252
 31
0.0
  0
LINE
  8
SIZE
  6
CONTINUOUS
 62
    30
 10
-495.00000999999969
 20
-39.999990000000032
 30
0.0
 11
-646.35648899999978
 21
-39.999990000000032
 31
0.0
  0
LINE
  8
SIZE
  6
CONTINUOUS
 62
    30
 10
-626.35648899999978
 20
-51.999990000000032
 30
0.0
 11
-626.35648899999978
 21
-63.999990000000032
 31
0.0
  0
LINE
  8
SIZE
  6
CONTINUOUS
 62
    30
 10
-626.35648899999978
 20
2.0000099999999752
 30
0.0
 11
-626.35648899999978
 21
157.25715299999999
 31
0.0
  0
LINE
  8
SIZE
  6
CONTINUOUS
 62
    30
 10
-626.35648899999978
 20
-39.999990000000032
 30
0.0
 11
-626.35648899999978
 21
-9.9999900000000252
 31
0.0
  0
CIRCLE
  8
SIZE
  6
CONTINUOUS
 62
    30
 10
-626.35648899999978
 20
-39.999990000000032
 30
0.0
 40
6.0
  0
LINE
  8
SIZE
  6
CONTINUOUS
 62
    30
 10
-626.35648899999978
 20
-39.999990000000032
 30
0.0
 11
-626.35648899999978
 21
-51.999990000000032
 31
0.0
  0
CIRCLE
  8
SIZE
  6
CONTINUOUS
 62
    30
 10
-626.35648899999978
 20
-9.9999900000000252
 30
0.0
 40
6.0
  0
LINE
  8
SIZE
  6
CONTINUOUS
 62
    30
 10
-626.35648899999978
 20
-9.9999900000000252
 30
0.0
 11
-626.35648899999978
 21
2.0000099999999752
 31
0.0
  0
TEXT
  8
SIZE
  6
CONTINUOUS
 62
    30
 10
-651.35648899999978
 20
39.000009571428578
 30
0.0
 40
64.0
  1
30
 50
90.0
 41
0.9
 72
     1
 11
-651.35648899999978
 21
85.628580999999997
 31
0.0
  0
LINE
  8
SIZE
  6
CONTINUOUS
 62
    30
 10
-508.00000999999969
 20
-49.999995000000013
 30
0.0
 11
-766.35648899999978
 21
-49.999995000000013
 31
0.0
  0
LINE
  8
SIZE
  6
CONTINUOUS
 62
    30
 10
-508.00000999999969
 20
0.0
 30
0.0
 11
-766.35648899999978
 21
0.0
 31
0.0
  0
LINE
  8
SIZE
  6
CONTINUOUS
 62
    30
 10
-746.35648899999978
 20
-61.999995000000013
 30
0.0
 11
-746.35648899999978
 21
-73.999995000000013
 31
0.0
  0
LINE
  8
SIZE
  6
CONTINUOUS
 62
    30
 10
-746.35648899999978
 20
12.0
 30
0.0
 11
-746.35648899999978
 21
24.0
 31
0.0
  0
LINE
  8
SIZE
  6
CONTINUOUS
 62
    30
 10
-746.35648899999978
 20
-49.999995000000013
 30
0.0
 11
-746.35648899999978
 21
0.0
 31
0.0
  0
CIRCLE
  8
SIZE
  6
CONTINUOUS
 62
    30
 10
-746.35648899999978
 20
-49.999995000000013
 30
0.0
 40
6.0
  0
LINE
  8
SIZE
  6
CONTINUOUS
 62
    30
 10
-746.35648899999978
 20
-49.999995000000013
 30
0.0
 11
-746.35648899999978
 21
-61.999995000000013
 31
0.0
  0
CIRCLE
  8
SIZE
  6
CONTINUOUS
 62
    30
 10
-746.35648899999978
 20
0.0
 30
0.0
 40
6.0
  0
LINE
  8
SIZE
  6
CONTINUOUS
 62
    30
 10
-746.35648899999978
 20
0.0
 30
0.0
 11
-746.35648899999978
 21
12.0
 31
0.0
  0
TEXT
  8
SIZE
  6
CONTINUOUS
 62
    30
 10
-771.35648899999978
 20
-71.628568428571427
 30
0.0
 40
64.0
  1
50
 50
90.0
 41
0.9
 72
     1
 11
-771.35648899999978
 21
-24.999997000000011
 31
0.0
  0
LINE
  8
NOTE
  6
CONTINUOUS
 62
     4
 10
511.49999200000002
 20
-17.700000000000049
 30
0.0
 11
537.48918300000014
 21
2.781320999999934
 31
0.0
  0
LINE
  8
NOTE
  6
CONTINUOUS
 62
     4
 10
511.50000300000011
 20
-17.700007000000031
 30
0.0
 11
519.3560480000001
 21
14.443500999999969
 31
0.0
  0
LINE
  8
NOTE
  6
CONTINUOUS
 62
     4
 10
-982.98417699999982
 20
-289.726539
 30
0.0
 11
-264.5839390000001
 21
-289.726539
 31
0.0
  0
TEXT
  8
NOTE
  6
CONTINUOUS
 62
     4
 10
-954.05888699999991
 20
-271.92541899999992
 30
0.0
 40
64.0
  1
隙間防止用クッション
 41
0.9
  0
TEXT
  8
NOTE
  6
CONTINUOUS
 62
     4
 10
-954.05888699999991
 20
-368.52007900000001
 30
0.0
 40
64.0
  1
（厚さ10mm）付
 41
0.9
  0
LINE
  8
NOTE
  6
CONTINUOUS
 62
     4
 10
-264.5839390000001
 20
-289.726539
 30
0.0
 11
-163.37640300000021
 21
-49.999995000000013
 31
0.0
  0
LINE
  8
NOTE
  6
CONTINUOUS
 62
     4
 10
-163.37640300000021
 20
-49.999995000000013
 30
0.0
 11
-163.37640300000021
 21
-69.499333999999976
 31
0.0
  0
LINE
  8
NOTE
  6
CONTINUOUS
 62
     4
 10
-163.37640300000021
 20
-49.999995000000013
 30
0.0
 11
-177.3502060000001
 21
-63.599886999999967
 31
0.0
  0
LINE
  8
DETAIL
  6
CONTINUOUS
 62
     5
 10
487.99999500000013
 20
0.0
 30
0.0
 11
-488.00000999999969
 21
0.0
 31
0.0
  0
LINE
  8
DETAIL
  6
CONTINUOUS
 62
     5
 10
-488.00000999999969
 20
0.0
 30
0.0
 11
487.99999500000013
 21
0.0
 31
0.0
  0
LINE
  8
DETAIL
  6
CONTINUOUS
 62
     5
 10
-488.00000999999969
 20
-115.399995
 30
0.0
 11
487.99999500000013
 21
-115.399995
 31
0.0
  0
LINE
  8
DETAIL
  6
CONTINUOUS
 62
     5
 10
161.94853499999999
 20
-115.399995
 30
0.0
 11
156.25534500000001
 21
-115.399995
 31
0.0
  0
ARC
  8
DETAIL
  6
CONTINUOUS
 62
     5
 10
160.0300950000001
 20
-116.899995
 30
0.0
 40
0.499995
 50
181.1457629999976
 51
270.0
  0
LINE
  8
DETAIL
  6
CONTINUOUS
 62
     5
 10
160.011
 20
-140.94999000000001
 30
0.0
 11
159.4999950000001
 21
-115.399995
 31
0.0
  0
ARC
  8
DETAIL
  6
CONTINUOUS
 62
     5
 10
162.51049499999999
 20
-140.89999499999999
 30
0.0
 40
2.5000049999999998
 50
181.1457629999976
 51
270.0
  0
LINE
  8
DETAIL
  6
CONTINUOUS
 62
     5
 10
159.4999950000001
 20
-115.399995
 30
0.0
 11
329.49999000000031
 21
-115.399995
 31
0.0
  0
LINE
  8
DETAIL
  6
CONTINUOUS
 62
     5
 10
153.99999000000031
 20
-9.9999900000000252
 30
0.0
 11
162.99999000000031
 21
-9.9999900000000252
 31
0.0
  0
LINE
  8
DETAIL
  6
CONTINUOUS
 62
     5
 10
153.99999000000031
 20
-39.999990000000032
 30
0.0
 11
162.99999000000031
 21
-39.999990000000032
 31
0.0
  0
LINE
  8
DETAIL
  6
CONTINUOUS
 62
     5
 10
-488.00000999999969
 20
-49.999995000000013
 30
0.0
 11
487.99999500000013
 21
-49.999995000000013
 31
0.0
  0
LINE
  8
DETAIL
  6
CONTINUOUS
 62
     5
 10
-488.00000999999969
 20
0.0
 30
0.0
 11
487.99999500000013
 21
0.0
 31
0.0
  0
LINE
  8
DETAIL
  6
CONTINUOUS
 62
     5
 10
-488.00000999999969
 20
-115.399995
 30
0.0
 11
487.99999500000013
 21
-115.399995
 31
0.0
  0
LINE
  8
DETAIL
  6
CONTINUOUS
 62
     5
 10
-488.00000999999969
 20
0.0
 30
0.0
 11
487.99999500000013
 21
0.0
 31
0.0
  0
LINE
  8
DETAIL
  6
CONTINUOUS
 62
     5
 10
-159.50000999999969
 20
-115.399995
 30
0.0
 11
-329.50000499999987
 21
-115.399995
 31
0.0
  0
LINE
  8
DETAIL
  6
CONTINUOUS
 62
     5
 10
-162.5105100000001
 20
-143.40000000000001
 30
0.0
 11
-326.48950500000001
 21
-143.40000000000001
 31
0.0
  0
LINE
  8
DETAIL
  6
CONTINUOUS
 62
     5
 10
-260.50000499999987
 20
-152.40000000000001
 30
0.0
 11
-273.5000100000002
 21
-152.40000000000001
 31
0.0
  0
LINE
  8
DETAIL
  6
CONTINUOUS
 62
     5
 10
-303.5000100000002
 20
-148.89999
 30
0.0
 11
-185.5000049999999
 21
-148.89999
 31
0.0
  0
LINE
  8
DETAIL
  6
CONTINUOUS
 62
     5
 10
-304.5
 20
-164.39999499999999
 30
0.0
 11
-184.5
 21
-164.39999499999999
 31
0.0
  0
LINE
  8
DETAIL
  6
CONTINUOUS
 62
     5
 10
-275.0000100000002
 20
-9.9999900000000252
 30
0.0
 11
-266.0000100000002
 21
-9.9999900000000252
 31
0.0
  0
LINE
  8
DETAIL
  6
CONTINUOUS
 62
     5
 10
-275.0000100000002
 20
-39.999990000000032
 30
0.0
 11
-266.0000100000002
 21
-39.999990000000032
 31
0.0
  0
LINE
  8
DETAIL
  6
CONTINUOUS
 62
     5
 10
-488.00000999999969
 20
-115.399995
 30
0.0
 11
-488.00000999999969
 21
0.0
 31
0.0
  0
LINE
  8
DETAIL
  6
CONTINUOUS
 62
     5
 10
-491.20000500000009
 20
-112.6999949999999
 30
0.0
 11
-491.20000500000009
 21
-2.700000000000045
 31
0.0
  0
LINE
  8
DETAIL
  6
CONTINUOUS
 62
     5
 10
-523.5
 20
-107.7
 30
0.0
 11
-523.5
 21
-7.6999949999999444
 31
0.0
  0
LINE
  8
DETAIL
  6
CONTINUOUS
 62
     5
 10
-490.00000499999987
 20
-112.6999949999999
 30
0.0
 11
-490.00000499999987
 21
-2.700000000000045
 31
0.0
  0
LINE
  8
DETAIL
  6
CONTINUOUS
 62
     5
 10
-490.00000499999987
 20
-112.59998999999991
 30
0.0
 11
-490.00000499999987
 21
-2.5999950000000349
 31
0.0
  0
LINE
  8
DETAIL
  6
CONTINUOUS
 62
     5
 10
-488.00000999999969
 20
-115.399995
 30
0.0
 11
-488.00000999999969
 21
0.0
 31
0.0
  0
CIRCLE
  8
DETAIL
  6
CONTINUOUS
 62
     5
 10
-394.5
 20
-57.999990000000032
 30
0.0
 40
4.700024
  0
CIRCLE
  8
DETAIL
  6
CONTINUOUS
 62
     5
 10
-394.5
 20
-57.999990000000032
 30
0.0
 40
4.700024
  0
CIRCLE
  8
DETAIL
  6
CONTINUOUS
 62
     5
 10
-481.00000499999987
 20
-57.999990000000032
 30
0.0
 40
4.700024
  0
LINE
  8
DETAIL
  6
CONTINUOUS
 62
     5
 10
-485.69999999999982
 20
-115.688445
 30
0.0
 11
-476.30000999999987
 21
-115.688445
 31
0.0
  0
LINE
  8
DETAIL
  6
CONTINUOUS
 62
     5
 10
-476.30000999999987
 20
-115.399995
 30
0.0
 11
-485.69999999999982
 21
-115.399995
 31
0.0
  0
ARC
  8
DETAIL
  6
CONTINUOUS
 62
     5
 10
-481.00000499999987
 20
-111.799995
 30
0.0
 40
6.1000050000000003
 50
219.60198300000479
 51
320.39803500000392
  0
ARC
  8
DETAIL
  6
CONTINUOUS
 62
     5
 10
-511.5
 20
-100.6999949999999
 30
0.0
 40
4.9999949999999993
 50
180.0
 51
0.0
  0
LINE
  8
DETAIL
  6
CONTINUOUS
 62
     5
 10
-491.48845100000023
 20
-102.400018
 30
0.0
 11
-491.48845100000023
 21
-92.999972000000071
 31
0.0
  0
LINE
  8
DETAIL
  6
CONTINUOUS
 62
     5
 10
-491.20000500000009
 20
-92.999972000000071
 30
0.0
 11
-491.20000500000009
 21
-102.400018
 31
0.0
  0
ARC
  8
DETAIL
  6
CONTINUOUS
 62
     5
 10
-487.59998700000011
 20
-97.699994999999944
 30
0.0
 40
6.1000310000000004
 50
129.60196500000521
 51
230.3980169999902
  0
LINE
  8
DETAIL
  6
CONTINUOUS
 62
     5
 10
-518.50000499999987
 20
-112.6999949999999
 30
0.0
 11
-490.00000499999987
 21
-112.6999949999999
 31
0.0
  0
LINE
  8
DETAIL
  6
CONTINUOUS
 62
     5
 10
-523.5
 20
-107.7
 30
0.0
 11
-518.50000499999987
 21
-112.6999949999999
 31
0.0
  0
LINE
  8
DETAIL
  6
CONTINUOUS
 62
     5
 10
-490.00000499999987
 20
-112.59998999999991
 30
0.0
 11
-488.00000999999969
 21
-112.59998999999991
 31
0.0
  0
LINE
  8
DETAIL
  6
CONTINUOUS
 62
     5
 10
-488.40000000000009
 20
-113.79998999999999
 30
0.0
 11
-488.00000999999969
 21
-113.79998999999999
 31
0.0
  0
LINE
  8
DETAIL
  6
CONTINUOUS
 62
     5
 10
-488.40000000000009
 20
-114.59999999999999
 30
0.0
 11
-488.00000999999969
 21
-114.59999999999999
 31
0.0
  0
ARC
  8
DETAIL
  6
CONTINUOUS
 62
     5
 10
-488.40000000000009
 20
-112.999995
 30
0.0
 40
1.6000049999999999
 50
180.0
 51
270.0
  0
ARC
  8
DETAIL
  6
CONTINUOUS
 62
     5
 10
-488.40000000000009
 20
-112.999995
 30
0.0
 40
0.799995
 50
180.0
 51
270.0
  0
LINE
  8
DETAIL
  6
CONTINUOUS
 62
     5
 10
-489.20001000000002
 20
-112.999995
 30
0.0
 11
-489.20001000000002
 21
-112.59998999999991
 31
0.0
  0
LINE
  8
DETAIL
  6
CONTINUOUS
 62
     5
 10
-485.69999999999982
 20
-115.399995
 30
0.0
 11
-485.69999999999982
 21
-115.688445
 31
0.0
  0
LINE
  8
DETAIL
  6
CONTINUOUS
 62
     5
 10
-491.20000500000009
 20
-102.400018
 30
0.0
 11
-491.48845100000023
 21
-102.400018
 31
0.0
  0
ARC
  8
DETAIL
  6
CONTINUOUS
 62
     5
 10
-511.5
 20
-94.699994999999944
 30
0.0
 40
4.9999949999999993
 50
0.0
 51
180.0
  0
LINE
  8
DETAIL
  6
CONTINUOUS
 62
     5
 10
-516.50000999999975
 20
-100.6999949999999
 30
0.0
 11
-516.50000999999975
 21
-94.699994999999944
 31
0.0
  0
LINE
  8
DETAIL
  6
CONTINUOUS
 62
     5
 10
-506.50000499999987
 20
-100.6999949999999
 30
0.0
 11
-506.50000499999987
 21
-94.699994999999944
 31
0.0
  0
LINE
  8
DETAIL
  6
CONTINUOUS
 62
     5
 10
-491.20000500000009
 20
-92.999972000000071
 30
0.0
 11
-491.48845100000023
 21
-92.999972000000071
 31
0.0
  0
ARC
  8
DETAIL
  6
CONTINUOUS
 62
     5
 10
-326.48950500000001
 20
-140.89999499999999
 30
0.0
 40
2.5000049999999998
 50
181.1457629999976
 51
270.0
  0
ARC
  8
DETAIL
  6
CONTINUOUS
 62
     5
 10
-299.51960999999977
 20
-141.39999
 30
0.0
 40
1.999995
 50
181.1457629999976
 51
270.0
  0
LINE
  8
DETAIL
  6
CONTINUOUS
 62
     5
 10
-303.5000100000002
 20
-143.40000000000001
 30
0.0
 11
-328.00000499999987
 21
-143.40000000000001
 31
0.0
  0
LINE
  8
DETAIL
  6
CONTINUOUS
 62
     5
 10
-316.00000499999987
 20
-145.39999499999999
 30
0.0
 11
-328.00000499999987
 21
-145.39999499999999
 31
0.0
  0
LINE
  8
DETAIL
  6
CONTINUOUS
 62
     5
 10
-325.20002900000009
 20
-145.68844100000001
 30
0.0
 11
-315.799982
 21
-145.68844100000001
 31
0.0
  0
LINE
  8
DETAIL
  6
CONTINUOUS
 62
     5
 10
-315.799982
 20
-145.39999499999999
 30
0.0
 11
-325.20002900000009
 21
-145.39999499999999
 31
0.0
  0
ARC
  8
DETAIL
  6
CONTINUOUS
 62
     5
 10
-320.50000499999987
 20
-141.79997700000001
 30
0.0
 40
6.1000310000000004
 50
219.60198300000479
 51
320.39803500000392
  0
LINE
  8
DETAIL
  6
CONTINUOUS
 62
     5
 10
-328.00000499999987
 20
-143.40000000000001
 30
0.0
 11
-328.00000499999987
 21
-145.39999499999999
 31
0.0
  0
LINE
  8
DETAIL
  6
CONTINUOUS
 62
     5
 10
-325.20002900000009
 20
-145.39999499999999
 30
0.0
 11
-325.20002900000009
 21
-145.68844100000001
 31
0.0
  0
LINE
  8
DETAIL
  6
CONTINUOUS
 62
     5
 10
-290.50000499999987
 20
-152.40000000000001
 30
0.0
 11
-303.5000100000002
 21
-152.40000000000001
 31
0.0
  0
LINE
  8
DETAIL
  6
CONTINUOUS
 62
     5
 10
-314.50000499999987
 20
-146.89999499999999
 30
0.0
 11
-314.50000499999987
 21
-162.89999499999999
 31
0.0
  0
LINE
  8
DETAIL
  6
CONTINUOUS
 62
     5
 10
-303.5000100000002
 20
-152.40000000000001
 30
0.0
 11
-303.5000100000002
 21
-163.39999
 31
0.0
  0
LINE
  8
DETAIL
  6
CONTINUOUS
 62
     5
 10
-313.00000499999987
 20
-164.39999499999999
 30
0.0
 11
-304.5
 21
-164.39999499999999
 31
0.0
  0
ARC
  8
DETAIL
  6
CONTINUOUS
 62
     5
 10
-313.00000499999987
 20
-162.89999499999999
 30
0.0
 40
1.5
 50
180.0
 51
270.0
  0
ARC
  8
DETAIL
  6
CONTINUOUS
 62
     5
 10
-304.5
 20
-163.39999
 30
0.0
 40
1.000005
 50
270.0
 51
0.0
  0
ARC
  8
DETAIL
  6
CONTINUOUS
 62
     5
 10
-316.00000499999987
 20
-146.89999499999999
 30
0.0
 40
1.5
 50
0.0
 51
90.0
  0
LINE
  8
DETAIL
  6
CONTINUOUS
 62
     5
 10
-319.00000499999987
 20
-143.40000000000001
 30
0.0
 11
-319.00000499999987
 21
-145.39999499999999
 31
0.0
  0
LINE
  8
DETAIL
  6
CONTINUOUS
 62
     5
 10
-315.799982
 20
-145.39999499999999
 30
0.0
 11
-315.799982
 21
-145.68844100000001
 31
0.0
  0
LINE
  8
DETAIL
  6
CONTINUOUS
 62
     5
 10
-303.5000100000002
 20
-143.40000000000001
 30
0.0
 11
-303.5000100000002
 21
-148.89999
 31
0.0
  0
LINE
  8
DETAIL
  6
CONTINUOUS
 62
     5
 10
-273.5000100000002
 20
-152.40000000000001
 30
0.0
 11
-273.5000100000002
 21
-163.39999
 31
0.0
  0
LINE
  8
DETAIL
  6
CONTINUOUS
 62
     5
 10
-275.50000499999987
 20
-152.40000000000001
 30
0.0
 11
-275.50000499999987
 21
-163.39999
 31
0.0
  0
LINE
  8
DETAIL
  6
CONTINUOUS
 62
     5
 10
-288.5000100000002
 20
-152.40000000000001
 30
0.0
 11
-288.5000100000002
 21
-163.39999
 31
0.0
  0
LINE
  8
DETAIL
  6
CONTINUOUS
 62
     5
 10
-290.50000499999987
 20
-152.40000000000001
 30
0.0
 11
-290.50000499999987
 21
-163.39999
 31
0.0
  0
ARC
  8
DETAIL
  6
CONTINUOUS
 62
     5
 10
-289.5
 20
-163.39999
 30
0.0
 40
1.000005
 50
270.0
 51
0.0
  0
ARC
  8
DETAIL
  6
CONTINUOUS
 62
     5
 10
-289.5
 20
-163.39999
 30
0.0
 40
1.000005
 50
180.0
 51
270.0
  0
ARC
  8
DETAIL
  6
CONTINUOUS
 62
     5
 10
-274.5
 20
-163.39999
 30
0.0
 40
1.000005
 50
270.0
 51
0.0
  0
ARC
  8
DETAIL
  6
CONTINUOUS
 62
     5
 10
-274.5
 20
-163.39999
 30
0.0
 40
1.000005
 50
180.0
 51
270.0
  0
LINE
  8
DETAIL
  6
CONTINUOUS
 62
     5
 10
-275.50000499999987
 20
-152.40000000000001
 30
0.0
 11
-288.5000100000002
 21
-152.40000000000001
 31
0.0
  0
LINE
  8
DETAIL
  6
CONTINUOUS
 62
     5
 10
-476.30000999999987
 20
-115.399995
 30
0.0
 11
-476.30000999999987
 21
-115.688445
 31
0.0
  0
LINE
  8
DETAIL
  6
CONTINUOUS
 62
     5
 10
-302.49010499999991
 20
-117.39999
 30
0.0
 11
-328.47980999999982
 21
-117.39999
 31
0.0
  0
LINE
  8
DETAIL
  6
CONTINUOUS
 62
     5
 10
-328.98899999999998
 20
-140.94999000000001
 30
0.0
 11
-329.50000499999987
 21
-115.399995
 31
0.0
  0
ARC
  8
DETAIL
  6
CONTINUOUS
 62
     5
 10
-328.47980999999982
 20
-116.40000000000001
 30
0.0
 40
1.000005
 50
181.1457629999976
 51
270.0
  0
LINE
  8
DETAIL
  6
CONTINUOUS
 62
     5
 10
-301.51920000000018
 20
-141.43999500000001
 30
0.0
 11
-301.99020000000019
 21
-117.889995
 31
0.0
  0
LINE
  8
DETAIL
  6
CONTINUOUS
 62
     5
 10
-304.38201000000032
 20
-119.40000000000001
 30
0.0
 11
-314.78200500000003
 21
-119.40000000000001
 31
0.0
  0
LINE
  8
DETAIL
  6
CONTINUOUS
 62
     5
 10
-314.28202400000009
 20
-119.688446
 30
0.0
 11
-304.88197700000001
 21
-119.688446
 31
0.0
  0
LINE
  8
DETAIL
  6
CONTINUOUS
 62
     5
 10
-304.88197700000001
 20
-119.40000000000001
 30
0.0
 11
-314.28202400000009
 21
-119.40000000000001
 31
0.0
  0
ARC
  8
DETAIL
  6
CONTINUOUS
 62
     5
 10
-309.58199999999988
 20
-115.799982
 30
0.0
 40
6.1000310000000004
 50
219.60198300000479
 51
320.39803500000392
  0
ARC
  8
DETAIL
  6
CONTINUOUS
 62
     5
 10
-314.78200500000003
 20
-119.09999999999999
 30
0.0
 40
0.3
 50
180.0
 51
270.0
  0
LINE
  8
DETAIL
  6
CONTINUOUS
 62
     5
 10
-315.08200500000021
 20
-117.69999
 30
0.0
 11
-315.08200500000021
 21
-119.09999999999999
 31
0.0
  0
ARC
  8
DETAIL
  6
CONTINUOUS
 62
     5
 10
-315.38200499999988
 20
-117.69999
 30
0.0
 40
0.3
 50
0.0
 51
90.0
  0
LINE
  8
DETAIL
  6
CONTINUOUS
 62
     5
 10
-314.28202400000009
 20
-119.40000000000001
 30
0.0
 11
-314.28202400000009
 21
-119.688446
 31
0.0
  0
ARC
  8
DETAIL
  6
CONTINUOUS
 62
     5
 10
-304.38201000000032
 20
-119.09999999999999
 30
0.0
 40
0.3
 50
270.0
 51
0.0
  0
LINE
  8
DETAIL
  6
CONTINUOUS
 62
     5
 10
-304.08201000000008
 20
-117.69999
 30
0.0
 11
-304.08201000000008
 21
-119.09999999999999
 31
0.0
  0
ARC
  8
DETAIL
  6
CONTINUOUS
 62
     5
 10
-303.7820099999999
 20
-117.69999
 30
0.0
 40
0.3
 50
90.0
 51
180.0
  0
ARC
  8
DETAIL
  6
CONTINUOUS
 62
     5
 10
-302.49010499999991
 20
-117.90000000000001
 30
0.0
 40
0.499995
 50
1.145763000004081
 51
90.0
  0
LINE
  8
DETAIL
  6
CONTINUOUS
 62
     5
 10
-304.88197700000001
 20
-119.40000000000001
 30
0.0
 11
-304.88197700000001
 21
-119.688446
 31
0.0
  0
LINE
  8
DETAIL
  6
CONTINUOUS
 62
     5
 10
-476.299982
 20
0.2884460000000217
 30
0.0
 11
-485.70002900000009
 21
0.2884460000000217
 31
0.0
  0
LINE
  8
DETAIL
  6
CONTINUOUS
 62
     5
 10
-485.70002900000009
 20
0.0
 30
0.0
 11
-476.299982
 21
0.0
 31
0.0
  0
ARC
  8
DETAIL
  6
CONTINUOUS
 62
     5
 10
-481.00000499999987
 20
-3.6000179999999768
 30
0.0
 40
6.1000310000000004
 50
39.601983000004758
 51
140.39803500000389
  0
LINE
  8
DETAIL
  6
CONTINUOUS
 62
     5
 10
-506.50000499999987
 20
-20.700000000000049
 30
0.0
 11
-506.50000499999987
 21
-14.700000000000051
 31
0.0
  0
LINE
  8
DETAIL
  6
CONTINUOUS
 62
     5
 10
-516.50000999999975
 20
-20.700000000000049
 30
0.0
 11
-516.50000999999975
 21
-14.700000000000051
 31
0.0
  0
LINE
  8
DETAIL
  6
CONTINUOUS
 62
     5
 10
-488.00000999999969
 20
-49.999995000000013
 30
0.0
 11
-488.00000999999969
 21
0.0
 31
0.0
  0
LINE
  8
DETAIL
  6
CONTINUOUS
 62
     5
 10
-491.48845100000023
 20
-22.400023000000029
 30
0.0
 11
-491.48845100000023
 21
-12.999976000000061
 31
0.0
  0
LINE
  8
DETAIL
  6
CONTINUOUS
 62
     5
 10
-491.20000500000009
 20
-12.999976000000061
 30
0.0
 11
-491.20000500000009
 21
-22.400023000000029
 31
0.0
  0
ARC
  8
DETAIL
  6
CONTINUOUS
 62
     5
 10
-487.59998700000011
 20
-17.700000000000049
 30
0.0
 40
6.1000310000000004
 50
129.60196500000521
 51
230.3980169999902
  0
ARC
  8
DETAIL
  6
CONTINUOUS
 62
     5
 10
-511.5
 20
-20.700000000000049
 30
0.0
 40
4.9999949999999993
 50
180.0
 51
0.0
  0
LINE
  8
DETAIL
  6
CONTINUOUS
 62
     5
 10
-491.20000500000009
 20
-22.400023000000029
 30
0.0
 11
-491.48845100000023
 21
-22.400023000000029
 31
0.0
  0
ARC
  8
DETAIL
  6
CONTINUOUS
 62
     5
 10
-511.5
 20
-14.700000000000051
 30
0.0
 40
4.9999949999999993
 50
0.0
 51
180.0
  0
LINE
  8
DETAIL
  6
CONTINUOUS
 62
     5
 10
-518.50000499999987
 20
-2.700000000000045
 30
0.0
 11
-490.00000499999987
 21
-2.700000000000045
 31
0.0
  0
LINE
  8
DETAIL
  6
CONTINUOUS
 62
     5
 10
-518.50000499999987
 20
-2.700000000000045
 30
0.0
 11
-523.5
 21
-7.6999949999999444
 31
0.0
  0
LINE
  8
DETAIL
  6
CONTINUOUS
 62
     5
 10
-491.20000500000009
 20
-12.999976000000061
 30
0.0
 11
-491.48845100000023
 21
-12.999976000000061
 31
0.0
  0
LINE
  8
DETAIL
  6
CONTINUOUS
 62
     5
 10
-488.40000000000009
 20
-0.9999900000000253
 30
0.0
 11
-488.00000999999969
 21
-0.9999900000000253
 31
0.0
  0
LINE
  8
DETAIL
  6
CONTINUOUS
 62
     5
 10
-488.40000000000009
 20
-1.799999999999955
 30
0.0
 11
-488.00000999999969
 21
-1.799999999999955
 31
0.0
  0
LINE
  8
DETAIL
  6
CONTINUOUS
 62
     5
 10
-490.00000499999987
 20
-3.0
 30
0.0
 11
-488.00000999999969
 21
-3.0
 31
0.0
  0
ARC
  8
DETAIL
  6
CONTINUOUS
 62
     5
 10
-488.40000000000009
 20
-2.5999950000000349
 30
0.0
 40
1.6000049999999999
 50
90.0
 51
180.0
  0
ARC
  8
DETAIL
  6
CONTINUOUS
 62
     5
 10
-488.40000000000009
 20
-2.5999950000000349
 30
0.0
 40
0.799995
 50
90.0
 51
180.0
  0
LINE
  8
DETAIL
  6
CONTINUOUS
 62
     5
 10
-489.20001000000002
 20
-2.5999950000000349
 30
0.0
 11
-489.20001000000002
 21
-3.0
 31
0.0
  0
LINE
  8
DETAIL
  6
CONTINUOUS
 62
     5
 10
-485.70002900000009
 20
0.0
 30
0.0
 11
-485.70002900000009
 21
0.2884460000000217
 31
0.0
  0
LINE
  8
DETAIL
  6
CONTINUOUS
 62
     5
 10
-385.00000499999987
 20
-9.9999900000000252
 30
0.0
 11
-376.00000499999987
 21
-9.9999900000000252
 31
0.0
  0
LINE
  8
DETAIL
  6
CONTINUOUS
 62
     5
 10
-385.00000499999987
 20
-39.999990000000032
 30
0.0
 11
-376.00000499999987
 21
-39.999990000000032
 31
0.0
  0
LINE
  8
DETAIL
  6
CONTINUOUS
 62
     5
 10
-464.00000999999969
 20
-39.999990000000032
 30
0.0
 11
-464.00000999999969
 21
-9.9999900000000252
 31
0.0
  0
LINE
  8
DETAIL
  6
CONTINUOUS
 62
     5
 10
-475.00000999999969
 20
-39.999990000000032
 30
0.0
 11
-475.00000999999969
 21
-9.9999900000000252
 31
0.0
  0
LINE
  8
DETAIL
  6
CONTINUOUS
 62
     5
 10
-453.0
 20
-39.999990000000032
 30
0.0
 11
-453.0
 21
-9.9999900000000252
 31
0.0
  0
LINE
  8
DETAIL
  6
CONTINUOUS
 62
     5
 10
-462.0
 20
-39.999990000000032
 30
0.0
 11
-462.0
 21
-9.9999900000000252
 31
0.0
  0
LINE
  8
DETAIL
  6
CONTINUOUS
 62
     5
 10
-442.00000499999987
 20
-39.999990000000032
 30
0.0
 11
-442.00000499999987
 21
-9.9999900000000252
 31
0.0
  0
LINE
  8
DETAIL
  6
CONTINUOUS
 62
     5
 10
-451.00000499999987
 20
-39.999990000000032
 30
0.0
 11
-451.00000499999987
 21
-9.9999900000000252
 31
0.0
  0
LINE
  8
DETAIL
  6
CONTINUOUS
 62
     5
 10
-431.00000999999969
 20
-39.999990000000032
 30
0.0
 11
-431.00000999999969
 21
-9.9999900000000252
 31
0.0
  0
LINE
  8
DETAIL
  6
CONTINUOUS
 62
     5
 10
-440.00000999999969
 20
-39.999990000000032
 30
0.0
 11
-440.00000999999969
 21
-9.9999900000000252
 31
0.0
  0
LINE
  8
DETAIL
  6
CONTINUOUS
 62
     5
 10
-420.0
 20
-39.999990000000032
 30
0.0
 11
-420.0
 21
-9.9999900000000252
 31
0.0
  0
LINE
  8
DETAIL
  6
CONTINUOUS
 62
     5
 10
-429.0
 20
-39.999990000000032
 30
0.0
 11
-429.0
 21
-9.9999900000000252
 31
0.0
  0
LINE
  8
DETAIL
  6
CONTINUOUS
 62
     5
 10
-409.00000499999987
 20
-39.999990000000032
 30
0.0
 11
-409.00000499999987
 21
-9.9999900000000252
 31
0.0
  0
LINE
  8
DETAIL
  6
CONTINUOUS
 62
     5
 10
-418.00000499999987
 20
-39.999990000000032
 30
0.0
 11
-418.00000499999987
 21
-9.9999900000000252
 31
0.0
  0
LINE
  8
DETAIL
  6
CONTINUOUS
 62
     5
 10
-398.0000100000002
 20
-39.999990000000032
 30
0.0
 11
-398.0000100000002
 21
-9.9999900000000252
 31
0.0
  0
LINE
  8
DETAIL
  6
CONTINUOUS
 62
     5
 10
-407.0000100000002
 20
-39.999990000000032
 30
0.0
 11
-407.0000100000002
 21
-9.9999900000000252
 31
0.0
  0
LINE
  8
DETAIL
  6
CONTINUOUS
 62
     5
 10
-387.0
 20
-39.999990000000032
 30
0.0
 11
-387.0
 21
-9.9999900000000252
 31
0.0
  0
LINE
  8
DETAIL
  6
CONTINUOUS
 62
     5
 10
-396.0
 20
-39.999990000000032
 30
0.0
 11
-396.0
 21
-9.9999900000000252
 31
0.0
  0
LINE
  8
DETAIL
  6
CONTINUOUS
 62
     5
 10
-385.00000499999987
 20
-39.999990000000032
 30
0.0
 11
-385.00000499999987
 21
-9.9999900000000252
 31
0.0
  0
LINE
  8
DETAIL
  6
CONTINUOUS
 62
     5
 10
-440.00000999999969
 20
-39.999990000000032
 30
0.0
 11
-431.00000999999969
 21
-39.999990000000032
 31
0.0
  0
LINE
  8
DETAIL
  6
CONTINUOUS
 62
     5
 10
-482.48493300000018
 20
-59.484922999999981
 30
0.0
 11
-479.51507700000002
 21
-56.515056999999963
 31
0.0
  0
LINE
  8
DETAIL
  6
CONTINUOUS
 62
     5
 10
-479.51507200000009
 20
-59.484917999999993
 30
0.0
 11
-482.48493800000011
 21
-56.515061999999944
 31
0.0
  0
LINE
  8
DETAIL
  6
CONTINUOUS
 62
     5
 10
-462.0
 20
-39.999990000000032
 30
0.0
 11
-453.0
 21
-39.999990000000032
 31
0.0
  0
LINE
  8
DETAIL
  6
CONTINUOUS
 62
     5
 10
-475.00000999999969
 20
-39.999990000000032
 30
0.0
 11
-464.00000999999969
 21
-39.999990000000032
 31
0.0
  0
LINE
  8
DETAIL
  6
CONTINUOUS
 62
     5
 10
-451.00000499999987
 20
-39.999990000000032
 30
0.0
 11
-442.00000499999987
 21
-39.999990000000032
 31
0.0
  0
LINE
  8
DETAIL
  6
CONTINUOUS
 62
     5
 10
-395.98492799999991
 20
-59.484922999999981
 30
0.0
 11
-393.01507200000009
 21
-56.515056999999963
 31
0.0
  0
LINE
  8
DETAIL
  6
CONTINUOUS
 62
     5
 10
-393.01506699999982
 20
-59.484917999999993
 30
0.0
 11
-395.98493300000018
 21
-56.515061999999944
 31
0.0
  0
LINE
  8
DETAIL
  6
CONTINUOUS
 62
     5
 10
-395.98492799999991
 20
-59.484922999999981
 30
0.0
 11
-393.01507200000009
 21
-56.515056999999963
 31
0.0
  0
LINE
  8
DETAIL
  6
CONTINUOUS
 62
     5
 10
-393.01506699999982
 20
-59.484917999999993
 30
0.0
 11
-395.98493300000018
 21
-56.515061999999944
 31
0.0
  0
LINE
  8
DETAIL
  6
CONTINUOUS
 62
     5
 10
-407.0000100000002
 20
-39.999990000000032
 30
0.0
 11
-398.0000100000002
 21
-39.999990000000032
 31
0.0
  0
LINE
  8
DETAIL
  6
CONTINUOUS
 62
     5
 10
-429.0
 20
-39.999990000000032
 30
0.0
 11
-420.0
 21
-39.999990000000032
 31
0.0
  0
LINE
  8
DETAIL
  6
CONTINUOUS
 62
     5
 10
-418.00000499999987
 20
-39.999990000000032
 30
0.0
 11
-409.00000499999987
 21
-39.999990000000032
 31
0.0
  0
LINE
  8
DETAIL
  6
CONTINUOUS
 62
     5
 10
-396.0
 20
-39.999990000000032
 30
0.0
 11
-387.0
 21
-39.999990000000032
 31
0.0
  0
LINE
  8
DETAIL
  6
CONTINUOUS
 62
     5
 10
-440.00000999999969
 20
-9.9999900000000252
 30
0.0
 11
-431.00000999999969
 21
-9.9999900000000252
 31
0.0
  0
LINE
  8
DETAIL
  6
CONTINUOUS
 62
     5
 10
-462.0
 20
-9.9999900000000252
 30
0.0
 11
-453.0
 21
-9.9999900000000252
 31
0.0
  0
LINE
  8
DETAIL
  6
CONTINUOUS
 62
     5
 10
-475.00000999999969
 20
-9.9999900000000252
 30
0.0
 11
-464.00000999999969
 21
-9.9999900000000252
 31
0.0
  0
LINE
  8
DETAIL
  6
CONTINUOUS
 62
     5
 10
-476.299982
 20
0.0
 30
0.0
 11
-476.299982
 21
0.2884460000000217
 31
0.0
  0
LINE
  8
DETAIL
  6
CONTINUOUS
 62
     5
 10
-451.00000499999987
 20
-9.9999900000000252
 30
0.0
 11
-442.00000499999987
 21
-9.9999900000000252
 31
0.0
  0
ARC
  8
DETAIL
  6
CONTINUOUS
 62
     5
 10
-405.0
 20
-3.6000179999999768
 30
0.0
 40
6.1000310000000004
 50
39.601964999996078
 51
140.39801699999529
  0
LINE
  8
DETAIL
  6
CONTINUOUS
 62
     5
 10
-407.0000100000002
 20
-9.9999900000000252
 30
0.0
 11
-398.0000100000002
 21
-9.9999900000000252
 31
0.0
  0
LINE
  8
DETAIL
  6
CONTINUOUS
 62
     5
 10
-409.70002400000021
 20
0.2884460000000217
 30
0.0
 11
-400.29997700000013
 21
0.2884460000000217
 31
0.0
  0
LINE
  8
DETAIL
  6
CONTINUOUS
 62
     5
 10
-400.29997700000013
 20
0.0
 30
0.0
 11
-409.70002400000021
 21
0.0
 31
0.0
  0
LINE
  8
DETAIL
  6
CONTINUOUS
 62
     5
 10
-429.0
 20
-9.9999900000000252
 30
0.0
 11
-420.0
 21
-9.9999900000000252
 31
0.0
  0
LINE
  8
DETAIL
  6
CONTINUOUS
 62
     5
 10
-418.00000499999987
 20
-9.9999900000000252
 30
0.0
 11
-409.00000499999987
 21
-9.9999900000000252
 31
0.0
  0
LINE
  8
DETAIL
  6
CONTINUOUS
 62
     5
 10
-409.70002400000021
 20
0.0
 30
0.0
 11
-409.70002400000021
 21
0.2884460000000217
 31
0.0
  0
LINE
  8
DETAIL
  6
CONTINUOUS
 62
     5
 10
-396.0
 20
-9.9999900000000252
 30
0.0
 11
-387.0
 21
-9.9999900000000252
 31
0.0
  0
LINE
  8
DETAIL
  6
CONTINUOUS
 62
     5
 10
-400.29997700000013
 20
0.0
 30
0.0
 11
-400.29997700000013
 21
0.2884460000000217
 31
0.0
  0
LINE
  8
DETAIL
  6
CONTINUOUS
 62
     5
 10
-376.00000499999987
 20
-39.999990000000032
 30
0.0
 11
-376.00000499999987
 21
-9.9999900000000252
 31
0.0
  0
LINE
  8
DETAIL
  6
CONTINUOUS
 62
     5
 10
-365.0000100000002
 20
-39.999990000000032
 30
0.0
 11
-365.0000100000002
 21
-9.9999900000000252
 31
0.0
  0
LINE
  8
DETAIL
  6
CONTINUOUS
 62
     5
 10
-374.0000100000002
 20
-39.999990000000032
 30
0.0
 11
-374.0000100000002
 21
-9.9999900000000252
 31
0.0
  0
LINE
  8
DETAIL
  6
CONTINUOUS
 62
     5
 10
-354.0
 20
-39.999990000000032
 30
0.0
 11
-354.0
 21
-9.9999900000000252
 31
0.0
  0
LINE
  8
DETAIL
  6
CONTINUOUS
 62
     5
 10
-363.0
 20
-39.999990000000032
 30
0.0
 11
-363.0
 21
-9.9999900000000252
 31
0.0
  0
LINE
  8
DETAIL
  6
CONTINUOUS
 62
     5
 10
-343.00000499999987
 20
-39.999990000000032
 30
0.0
 11
-343.00000499999987
 21
-9.9999900000000252
 31
0.0
  0
LINE
  8
DETAIL
  6
CONTINUOUS
 62
     5
 10
-352.00000499999987
 20
-39.999990000000032
 30
0.0
 11
-352.00000499999987
 21
-9.9999900000000252
 31
0.0
  0
LINE
  8
DETAIL
  6
CONTINUOUS
 62
     5
 10
-332.0000100000002
 20
-39.999990000000032
 30
0.0
 11
-332.0000100000002
 21
-9.9999900000000252
 31
0.0
  0
LINE
  8
DETAIL
  6
CONTINUOUS
 62
     5
 10
-341.0000100000002
 20
-39.999990000000032
 30
0.0
 11
-341.0000100000002
 21
-9.9999900000000252
 31
0.0
  0
LINE
  8
DETAIL
  6
CONTINUOUS
 62
     5
 10
-321.0
 20
-39.999990000000032
 30
0.0
 11
-321.0
 21
-9.9999900000000252
 31
0.0
  0
LINE
  8
DETAIL
  6
CONTINUOUS
 62
     5
 10
-330.0
 20
-39.999990000000032
 30
0.0
 11
-330.0
 21
-9.9999900000000252
 31
0.0
  0
LINE
  8
DETAIL
  6
CONTINUOUS
 62
     5
 10
-310.00000499999987
 20
-39.999990000000032
 30
0.0
 11
-310.00000499999987
 21
-9.9999900000000252
 31
0.0
  0
LINE
  8
DETAIL
  6
CONTINUOUS
 62
     5
 10
-319.00000499999987
 20
-39.999990000000032
 30
0.0
 11
-319.00000499999987
 21
-9.9999900000000252
 31
0.0
  0
LINE
  8
DETAIL
  6
CONTINUOUS
 62
     5
 10
-299.0000100000002
 20
-39.999990000000032
 30
0.0
 11
-299.0000100000002
 21
-9.9999900000000252
 31
0.0
  0
LINE
  8
DETAIL
  6
CONTINUOUS
 62
     5
 10
-308.0000100000002
 20
-39.999990000000032
 30
0.0
 11
-308.0000100000002
 21
-9.9999900000000252
 31
0.0
  0
LINE
  8
DETAIL
  6
CONTINUOUS
 62
     5
 10
-288.0
 20
-39.999990000000032
 30
0.0
 11
-288.0
 21
-9.9999900000000252
 31
0.0
  0
LINE
  8
DETAIL
  6
CONTINUOUS
 62
     5
 10
-297.0
 20
-39.999990000000032
 30
0.0
 11
-297.0
 21
-9.9999900000000252
 31
0.0
  0
LINE
  8
DETAIL
  6
CONTINUOUS
 62
     5
 10
-277.00000499999987
 20
-39.999990000000032
 30
0.0
 11
-277.00000499999987
 21
-9.9999900000000252
 31
0.0
  0
LINE
  8
DETAIL
  6
CONTINUOUS
 62
     5
 10
-286.00000499999987
 20
-39.999990000000032
 30
0.0
 11
-286.00000499999987
 21
-9.9999900000000252
 31
0.0
  0
LINE
  8
DETAIL
  6
CONTINUOUS
 62
     5
 10
-275.0000100000002
 20
-39.999990000000032
 30
0.0
 11
-275.0000100000002
 21
-9.9999900000000252
 31
0.0
  0
LINE
  8
DETAIL
  6
CONTINUOUS
 62
     5
 10
-330.0
 20
-39.999990000000032
 30
0.0
 11
-321.0
 21
-39.999990000000032
 31
0.0
  0
LINE
  8
DETAIL
  6
CONTINUOUS
 62
     5
 10
-352.00000499999987
 20
-39.999990000000032
 30
0.0
 11
-343.00000499999987
 21
-39.999990000000032
 31
0.0
  0
LINE
  8
DETAIL
  6
CONTINUOUS
 62
     5
 10
-374.0000100000002
 20
-39.999990000000032
 30
0.0
 11
-365.0000100000002
 21
-39.999990000000032
 31
0.0
  0
LINE
  8
DETAIL
  6
CONTINUOUS
 62
     5
 10
-363.0
 20
-39.999990000000032
 30
0.0
 11
-354.0
 21
-39.999990000000032
 31
0.0
  0
LINE
  8
DETAIL
  6
CONTINUOUS
 62
     5
 10
-341.0000100000002
 20
-39.999990000000032
 30
0.0
 11
-332.0000100000002
 21
-39.999990000000032
 31
0.0
  0
LINE
  8
DETAIL
  6
CONTINUOUS
 62
     5
 10
-319.00000499999987
 20
-39.999990000000032
 30
0.0
 11
-310.00000499999987
 21
-39.999990000000032
 31
0.0
  0
LINE
  8
DETAIL
  6
CONTINUOUS
 62
     5
 10
-308.0000100000002
 20
-39.999990000000032
 30
0.0
 11
-299.0000100000002
 21
-39.999990000000032
 31
0.0
  0
LINE
  8
DETAIL
  6
CONTINUOUS
 62
     5
 10
-286.00000499999987
 20
-39.999990000000032
 30
0.0
 11
-277.00000499999987
 21
-39.999990000000032
 31
0.0
  0
LINE
  8
DETAIL
  6
CONTINUOUS
 62
     5
 10
-297.0
 20
-39.999990000000032
 30
0.0
 11
-288.0
 21
-39.999990000000032
 31
0.0
  0
LINE
  8
DETAIL
  6
CONTINUOUS
 62
     5
 10
-330.0
 20
-9.9999900000000252
 30
0.0
 11
-321.0
 21
-9.9999900000000252
 31
0.0
  0
LINE
  8
DETAIL
  6
CONTINUOUS
 62
     5
 10
-352.00000499999987
 20
-9.9999900000000252
 30
0.0
 11
-343.00000499999987
 21
-9.9999900000000252
 31
0.0
  0
LINE
  8
DETAIL
  6
CONTINUOUS
 62
     5
 10
-374.0000100000002
 20
-9.9999900000000252
 30
0.0
 11
-365.0000100000002
 21
-9.9999900000000252
 31
0.0
  0
LINE
  8
DETAIL
  6
CONTINUOUS
 62
     5
 10
-363.0
 20
-9.9999900000000252
 30
0.0
 11
-354.0
 21
-9.9999900000000252
 31
0.0
  0
LINE
  8
DETAIL
  6
CONTINUOUS
 62
     5
 10
-341.0000100000002
 20
-9.9999900000000252
 30
0.0
 11
-332.0000100000002
 21
-9.9999900000000252
 31
0.0
  0
LINE
  8
DETAIL
  6
CONTINUOUS
 62
     5
 10
-319.00000499999987
 20
-9.9999900000000252
 30
0.0
 11
-310.00000499999987
 21
-9.9999900000000252
 31
0.0
  0
LINE
  8
DETAIL
  6
CONTINUOUS
 62
     5
 10
-308.0000100000002
 20
-9.9999900000000252
 30
0.0
 11
-299.0000100000002
 21
-9.9999900000000252
 31
0.0
  0
LINE
  8
DETAIL
  6
CONTINUOUS
 62
     5
 10
-286.00000499999987
 20
-9.9999900000000252
 30
0.0
 11
-277.00000499999987
 21
-9.9999900000000252
 31
0.0
  0
LINE
  8
DETAIL
  6
CONTINUOUS
 62
     5
 10
-297.0
 20
-9.9999900000000252
 30
0.0
 11
-288.0
 21
-9.9999900000000252
 31
0.0
  0
CIRCLE
  8
DETAIL
  6
CONTINUOUS
 62
     5
 10
0.0
 20
-57.999990000000032
 30
0.0
 40
4.700024
  0
CIRCLE
  8
DETAIL
  6
CONTINUOUS
 62
     5
 10
94.5
 20
-57.999990000000032
 30
0.0
 40
4.700024
  0
CIRCLE
  8
DETAIL
  6
CONTINUOUS
 62
     5
 10
-94.5
 20
-57.999990000000032
 30
0.0
 40
4.700024
  0
LINE
  8
DETAIL
  6
CONTINUOUS
 62
     5
 10
-157.5
 20
-115.999995
 30
0.0
 11
157.5
 21
-115.999995
 31
0.0
  0
LINE
  8
DETAIL
  6
CONTINUOUS
 62
     5
 10
-5.8144499999998516
 20
-115.399995
 30
0.0
 11
-65.000009999999747
 21
-115.399995
 31
0.0
  0
LINE
  8
DETAIL
  6
CONTINUOUS
 62
     5
 10
-157.5
 20
-140.40000000000001
 30
0.0
 11
157.5
 21
-140.40000000000001
 31
0.0
  0
ARC
  8
DETAIL
  6
CONTINUOUS
 62
     5
 10
-179.52040500000021
 20
-141.39999
 30
0.0
 40
1.999995
 50
270.0
 51
358.85423699999598
  0
ARC
  8
DETAIL
  6
CONTINUOUS
 62
     5
 10
-162.5105100000001
 20
-140.89999499999999
 30
0.0
 40
2.5000049999999998
 50
270.0
 51
358.85423699999598
  0
LINE
  8
DETAIL
  6
CONTINUOUS
 62
     5
 10
-215.5000049999999
 20
-152.40000000000001
 30
0.0
 11
-228.50000999999969
 21
-152.40000000000001
 31
0.0
  0
ARC
  8
DETAIL
  6
CONTINUOUS
 62
     5
 10
-244.5
 20
-163.39999
 30
0.0
 40
1.000005
 50
270.0
 51
0.0
  0
LINE
  8
DETAIL
  6
CONTINUOUS
 62
     5
 10
-230.5000049999999
 20
-152.40000000000001
 30
0.0
 11
-243.5000100000002
 21
-152.40000000000001
 31
0.0
  0
LINE
  8
DETAIL
  6
CONTINUOUS
 62
     5
 10
-243.5000100000002
 20
-152.40000000000001
 30
0.0
 11
-243.5000100000002
 21
-163.39999
 31
0.0
  0
LINE
  8
DETAIL
  6
CONTINUOUS
 62
     5
 10
-245.5000049999999
 20
-152.40000000000001
 30
0.0
 11
-245.5000049999999
 21
-163.39999
 31
0.0
  0
LINE
  8
DETAIL
  6
CONTINUOUS
 62
     5
 10
-260.50000499999987
 20
-152.40000000000001
 30
0.0
 11
-260.50000499999987
 21
-163.39999
 31
0.0
  0
LINE
  8
DETAIL
  6
CONTINUOUS
 62
     5
 10
-258.5000100000002
 20
-152.40000000000001
 30
0.0
 11
-258.5000100000002
 21
-163.39999
 31
0.0
  0
ARC
  8
DETAIL
  6
CONTINUOUS
 62
     5
 10
-259.5
 20
-163.39999
 30
0.0
 40
1.000005
 50
180.0
 51
270.0
  0
ARC
  8
DETAIL
  6
CONTINUOUS
 62
     5
 10
-259.5
 20
-163.39999
 30
0.0
 40
1.000005
 50
270.0
 51
0.0
  0
ARC
  8
DETAIL
  6
CONTINUOUS
 62
     5
 10
-244.5
 20
-163.39999
 30
0.0
 40
1.000005
 50
180.0
 51
270.0
  0
LINE
  8
DETAIL
  6
CONTINUOUS
 62
     5
 10
-245.5000049999999
 20
-152.40000000000001
 30
0.0
 11
-258.5000100000002
 21
-152.40000000000001
 31
0.0
  0
LINE
  8
DETAIL
  6
CONTINUOUS
 62
     5
 10
-228.50000999999969
 20
-152.40000000000001
 30
0.0
 11
-228.50000999999969
 21
-163.39999
 31
0.0
  0
LINE
  8
DETAIL
  6
CONTINUOUS
 62
     5
 10
-230.5000049999999
 20
-152.40000000000001
 30
0.0
 11
-230.5000049999999
 21
-163.39999
 31
0.0
  0
ARC
  8
DETAIL
  6
CONTINUOUS
 62
     5
 10
-229.5
 20
-163.39999
 30
0.0
 40
1.000005
 50
180.0
 51
270.0
  0
ARC
  8
DETAIL
  6
CONTINUOUS
 62
     5
 10
-229.5
 20
-163.39999
 30
0.0
 40
1.000005
 50
270.0
 51
0.0
  0
LINE
  8
DETAIL
  6
CONTINUOUS
 62
     5
 10
-185.5000049999999
 20
-152.40000000000001
 30
0.0
 11
-198.50000999999969
 21
-152.40000000000001
 31
0.0
  0
LINE
  8
DETAIL
  6
CONTINUOUS
 62
     5
 10
-215.5000049999999
 20
-152.40000000000001
 30
0.0
 11
-215.5000049999999
 21
-163.39999
 31
0.0
  0
LINE
  8
DETAIL
  6
CONTINUOUS
 62
     5
 10
-213.50000999999969
 20
-152.40000000000001
 30
0.0
 11
-213.50000999999969
 21
-163.39999
 31
0.0
  0
LINE
  8
DETAIL
  6
CONTINUOUS
 62
     5
 10
-200.5000049999999
 20
-152.40000000000001
 30
0.0
 11
-200.5000049999999
 21
-163.39999
 31
0.0
  0
LINE
  8
DETAIL
  6
CONTINUOUS
 62
     5
 10
-198.50000999999969
 20
-152.40000000000001
 30
0.0
 11
-198.50000999999969
 21
-163.39999
 31
0.0
  0
ARC
  8
DETAIL
  6
CONTINUOUS
 62
     5
 10
-214.5
 20
-163.39999
 30
0.0
 40
1.000005
 50
180.0
 51
270.0
  0
ARC
  8
DETAIL
  6
CONTINUOUS
 62
     5
 10
-214.5
 20
-163.39999
 30
0.0
 40
1.000005
 50
270.0
 51
0.0
  0
ARC
  8
DETAIL
  6
CONTINUOUS
 62
     5
 10
-199.5
 20
-163.39999
 30
0.0
 40
1.000005
 50
180.0
 51
270.0
  0
ARC
  8
DETAIL
  6
CONTINUOUS
 62
     5
 10
-199.5
 20
-163.39999
 30
0.0
 40
1.000005
 50
270.0
 51
0.0
  0
LINE
  8
DETAIL
  6
CONTINUOUS
 62
     5
 10
-200.5000049999999
 20
-152.40000000000001
 30
0.0
 11
-213.50000999999969
 21
-152.40000000000001
 31
0.0
  0
LINE
  8
DETAIL
  6
CONTINUOUS
 62
     5
 10
-177.50000999999969
 20
-146.89999499999999
 30
0.0
 11
-177.50000999999969
 21
-162.89999499999999
 31
0.0
  0
LINE
  8
DETAIL
  6
CONTINUOUS
 62
     5
 10
-185.5000049999999
 20
-152.40000000000001
 30
0.0
 11
-185.5000049999999
 21
-163.39999
 31
0.0
  0
LINE
  8
DETAIL
  6
CONTINUOUS
 62
     5
 10
-184.5
 20
-164.39999499999999
 30
0.0
 11
-179.00000999999969
 21
-164.39999499999999
 31
0.0
  0
ARC
  8
DETAIL
  6
CONTINUOUS
 62
     5
 10
-184.5
 20
-163.39999
 30
0.0
 40
1.000005
 50
180.0
 51
270.0
  0
ARC
  8
DETAIL
  6
CONTINUOUS
 62
     5
 10
-179.00000999999969
 20
-162.89999499999999
 30
0.0
 40
1.5
 50
270.0
 51
0.0
  0
LINE
  8
DETAIL
  6
CONTINUOUS
 62
     5
 10
-185.5000049999999
 20
-143.40000000000001
 30
0.0
 11
-169.5
 21
-143.40000000000001
 31
0.0
  0
ARC
  8
DETAIL
  6
CONTINUOUS
 62
     5
 10
-176.00000999999969
 20
-146.89999499999999
 30
0.0
 40
1.5
 50
90.0
 51
180.0
  0
LINE
  8
DETAIL
  6
CONTINUOUS
 62
     5
 10
-185.5000049999999
 20
-143.40000000000001
 30
0.0
 11
-185.5000049999999
 21
-148.89999
 31
0.0
  0
LINE
  8
DETAIL
  6
CONTINUOUS
 62
     5
 10
-169.5
 20
-143.40000000000001
 30
0.0
 11
-169.5
 21
-143.89999499999999
 31
0.0
  0
LINE
  8
DETAIL
  6
CONTINUOUS
 62
     5
 10
-176.00000999999969
 20
-145.39999499999999
 30
0.0
 11
-171.0
 21
-145.39999499999999
 31
0.0
  0
ARC
  8
DETAIL
  6
CONTINUOUS
 62
     5
 10
-171.0
 20
-143.89999499999999
 30
0.0
 40
1.5
 50
270.0
 51
0.0
  0
LINE
  8
DETAIL
  6
CONTINUOUS
 62
     5
 10
-160.03011000000009
 20
-117.39999
 30
0.0
 11
-176.54991000000021
 21
-117.39999
 31
0.0
  0
CIRCLE
  8
DETAIL
  6
CONTINUOUS
 62
     5
 10
-255.0
 20
-107.40000000000001
 30
0.0
 40
4.700024
  0
LINE
  8
DETAIL
  6
CONTINUOUS
 62
     5
 10
-256.48492799999991
 20
-108.884933
 30
0.0
 11
-253.51507200000009
 21
-105.91506699999999
 31
0.0
  0
LINE
  8
DETAIL
  6
CONTINUOUS
 62
     5
 10
-253.51506699999979
 20
-108.8849279999999
 30
0.0
 11
-256.48493300000018
 21
-105.915072
 31
0.0
  0
LINE
  8
DETAIL
  6
CONTINUOUS
 62
     5
 10
-177.52080000000021
 20
-141.43999500000001
 30
0.0
 11
-177.04979999999981
 21
-117.889995
 31
0.0
  0
ARC
  8
DETAIL
  6
CONTINUOUS
 62
     5
 10
-176.54991000000021
 20
-117.90000000000001
 30
0.0
 40
0.499995
 50
90.0
 51
178.85423699999589
  0
ARC
  8
DETAIL
  6
CONTINUOUS
 62
     5
 10
-164.3000099999999
 20
-119.09999999999999
 30
0.0
 40
0.3
 50
270.0
 51
0.0
  0
LINE
  8
DETAIL
  6
CONTINUOUS
 62
     5
 10
-164.00000999999969
 20
-117.69999
 30
0.0
 11
-164.00000999999969
 21
-119.09999999999999
 31
0.0
  0
ARC
  8
DETAIL
  6
CONTINUOUS
 62
     5
 10
-163.70000999999999
 20
-117.69999
 30
0.0
 40
0.3
 50
90.0
 51
180.0
  0
ARC
  8
DETAIL
  6
CONTINUOUS
 62
     5
 10
-174.70000500000009
 20
-119.09999999999999
 30
0.0
 40
0.3
 50
180.0
 51
270.0
  0
LINE
  8
DETAIL
  6
CONTINUOUS
 62
     5
 10
-175.0000049999999
 20
-117.69999
 30
0.0
 11
-175.0000049999999
 21
-119.09999999999999
 31
0.0
  0
ARC
  8
DETAIL
  6
CONTINUOUS
 62
     5
 10
-175.30000500000011
 20
-117.69999
 30
0.0
 40
0.3
 50
0.0
 51
90.0
  0
LINE
  8
DETAIL
  6
CONTINUOUS
 62
     5
 10
-174.70000500000009
 20
-119.40000000000001
 30
0.0
 11
-164.3000099999999
 21
-119.40000000000001
 31
0.0
  0
LINE
  8
DETAIL
  6
CONTINUOUS
 62
     5
 10
-164.7999770000001
 20
-119.688446
 30
0.0
 11
-174.20002399999979
 21
-119.688446
 31
0.0
  0
LINE
  8
DETAIL
  6
CONTINUOUS
 62
     5
 10
-174.20002399999979
 20
-119.40000000000001
 30
0.0
 11
-174.20002399999979
 21
-119.688446
 31
0.0
  0
LINE
  8
DETAIL
  6
CONTINUOUS
 62
     5
 10
-164.7999770000001
 20
-119.40000000000001
 30
0.0
 11
-164.7999770000001
 21
-119.688446
 31
0.0
  0
LINE
  8
DETAIL
  6
CONTINUOUS
 62
     5
 10
-174.20002399999979
 20
-119.40000000000001
 30
0.0
 11
-164.7999770000001
 21
-119.40000000000001
 31
0.0
  0
ARC
  8
DETAIL
  6
CONTINUOUS
 62
     5
 10
-169.5
 20
-115.799982
 30
0.0
 40
6.1000310000000004
 50
219.60196499999611
 51
320.39801699999532
  0
LINE
  8
DETAIL
  6
CONTINUOUS
 62
     5
 10
-160.011
 20
-140.94999000000001
 30
0.0
 11
-159.50000999999969
 21
-115.399995
 31
0.0
  0
LINE
  8
DETAIL
  6
CONTINUOUS
 62
     5
 10
-157.5
 20
-115.399995
 30
0.0
 11
-157.5
 21
-140.40000000000001
 31
0.0
  0
LINE
  8
DETAIL
  6
CONTINUOUS
 62
     5
 10
-159.62001000000009
 20
-121.399995
 30
0.0
 11
-157.5
 21
-121.399995
 31
0.0
  0
LINE
  8
DETAIL
  6
CONTINUOUS
 62
     5
 10
-161.9485500000001
 20
-115.399995
 30
0.0
 11
-156.25534500000001
 21
-115.399995
 31
0.0
  0
ARC
  8
DETAIL
  6
CONTINUOUS
 62
     5
 10
-160.03011000000009
 20
-116.899995
 30
0.0
 40
0.499995
 50
270.0
 51
358.85423699999598
  0
LINE
  8
DETAIL
  6
CONTINUOUS
 62
     5
 10
-130.0000049999999
 20
-115.399995
 30
0.0
 11
-120.0
 21
-115.399995
 31
0.0
  0
LINE
  8
DETAIL
  6
CONTINUOUS
 62
     5
 10
-65.000009999999747
 20
-115.399995
 30
0.0
 11
-93.74465999999984
 21
-115.399995
 31
0.0
  0
LINE
  8
DETAIL
  6
CONTINUOUS
 62
     5
 10
-75.299986999999874
 20
-116.28844100000001
 30
0.0
 11
-84.70003399999996
 21
-116.28844100000001
 31
0.0
  0
LINE
  8
DETAIL
  6
CONTINUOUS
 62
     5
 10
-84.70003399999996
 20
-115.999995
 30
0.0
 11
-75.299986999999874
 21
-115.999995
 31
0.0
  0
ARC
  8
DETAIL
  6
CONTINUOUS
 62
     5
 10
-80.000009999999747
 20
-112.39997700000001
 30
0.0
 40
6.1000310000000004
 50
219.60196499999611
 51
320.39801699999532
  0
LINE
  8
DETAIL
  6
CONTINUOUS
 62
     5
 10
-84.70003399999996
 20
-115.999995
 30
0.0
 11
-84.70003399999996
 21
-116.28844100000001
 31
0.0
  0
LINE
  8
DETAIL
  6
CONTINUOUS
 62
     5
 10
-75.299986999999874
 20
-115.999995
 30
0.0
 11
-75.299986999999874
 21
-116.28844100000001
 31
0.0
  0
LINE
  8
DETAIL
  6
CONTINUOUS
 62
     5
 10
2.9809049999998929
 20
-193.189705
 30
0.0
 11
2.9809049999998929
 21
-140.40000000000001
 31
0.0
  0
LINE
  8
DETAIL
  6
CONTINUOUS
 62
     5
 10
-0.1298849999998311
 20
-193.26271
 30
0.0
 11
-0.1298849999998311
 21
-140.40000000000001
 31
0.0
  0
LINE
  8
DETAIL
  6
CONTINUOUS
 62
     5
 10
53.166510000000017
 20
-208.06984
 30
0.0
 11
51.818369999999959
 21
-207.98408500000011
 31
0.0
  0
LINE
  8
DETAIL
  6
CONTINUOUS
 62
     5
 10
53.166510000000017
 20
-201.42054999999999
 30
0.0
 11
51.818369999999959
 21
-201.50640999999999
 31
0.0
  0
LINE
  8
DETAIL
  6
CONTINUOUS
 62
     5
 10
53.166510000000017
 20
-205.78198
 30
0.0
 11
51.818369999999959
 21
-205.78198
 31
0.0
  0
LINE
  8
DETAIL
  6
CONTINUOUS
 62
     5
 10
53.166510000000017
 20
-203.70791500000001
 30
0.0
 11
51.818369999999959
 21
-203.70791500000001
 31
0.0
  0
ARC
  8
DETAIL
  6
CONTINUOUS
 62
     5
 10
12.98091000000022
 20
-193.189705
 30
0.0
 40
13.111005
 50
179.68099499999809
 51
270.0
  0
LINE
  8
DETAIL
  6
CONTINUOUS
 62
     5
 10
38.544300000000021
 20
-202.62882999999999
 30
0.0
 11
38.544300000000021
 21
-206.86107999999999
 31
0.0
  0
LINE
  8
DETAIL
  6
CONTINUOUS
 62
     5
 10
50.47021500000028
 20
-201.384445
 30
0.0
 11
50.47021500000028
 21
-208.10616999999999
 31
0.0
  0
LINE
  8
DETAIL
  6
CONTINUOUS
 62
     5
 10
51.818369999999959
 20
-201.2985699999999
 30
0.0
 11
51.818369999999959
 21
-208.19191000000001
 31
0.0
  0
LINE
  8
DETAIL
  6
CONTINUOUS
 62
     5
 10
49.122075000000223
 20
-201.47030500000011
 30
0.0
 11
49.122075000000223
 21
-208.02041500000001
 31
0.0
  0
LINE
  8
DETAIL
  6
CONTINUOUS
 62
     5
 10
47.773920000000089
 20
-201.55616499999999
 30
0.0
 11
47.773920000000089
 21
-207.934675
 31
0.0
  0
LINE
  8
DETAIL
  6
CONTINUOUS
 62
     5
 10
46.218359999999848
 20
-201.65523999999999
 30
0.0
 11
46.218359999999848
 21
-207.835735
 31
0.0
  0
LINE
  8
DETAIL
  6
CONTINUOUS
 62
     5
 10
44.87021999999979
 20
-201.74109999999999
 30
0.0
 11
44.87021999999979
 21
-207.74999500000001
 31
0.0
  0
LINE
  8
DETAIL
  6
CONTINUOUS
 62
     5
 10
43.522065000000111
 20
-201.82696000000001
 30
0.0
 11
43.522065000000111
 21
-207.66423999999989
 31
0.0
  0
LINE
  8
DETAIL
  6
CONTINUOUS
 62
     5
 10
42.173925000000047
 20
-201.91282000000001
 30
0.0
 11
42.173925000000047
 21
-207.57849999999999
 31
0.0
  0
LINE
  8
DETAIL
  6
CONTINUOUS
 62
     5
 10
40.82576999999992
 20
-201.99868000000001
 30
0.0
 11
40.82576999999992
 21
-207.49276
 31
0.0
  0
ARC
  8
DETAIL
  6
CONTINUOUS
 62
     5
 10
39.062805000000033
 20
-206.86107999999999
 30
0.0
 40
0.51852
 50
180.0
 51
265.48601199999217
  0
LINE
  8
DETAIL
  6
CONTINUOUS
 62
     5
 10
50.47021500000028
 20
-207.89834500000009
 30
0.0
 11
49.122075000000223
 21
-207.81259
 31
0.0
  0
LINE
  8
DETAIL
  6
CONTINUOUS
 62
     5
 10
49.122075000000223
 20
-208.02041500000001
 30
0.0
 11
47.773920000000089
 21
-207.934675
 31
0.0
  0
LINE
  8
DETAIL
  6
CONTINUOUS
 62
     5
 10
51.818369999999959
 20
-208.19191000000001
 30
0.0
 11
50.47021500000028
 21
-208.10616999999999
 31
0.0
  0
LINE
  8
DETAIL
  6
CONTINUOUS
 62
     5
 10
46.218359999999848
 20
-207.835735
 30
0.0
 11
44.87021999999979
 21
-207.74999500000001
 31
0.0
  0
LINE
  8
DETAIL
  6
CONTINUOUS
 62
     5
 10
47.773920000000089
 20
-207.72685000000001
 30
0.0
 11
46.218359999999848
 21
-207.62791000000001
 31
0.0
  0
LINE
  8
DETAIL
  6
CONTINUOUS
 62
     5
 10
44.87021999999979
 20
-207.54216999999991
 30
0.0
 11
43.522065000000111
 21
-207.45641499999999
 31
0.0
  0
LINE
  8
DETAIL
  6
CONTINUOUS
 62
     5
 10
40.82576999999992
 20
-207.49276
 30
0.0
 11
39.034169999999897
 21
-207.37880500000011
 31
0.0
  0
LINE
  8
DETAIL
  6
CONTINUOUS
 62
     5
 10
42.173925000000047
 20
-207.37067500000001
 30
0.0
 11
40.82576999999992
 21
-207.28492000000011
 31
0.0
  0
LINE
  8
DETAIL
  6
CONTINUOUS
 62
     5
 10
43.522065000000111
 20
-207.66423999999989
 30
0.0
 11
42.173925000000047
 21
-207.57849999999999
 31
0.0
  0
LINE
  8
DETAIL
  6
CONTINUOUS
 62
     5
 10
38.544300000000021
 20
-203.18970999999999
 30
0.0
 11
12.98091000000022
 21
-203.18970999999999
 31
0.0
  0
LINE
  8
DETAIL
  6
CONTINUOUS
 62
     5
 10
38.544300000000021
 20
-206.30050000000011
 30
0.0
 11
12.9079200000001
 21
-206.30050000000011
 31
0.0
  0
ARC
  8
DETAIL
  6
CONTINUOUS
 62
     5
 10
12.98091000000022
 20
-193.189705
 30
0.0
 40
10.000005
 50
180.0
 51
270.0
  0
ARC
  8
DETAIL
  6
CONTINUOUS
 62
     5
 10
39.062805000000033
 20
-202.62882999999999
 30
0.0
 40
0.51852
 50
94.513988000007799
 51
180.0
  0
LINE
  8
DETAIL
  6
CONTINUOUS
 62
     5
 10
50.47021500000028
 20
-201.59227000000001
 30
0.0
 11
49.122075000000223
 21
-201.67813000000001
 31
0.0
  0
LINE
  8
DETAIL
  6
CONTINUOUS
 62
     5
 10
49.122075000000223
 20
-201.47030500000011
 30
0.0
 11
47.773920000000089
 21
-201.55616499999999
 31
0.0
  0
LINE
  8
DETAIL
  6
CONTINUOUS
 62
     5
 10
51.818369999999959
 20
-201.2985699999999
 30
0.0
 11
50.47021500000028
 21
-201.384445
 31
0.0
  0
LINE
  8
DETAIL
  6
CONTINUOUS
 62
     5
 10
50.47021500000028
 20
-205.78198
 30
0.0
 11
49.122075000000223
 21
-205.78198
 31
0.0
  0
LINE
  8
DETAIL
  6
CONTINUOUS
 62
     5
 10
50.47021500000028
 20
-203.70791500000001
 30
0.0
 11
49.122075000000223
 21
-203.70791500000001
 31
0.0
  0
LINE
  8
DETAIL
  6
CONTINUOUS
 62
     5
 10
46.218359999999848
 20
-201.65523999999999
 30
0.0
 11
44.87021999999979
 21
-201.74109999999999
 31
0.0
  0
LINE
  8
DETAIL
  6
CONTINUOUS
 62
     5
 10
47.773920000000089
 20
-201.76398999999989
 30
0.0
 11
46.218359999999848
 21
-201.86306500000001
 31
0.0
  0
LINE
  8
DETAIL
  6
CONTINUOUS
 62
     5
 10
44.87021999999979
 20
-201.948925
 30
0.0
 11
43.522065000000111
 21
-202.03478500000011
 31
0.0
  0
LINE
  8
DETAIL
  6
CONTINUOUS
 62
     5
 10
40.82576999999992
 20
-201.99868000000001
 30
0.0
 11
38.988075000000208
 21
-202.115725
 31
0.0
  0
LINE
  8
DETAIL
  6
CONTINUOUS
 62
     5
 10
43.522065000000111
 20
-201.82696000000001
 30
0.0
 11
42.173925000000047
 21
-201.91282000000001
 31
0.0
  0
LINE
  8
DETAIL
  6
CONTINUOUS
 62
     5
 10
42.173925000000047
 20
-202.120645
 30
0.0
 11
40.82576999999992
 21
-202.20650499999999
 31
0.0
  0
LINE
  8
DETAIL
  6
CONTINUOUS
 62
     5
 10
44.87021999999979
 20
-205.78198
 30
0.0
 11
43.522065000000111
 21
-205.78198
 31
0.0
  0
LINE
  8
DETAIL
  6
CONTINUOUS
 62
     5
 10
44.87021999999979
 20
-203.70791500000001
 30
0.0
 11
43.522065000000111
 21
-203.70791500000001
 31
0.0
  0
LINE
  8
DETAIL
  6
CONTINUOUS
 62
     5
 10
66.907259999999951
 20
-174.56031999999999
 30
0.0
 11
66.907259999999951
 21
-187.11532
 31
0.0
  0
LINE
  8
DETAIL
  6
CONTINUOUS
 62
     5
 10
73.440585000000283
 20
-174.56031999999999
 30
0.0
 11
73.440585000000283
 21
-187.11532
 31
0.0
  0
LINE
  8
DETAIL
  6
CONTINUOUS
 62
     5
 10
75.843269999999848
 20
-209.52405999999999
 30
0.0
 11
79.386555000000044
 21
-204.90239500000001
 31
0.0
  0
LINE
  8
DETAIL
  6
CONTINUOUS
 62
     5
 10
54.51466500000015
 20
-201.12684999999999
 30
0.0
 11
54.51466500000015
 21
-208.36340500000011
 31
0.0
  0
LINE
  8
DETAIL
  6
CONTINUOUS
 62
     5
 10
53.166510000000017
 20
-201.21270999999999
 30
0.0
 11
53.166510000000017
 21
-208.27766500000001
 31
0.0
  0
ARC
  8
DETAIL
  6
CONTINUOUS
 62
     5
 10
74.840595000000121
 20
-206.30050000000011
 30
0.0
 40
0.51852
 50
270.0
 51
0.0
  0
ARC
  8
DETAIL
  6
CONTINUOUS
 62
     5
 10
65.507250000000113
 20
-206.30050000000011
 30
0.0
 40
0.51852
 50
180.0
 51
270.0
  0
LINE
  8
DETAIL
  6
CONTINUOUS
 62
     5
 10
55.862804999999753
 20
-201.04098999999999
 30
0.0
 11
55.862804999999753
 21
-208.44916000000001
 31
0.0
  0
LINE
  8
DETAIL
  6
CONTINUOUS
 62
     5
 10
57.210959999999893
 20
-200.95513000000011
 30
0.0
 11
57.210959999999893
 21
-208.53489999999999
 31
0.0
  0
LINE
  8
DETAIL
  6
CONTINUOUS
 62
     5
 10
58.766520000000128
 20
-200.856055
 30
0.0
 11
58.766520000000128
 21
-208.63383999999999
 31
0.0
  0
LINE
  8
DETAIL
  6
CONTINUOUS
 62
     5
 10
74.840595000000121
 20
-206.81901999999999
 30
0.0
 11
65.507250000000113
 21
-206.81901999999999
 31
0.0
  0
LINE
  8
DETAIL
  6
CONTINUOUS
 62
     5
 10
75.020265000000109
 20
-209.93013999999991
 30
0.0
 11
65.007825000000139
 21
-209.93013999999991
 31
0.0
  0
LINE
  8
DETAIL
  6
CONTINUOUS
 62
     5
 10
55.862804999999753
 20
-208.24132
 30
0.0
 11
54.51466500000015
 21
-208.15557999999999
 31
0.0
  0
LINE
  8
DETAIL
  6
CONTINUOUS
 62
     5
 10
54.51466500000015
 20
-208.36340500000011
 30
0.0
 11
53.166510000000017
 21
-208.27766500000001
 31
0.0
  0
LINE
  8
DETAIL
  6
CONTINUOUS
 62
     5
 10
57.210959999999893
 20
-208.53489999999999
 30
0.0
 11
55.862804999999753
 21
-208.44916000000001
 31
0.0
  0
ARC
  8
DETAIL
  6
CONTINUOUS
 62
     5
 10
65.007825000000139
 20
-204.744955
 30
0.0
 40
5.1851849999999997
 50
256.53292399999492
 51
270.0
  0
LINE
  8
DETAIL
  6
CONTINUOUS
 62
     5
 10
58.766520000000128
 20
-208.63383999999999
 30
0.0
 11
63.898694999999861
 21
-209.810125
 31
0.0
  0
LINE
  8
DETAIL
  6
CONTINUOUS
 62
     5
 10
58.77967499999977
 20
-208.42685499999999
 30
0.0
 11
57.210959999999893
 21
-208.32707500000001
 31
0.0
  0
ARC
  8
DETAIL
  6
CONTINUOUS
 62
     5
 10
75.020265000000109
 20
-208.8931
 30
0.0
 40
1.03704
 50
270.0
 51
322.52382000000239
  0
LINE
  8
DETAIL
  6
CONTINUOUS
 62
     5
 10
79.492035000000214
 20
-204.547135
 30
0.0
 11
78.470220000000154
 21
-191.263465
 31
0.0
  0
LINE
  8
DETAIL
  6
CONTINUOUS
 62
     5
 10
61.87762500000008
 20
-191.263465
 30
0.0
 11
61.87762500000008
 21
-197.74494999999999
 31
0.0
  0
LINE
  8
DETAIL
  6
CONTINUOUS
 62
     5
 10
75.359115000000202
 20
-200.856055
 30
0.0
 11
64.988730000000032
 21
-200.856055
 31
0.0
  0
ARC
  8
DETAIL
  6
CONTINUOUS
 62
     5
 10
58.766520000000128
 20
-197.74494999999999
 30
0.0
 40
3.1111049999999998
 50
270.0
 51
0.0
  0
LINE
  8
DETAIL
  6
CONTINUOUS
 62
     5
 10
54.51466500000015
 20
-201.12684999999999
 30
0.0
 11
53.166510000000017
 21
-201.21270999999999
 31
0.0
  0
LINE
  8
DETAIL
  6
CONTINUOUS
 62
     5
 10
55.862804999999753
 20
-205.78198
 30
0.0
 11
54.51466500000015
 21
-205.78198
 31
0.0
  0
LINE
  8
DETAIL
  6
CONTINUOUS
 62
     5
 10
57.210959999999893
 20
-200.95513000000011
 30
0.0
 11
55.862804999999753
 21
-201.04098999999999
 31
0.0
  0
LINE
  8
DETAIL
  6
CONTINUOUS
 62
     5
 10
64.988730000000032
 20
-200.856055
 30
0.0
 11
64.988730000000032
 21
-206.30050000000011
 31
0.0
  0
LINE
  8
DETAIL
  6
CONTINUOUS
 62
     5
 10
55.862804999999753
 20
-203.70791500000001
 30
0.0
 11
54.51466500000015
 21
-203.70791500000001
 31
0.0
  0
LINE
  8
DETAIL
  6
CONTINUOUS
 62
     5
 10
55.862804999999753
 20
-201.24881499999989
 30
0.0
 11
54.51466500000015
 21
-201.33467500000009
 31
0.0
  0
LINE
  8
DETAIL
  6
CONTINUOUS
 62
     5
 10
58.779704999999922
 20
-201.06305499999999
 30
0.0
 11
57.210959999999893
 21
-201.16295500000001
 31
0.0
  0
LINE
  8
DETAIL
  6
CONTINUOUS
 62
     5
 10
58.766520000000128
 20
-203.70791500000001
 30
0.0
 11
57.210959999999893
 21
-203.70791500000001
 31
0.0
  0
LINE
  8
DETAIL
  6
CONTINUOUS
 62
     5
 10
58.766520000000128
 20
-205.78198
 30
0.0
 11
57.210959999999893
 21
-205.78198
 31
0.0
  0
LINE
  8
DETAIL
  6
CONTINUOUS
 62
     5
 10
75.359115000000202
 20
-200.856055
 30
0.0
 11
75.359115000000202
 21
-206.30050000000011
 31
0.0
  0
LINE
  8
DETAIL
  6
CONTINUOUS
 62
     5
 10
78.470220000000154
 20
-191.263465
 30
0.0
 11
61.87762500000008
 21
-191.263465
 31
0.0
  0
LINE
  8
DETAIL
  6
CONTINUOUS
 62
     5
 10
73.647989999999936
 20
-187.11532
 30
0.0
 11
73.647989999999936
 21
-191.263465
 31
0.0
  0
LINE
  8
DETAIL
  6
CONTINUOUS
 62
     5
 10
66.699854999999843
 20
-187.11532
 30
0.0
 11
66.699854999999843
 21
-191.263465
 31
0.0
  0
LINE
  8
DETAIL
  6
CONTINUOUS
 62
     5
 10
73.647989999999936
 20
-187.11532
 30
0.0
 11
66.699854999999843
 21
-187.11532
 31
0.0
  0
ARC
  8
DETAIL
  6
CONTINUOUS
 62
     5
 10
78.975045000000136
 20
-204.586915
 30
0.0
 40
0.51852
 50
322.52382000000239
 51
4.3987049999997678
  0
CIRCLE
  8
DETAIL
  6
CONTINUOUS
 62
     5
 10
70.173929999999928
 20
-179.13013000000001
 30
0.0
 40
1.8148200000000001
  0
CIRCLE
  8
DETAIL
  6
CONTINUOUS
 62
     5
 10
70.173929999999928
 20
-179.13013000000001
 30
0.0
 40
1.5555600000000001
  0
LINE
  8
DETAIL
  6
CONTINUOUS
 62
     5
 10
73.440585000000283
 20
-174.56031999999999
 30
0.0
 11
66.907259999999951
 21
-174.56031999999999
 31
0.0
  0
ARC
  8
DETAIL
  6
CONTINUOUS
 62
     5
 10
70.173929999999928
 20
-179.856055
 30
0.0
 40
6.2222249999999999
 50
58.331756999991093
 51
121.6682430000089
  0
LINE
  8
DETAIL
  6
CONTINUOUS
 62
     5
 10
64.999995000000126
 20
-115.399995
 30
0.0
 11
93.744644999999764
 21
-115.399995
 31
0.0
  0
LINE
  8
DETAIL
  6
CONTINUOUS
 62
     5
 10
84.700018
 20
-116.28844100000001
 30
0.0
 11
75.299970999999914
 21
-116.28844100000001
 31
0.0
  0
LINE
  8
DETAIL
  6
CONTINUOUS
 62
     5
 10
75.299970999999914
 20
-115.999995
 30
0.0
 11
84.700018
 21
-115.999995
 31
0.0
  0
ARC
  8
DETAIL
  6
CONTINUOUS
 62
     5
 10
79.999995000000126
 20
-112.39997700000001
 30
0.0
 40
6.1000310000000004
 50
219.60196499999611
 51
320.39801699999532
  0
LINE
  8
DETAIL
  6
CONTINUOUS
 62
     5
 10
75.299970999999914
 20
-115.999995
 30
0.0
 11
75.299970999999914
 21
-116.28844100000001
 31
0.0
  0
LINE
  8
DETAIL
  6
CONTINUOUS
 62
     5
 10
84.700018
 20
-115.999995
 30
0.0
 11
84.700018
 21
-116.28844100000001
 31
0.0
  0
LINE
  8
DETAIL
  6
CONTINUOUS
 62
     5
 10
157.5
 20
-115.399995
 30
0.0
 11
157.5
 21
-140.40000000000001
 31
0.0
  0
LINE
  8
DETAIL
  6
CONTINUOUS
 62
     5
 10
129.99999000000031
 20
-115.399995
 30
0.0
 11
120.0
 21
-115.399995
 31
0.0
  0
LINE
  8
DETAIL
  6
CONTINUOUS
 62
     5
 10
159.61999499999999
 20
-121.399995
 30
0.0
 11
157.5
 21
-121.399995
 31
0.0
  0
LINE
  8
DETAIL
  6
CONTINUOUS
 62
     5
 10
-165.0
 20
-9.9999900000000252
 30
0.0
 11
-156.0
 21
-9.9999900000000252
 31
0.0
  0
LINE
  8
DETAIL
  6
CONTINUOUS
 62
     5
 10
-165.0
 20
-39.999990000000032
 30
0.0
 11
-156.0
 21
-39.999990000000032
 31
0.0
  0
LINE
  8
DETAIL
  6
CONTINUOUS
 62
     5
 10
-266.0000100000002
 20
-39.999990000000032
 30
0.0
 11
-266.0000100000002
 21
-9.9999900000000252
 31
0.0
  0
LINE
  8
DETAIL
  6
CONTINUOUS
 62
     5
 10
-255.0
 20
-39.999990000000032
 30
0.0
 11
-255.0
 21
-9.9999900000000252
 31
0.0
  0
LINE
  8
DETAIL
  6
CONTINUOUS
 62
     5
 10
-264.0
 20
-39.999990000000032
 30
0.0
 11
-264.0
 21
-9.9999900000000252
 31
0.0
  0
LINE
  8
DETAIL
  6
CONTINUOUS
 62
     5
 10
-244.0000049999999
 20
-39.999990000000032
 30
0.0
 11
-244.0000049999999
 21
-9.9999900000000252
 31
0.0
  0
LINE
  8
DETAIL
  6
CONTINUOUS
 62
     5
 10
-253.0000049999999
 20
-39.999990000000032
 30
0.0
 11
-253.0000049999999
 21
-9.9999900000000252
 31
0.0
  0
LINE
  8
DETAIL
  6
CONTINUOUS
 62
     5
 10
-233.00000999999969
 20
-39.999990000000032
 30
0.0
 11
-233.00000999999969
 21
-9.9999900000000252
 31
0.0
  0
LINE
  8
DETAIL
  6
CONTINUOUS
 62
     5
 10
-242.0000100000002
 20
-39.999990000000032
 30
0.0
 11
-242.0000100000002
 21
-9.9999900000000252
 31
0.0
  0
LINE
  8
DETAIL
  6
CONTINUOUS
 62
     5
 10
-222.0
 20
-39.999990000000032
 30
0.0
 11
-222.0
 21
-9.9999900000000252
 31
0.0
  0
LINE
  8
DETAIL
  6
CONTINUOUS
 62
     5
 10
-231.0
 20
-39.999990000000032
 30
0.0
 11
-231.0
 21
-9.9999900000000252
 31
0.0
  0
LINE
  8
DETAIL
  6
CONTINUOUS
 62
     5
 10
-211.0000049999999
 20
-39.999990000000032
 30
0.0
 11
-211.0000049999999
 21
-9.9999900000000252
 31
0.0
  0
LINE
  8
DETAIL
  6
CONTINUOUS
 62
     5
 10
-220.0000049999999
 20
-39.999990000000032
 30
0.0
 11
-220.0000049999999
 21
-9.9999900000000252
 31
0.0
  0
LINE
  8
DETAIL
  6
CONTINUOUS
 62
     5
 10
-200.00000999999969
 20
-39.999990000000032
 30
0.0
 11
-200.00000999999969
 21
-9.9999900000000252
 31
0.0
  0
LINE
  8
DETAIL
  6
CONTINUOUS
 62
     5
 10
-209.00000999999969
 20
-39.999990000000032
 30
0.0
 11
-209.00000999999969
 21
-9.9999900000000252
 31
0.0
  0
LINE
  8
DETAIL
  6
CONTINUOUS
 62
     5
 10
-189.0
 20
-39.999990000000032
 30
0.0
 11
-189.0
 21
-9.9999900000000252
 31
0.0
  0
LINE
  8
DETAIL
  6
CONTINUOUS
 62
     5
 10
-198.0
 20
-39.999990000000032
 30
0.0
 11
-198.0
 21
-9.9999900000000252
 31
0.0
  0
LINE
  8
DETAIL
  6
CONTINUOUS
 62
     5
 10
-178.0000049999999
 20
-39.999990000000032
 30
0.0
 11
-178.0000049999999
 21
-9.9999900000000252
 31
0.0
  0
LINE
  8
DETAIL
  6
CONTINUOUS
 62
     5
 10
-187.0000049999999
 20
-39.999990000000032
 30
0.0
 11
-187.0000049999999
 21
-9.9999900000000252
 31
0.0
  0
LINE
  8
DETAIL
  6
CONTINUOUS
 62
     5
 10
-167.00000999999969
 20
-39.999990000000032
 30
0.0
 11
-167.00000999999969
 21
-9.9999900000000252
 31
0.0
  0
LINE
  8
DETAIL
  6
CONTINUOUS
 62
     5
 10
-176.00000999999969
 20
-39.999990000000032
 30
0.0
 11
-176.00000999999969
 21
-9.9999900000000252
 31
0.0
  0
LINE
  8
DETAIL
  6
CONTINUOUS
 62
     5
 10
-165.0
 20
-39.999990000000032
 30
0.0
 11
-165.0
 21
-9.9999900000000252
 31
0.0
  0
LINE
  8
DETAIL
  6
CONTINUOUS
 62
     5
 10
-220.0000049999999
 20
-39.999990000000032
 30
0.0
 11
-211.0000049999999
 21
-39.999990000000032
 31
0.0
  0
LINE
  8
DETAIL
  6
CONTINUOUS
 62
     5
 10
-264.0
 20
-39.999990000000032
 30
0.0
 11
-255.0
 21
-39.999990000000032
 31
0.0
  0
LINE
  8
DETAIL
  6
CONTINUOUS
 62
     5
 10
-253.0000049999999
 20
-39.999990000000032
 30
0.0
 11
-244.0000049999999
 21
-39.999990000000032
 31
0.0
  0
LINE
  8
DETAIL
  6
CONTINUOUS
 62
     5
 10
-231.0
 20
-39.999990000000032
 30
0.0
 11
-222.0
 21
-39.999990000000032
 31
0.0
  0
LINE
  8
DETAIL
  6
CONTINUOUS
 62
     5
 10
-242.0000100000002
 20
-39.999990000000032
 30
0.0
 11
-233.00000999999969
 21
-39.999990000000032
 31
0.0
  0
LINE
  8
DETAIL
  6
CONTINUOUS
 62
     5
 10
-198.0
 20
-39.999990000000032
 30
0.0
 11
-189.0
 21
-39.999990000000032
 31
0.0
  0
LINE
  8
DETAIL
  6
CONTINUOUS
 62
     5
 10
-209.00000999999969
 20
-39.999990000000032
 30
0.0
 11
-200.00000999999969
 21
-39.999990000000032
 31
0.0
  0
LINE
  8
DETAIL
  6
CONTINUOUS
 62
     5
 10
-187.0000049999999
 20
-39.999990000000032
 30
0.0
 11
-178.0000049999999
 21
-39.999990000000032
 31
0.0
  0
LINE
  8
DETAIL
  6
CONTINUOUS
 62
     5
 10
-176.00000999999969
 20
-39.999990000000032
 30
0.0
 11
-167.00000999999969
 21
-39.999990000000032
 31
0.0
  0
LINE
  8
DETAIL
  6
CONTINUOUS
 62
     5
 10
-220.0000049999999
 20
-9.9999900000000252
 30
0.0
 11
-211.0000049999999
 21
-9.9999900000000252
 31
0.0
  0
LINE
  8
DETAIL
  6
CONTINUOUS
 62
     5
 10
-264.0
 20
-9.9999900000000252
 30
0.0
 11
-255.0
 21
-9.9999900000000252
 31
0.0
  0
LINE
  8
DETAIL
  6
CONTINUOUS
 62
     5
 10
-253.0000049999999
 20
-9.9999900000000252
 30
0.0
 11
-244.0000049999999
 21
-9.9999900000000252
 31
0.0
  0
LINE
  8
DETAIL
  6
CONTINUOUS
 62
     5
 10
-231.0
 20
-9.9999900000000252
 30
0.0
 11
-222.0
 21
-9.9999900000000252
 31
0.0
  0
LINE
  8
DETAIL
  6
CONTINUOUS
 62
     5
 10
-242.0000100000002
 20
-9.9999900000000252
 30
0.0
 11
-233.00000999999969
 21
-9.9999900000000252
 31
0.0
  0
LINE
  8
DETAIL
  6
CONTINUOUS
 62
     5
 10
-198.0
 20
-9.9999900000000252
 30
0.0
 11
-189.0
 21
-9.9999900000000252
 31
0.0
  0
LINE
  8
DETAIL
  6
CONTINUOUS
 62
     5
 10
-209.00000999999969
 20
-9.9999900000000252
 30
0.0
 11
-200.00000999999969
 21
-9.9999900000000252
 31
0.0
  0
LINE
  8
DETAIL
  6
CONTINUOUS
 62
     5
 10
-187.0000049999999
 20
-9.9999900000000252
 30
0.0
 11
-178.0000049999999
 21
-9.9999900000000252
 31
0.0
  0
LINE
  8
DETAIL
  6
CONTINUOUS
 62
     5
 10
-176.00000999999969
 20
-9.9999900000000252
 30
0.0
 11
-167.00000999999969
 21
-9.9999900000000252
 31
0.0
  0
LINE
  8
DETAIL
  6
CONTINUOUS
 62
     5
 10
-156.0
 20
-39.999990000000032
 30
0.0
 11
-156.0
 21
-9.9999900000000252
 31
0.0
  0
LINE
  8
DETAIL
  6
CONTINUOUS
 62
     5
 10
-145.0000049999999
 20
-39.999990000000032
 30
0.0
 11
-145.0000049999999
 21
-9.9999900000000252
 31
0.0
  0
LINE
  8
DETAIL
  6
CONTINUOUS
 62
     5
 10
-154.0000049999999
 20
-39.999990000000032
 30
0.0
 11
-154.0000049999999
 21
-9.9999900000000252
 31
0.0
  0
LINE
  8
DETAIL
  6
CONTINUOUS
 62
     5
 10
-134.00000999999969
 20
-39.999990000000032
 30
0.0
 11
-134.00000999999969
 21
-9.9999900000000252
 31
0.0
  0
LINE
  8
DETAIL
  6
CONTINUOUS
 62
     5
 10
-143.00000999999969
 20
-39.999990000000032
 30
0.0
 11
-143.00000999999969
 21
-9.9999900000000252
 31
0.0
  0
LINE
  8
DETAIL
  6
CONTINUOUS
 62
     5
 10
-123.0
 20
-39.999990000000032
 30
0.0
 11
-123.0
 21
-9.9999900000000252
 31
0.0
  0
LINE
  8
DETAIL
  6
CONTINUOUS
 62
     5
 10
-132.0
 20
-39.999990000000032
 30
0.0
 11
-132.0
 21
-9.9999900000000252
 31
0.0
  0
LINE
  8
DETAIL
  6
CONTINUOUS
 62
     5
 10
-112.0000049999999
 20
-39.999990000000032
 30
0.0
 11
-112.0000049999999
 21
-9.9999900000000252
 31
0.0
  0
LINE
  8
DETAIL
  6
CONTINUOUS
 62
     5
 10
-121.0000049999999
 20
-39.999990000000032
 30
0.0
 11
-121.0000049999999
 21
-9.9999900000000252
 31
0.0
  0
LINE
  8
DETAIL
  6
CONTINUOUS
 62
     5
 10
-101.0000099999997
 20
-39.999990000000032
 30
0.0
 11
-101.0000099999997
 21
-9.9999900000000252
 31
0.0
  0
LINE
  8
DETAIL
  6
CONTINUOUS
 62
     5
 10
-110.0000099999997
 20
-39.999990000000032
 30
0.0
 11
-110.0000099999997
 21
-9.9999900000000252
 31
0.0
  0
LINE
  8
DETAIL
  6
CONTINUOUS
 62
     5
 10
-90.0
 20
-39.999990000000032
 30
0.0
 11
-90.0
 21
-9.9999900000000252
 31
0.0
  0
LINE
  8
DETAIL
  6
CONTINUOUS
 62
     5
 10
-99.0
 20
-39.999990000000032
 30
0.0
 11
-99.0
 21
-9.9999900000000252
 31
0.0
  0
LINE
  8
DETAIL
  6
CONTINUOUS
 62
     5
 10
-79.000004999999874
 20
-39.999990000000032
 30
0.0
 11
-79.000004999999874
 21
-9.9999900000000252
 31
0.0
  0
LINE
  8
DETAIL
  6
CONTINUOUS
 62
     5
 10
-88.000004999999874
 20
-39.999990000000032
 30
0.0
 11
-88.000004999999874
 21
-9.9999900000000252
 31
0.0
  0
LINE
  8
DETAIL
  6
CONTINUOUS
 62
     5
 10
-68.000009999999747
 20
-39.999990000000032
 30
0.0
 11
-68.000009999999747
 21
-9.9999900000000252
 31
0.0
  0
LINE
  8
DETAIL
  6
CONTINUOUS
 62
     5
 10
-77.000009999999747
 20
-39.999990000000032
 30
0.0
 11
-77.000009999999747
 21
-9.9999900000000252
 31
0.0
  0
LINE
  8
DETAIL
  6
CONTINUOUS
 62
     5
 10
-57.0
 20
-39.999990000000032
 30
0.0
 11
-57.0
 21
-9.9999900000000252
 31
0.0
  0
LINE
  8
DETAIL
  6
CONTINUOUS
 62
     5
 10
-66.0
 20
-39.999990000000032
 30
0.0
 11
-66.0
 21
-9.9999900000000252
 31
0.0
  0
LINE
  8
DETAIL
  6
CONTINUOUS
 62
     5
 10
-110.0000099999997
 20
-39.999990000000032
 30
0.0
 11
-101.0000099999997
 21
-39.999990000000032
 31
0.0
  0
LINE
  8
DETAIL
  6
CONTINUOUS
 62
     5
 10
-143.00000999999969
 20
-39.999990000000032
 30
0.0
 11
-134.00000999999969
 21
-39.999990000000032
 31
0.0
  0
LINE
  8
DETAIL
  6
CONTINUOUS
 62
     5
 10
-154.0000049999999
 20
-39.999990000000032
 30
0.0
 11
-145.0000049999999
 21
-39.999990000000032
 31
0.0
  0
LINE
  8
DETAIL
  6
CONTINUOUS
 62
     5
 10
-132.0
 20
-39.999990000000032
 30
0.0
 11
-123.0
 21
-39.999990000000032
 31
0.0
  0
LINE
  8
DETAIL
  6
CONTINUOUS
 62
     5
 10
-121.0000049999999
 20
-39.999990000000032
 30
0.0
 11
-112.0000049999999
 21
-39.999990000000032
 31
0.0
  0
LINE
  8
DETAIL
  6
CONTINUOUS
 62
     5
 10
-95.984927999999854
 20
-59.484922999999981
 30
0.0
 11
-93.015072000000146
 21
-56.515056999999963
 31
0.0
  0
LINE
  8
DETAIL
  6
CONTINUOUS
 62
     5
 10
-93.015066999999817
 20
-59.484917999999993
 30
0.0
 11
-95.984933000000183
 21
-56.515061999999944
 31
0.0
  0
LINE
  8
DETAIL
  6
CONTINUOUS
 62
     5
 10
-88.000004999999874
 20
-39.999990000000032
 30
0.0
 11
-79.000004999999874
 21
-39.999990000000032
 31
0.0
  0
LINE
  8
DETAIL
  6
CONTINUOUS
 62
     5
 10
-99.0
 20
-39.999990000000032
 30
0.0
 11
-90.0
 21
-39.999990000000032
 31
0.0
  0
LINE
  8
DETAIL
  6
CONTINUOUS
 62
     5
 10
-77.000009999999747
 20
-39.999990000000032
 30
0.0
 11
-68.000009999999747
 21
-39.999990000000032
 31
0.0
  0
LINE
  8
DETAIL
  6
CONTINUOUS
 62
     5
 10
-66.0
 20
-39.999990000000032
 30
0.0
 11
-57.0
 21
-39.999990000000032
 31
0.0
  0
LINE
  8
DETAIL
  6
CONTINUOUS
 62
     5
 10
-110.0000099999997
 20
-9.9999900000000252
 30
0.0
 11
-101.0000099999997
 21
-9.9999900000000252
 31
0.0
  0
ARC
  8
DETAIL
  6
CONTINUOUS
 62
     5
 10
-135.0
 20
-3.6000179999999768
 30
0.0
 40
6.1000310000000004
 50
39.601964999996078
 51
140.39801699999529
  0
LINE
  8
DETAIL
  6
CONTINUOUS
 62
     5
 10
-143.00000999999969
 20
-9.9999900000000252
 30
0.0
 11
-134.00000999999969
 21
-9.9999900000000252
 31
0.0
  0
LINE
  8
DETAIL
  6
CONTINUOUS
 62
     5
 10
-139.70002399999979
 20
0.2884460000000217
 30
0.0
 11
-130.2999770000001
 21
0.2884460000000217
 31
0.0
  0
LINE
  8
DETAIL
  6
CONTINUOUS
 62
     5
 10
-130.2999770000001
 20
0.0
 30
0.0
 11
-139.70002399999979
 21
0.0
 31
0.0
  0
LINE
  8
DETAIL
  6
CONTINUOUS
 62
     5
 10
-154.0000049999999
 20
-9.9999900000000252
 30
0.0
 11
-145.0000049999999
 21
-9.9999900000000252
 31
0.0
  0
LINE
  8
DETAIL
  6
CONTINUOUS
 62
     5
 10
-139.70002399999979
 20
0.0
 30
0.0
 11
-139.70002399999979
 21
0.2884460000000217
 31
0.0
  0
LINE
  8
DETAIL
  6
CONTINUOUS
 62
     5
 10
-132.0
 20
-9.9999900000000252
 30
0.0
 11
-123.0
 21
-9.9999900000000252
 31
0.0
  0
LINE
  8
DETAIL
  6
CONTINUOUS
 62
     5
 10
-121.0000049999999
 20
-9.9999900000000252
 30
0.0
 11
-112.0000049999999
 21
-9.9999900000000252
 31
0.0
  0
LINE
  8
DETAIL
  6
CONTINUOUS
 62
     5
 10
-130.2999770000001
 20
0.0
 30
0.0
 11
-130.2999770000001
 21
0.2884460000000217
 31
0.0
  0
LINE
  8
DETAIL
  6
CONTINUOUS
 62
     5
 10
-88.000004999999874
 20
-9.9999900000000252
 30
0.0
 11
-79.000004999999874
 21
-9.9999900000000252
 31
0.0
  0
LINE
  8
DETAIL
  6
CONTINUOUS
 62
     5
 10
-99.0
 20
-9.9999900000000252
 30
0.0
 11
-90.0
 21
-9.9999900000000252
 31
0.0
  0
LINE
  8
DETAIL
  6
CONTINUOUS
 62
     5
 10
-77.000009999999747
 20
-9.9999900000000252
 30
0.0
 11
-68.000009999999747
 21
-9.9999900000000252
 31
0.0
  0
LINE
  8
DETAIL
  6
CONTINUOUS
 62
     5
 10
-66.0
 20
-9.9999900000000252
 30
0.0
 11
-57.0
 21
-9.9999900000000252
 31
0.0
  0
LINE
  8
DETAIL
  6
CONTINUOUS
 62
     5
 10
43.999995000000133
 20
-9.9999900000000252
 30
0.0
 11
52.999995000000133
 21
-9.9999900000000252
 31
0.0
  0
LINE
  8
DETAIL
  6
CONTINUOUS
 62
     5
 10
43.999995000000133
 20
-39.999990000000032
 30
0.0
 11
52.999995000000133
 21
-39.999990000000032
 31
0.0
  0
LINE
  8
DETAIL
  6
CONTINUOUS
 62
     5
 10
-46.000004999999867
 20
-39.999990000000032
 30
0.0
 11
-46.000004999999867
 21
-9.9999900000000252
 31
0.0
  0
LINE
  8
DETAIL
  6
CONTINUOUS
 62
     5
 10
-55.000004999999867
 20
-39.999990000000032
 30
0.0
 11
-55.000004999999867
 21
-9.9999900000000252
 31
0.0
  0
LINE
  8
DETAIL
  6
CONTINUOUS
 62
     5
 10
-35.000009999999747
 20
-39.999990000000032
 30
0.0
 11
-35.000009999999747
 21
-9.9999900000000252
 31
0.0
  0
LINE
  8
DETAIL
  6
CONTINUOUS
 62
     5
 10
-44.000009999999747
 20
-39.999990000000032
 30
0.0
 11
-44.000009999999747
 21
-9.9999900000000252
 31
0.0
  0
LINE
  8
DETAIL
  6
CONTINUOUS
 62
     5
 10
-24.0
 20
-39.999990000000032
 30
0.0
 11
-24.0
 21
-9.9999900000000252
 31
0.0
  0
LINE
  8
DETAIL
  6
CONTINUOUS
 62
     5
 10
-33.0
 20
-39.999990000000032
 30
0.0
 11
-33.0
 21
-9.9999900000000252
 31
0.0
  0
LINE
  8
DETAIL
  6
CONTINUOUS
 62
     5
 10
-13.00000499999987
 20
-39.999990000000032
 30
0.0
 11
-13.00000499999987
 21
-9.9999900000000252
 31
0.0
  0
LINE
  8
DETAIL
  6
CONTINUOUS
 62
     5
 10
-22.00000499999987
 20
-39.999990000000032
 30
0.0
 11
-22.00000499999987
 21
-9.9999900000000252
 31
0.0
  0
LINE
  8
DETAIL
  6
CONTINUOUS
 62
     5
 10
-2.0000099999997469
 20
-39.999990000000032
 30
0.0
 11
-2.0000099999997469
 21
-9.9999900000000252
 31
0.0
  0
LINE
  8
DETAIL
  6
CONTINUOUS
 62
     5
 10
-11.000009999999749
 20
-39.999990000000032
 30
0.0
 11
-11.000009999999749
 21
-9.9999900000000252
 31
0.0
  0
LINE
  8
DETAIL
  6
CONTINUOUS
 62
     5
 10
9.0
 20
-39.999990000000032
 30
0.0
 11
9.0
 21
-9.9999900000000252
 31
0.0
  0
LINE
  8
DETAIL
  6
CONTINUOUS
 62
     5
 10
0.0
 20
-39.999990000000032
 30
0.0
 11
0.0
 21
-9.9999900000000252
 31
0.0
  0
LINE
  8
DETAIL
  6
CONTINUOUS
 62
     5
 10
19.99999500000013
 20
-39.999990000000032
 30
0.0
 11
19.99999500000013
 21
-9.9999900000000252
 31
0.0
  0
LINE
  8
DETAIL
  6
CONTINUOUS
 62
     5
 10
10.99999500000013
 20
-39.999990000000032
 30
0.0
 11
10.99999500000013
 21
-9.9999900000000252
 31
0.0
  0
LINE
  8
DETAIL
  6
CONTINUOUS
 62
     5
 10
30.999990000000249
 20
-39.999990000000032
 30
0.0
 11
30.999990000000249
 21
-9.9999900000000252
 31
0.0
  0
LINE
  8
DETAIL
  6
CONTINUOUS
 62
     5
 10
21.999990000000249
 20
-39.999990000000032
 30
0.0
 11
21.999990000000249
 21
-9.9999900000000252
 31
0.0
  0
LINE
  8
DETAIL
  6
CONTINUOUS
 62
     5
 10
42.0
 20
-39.999990000000032
 30
0.0
 11
42.0
 21
-9.9999900000000252
 31
0.0
  0
LINE
  8
DETAIL
  6
CONTINUOUS
 62
     5
 10
33.0
 20
-39.999990000000032
 30
0.0
 11
33.0
 21
-9.9999900000000252
 31
0.0
  0
LINE
  8
DETAIL
  6
CONTINUOUS
 62
     5
 10
43.999995000000133
 20
-39.999990000000032
 30
0.0
 11
43.999995000000133
 21
-9.9999900000000252
 31
0.0
  0
LINE
  8
DETAIL
  6
CONTINUOUS
 62
     5
 10
-1.4849279999998539
 20
-59.484922999999981
 30
0.0
 11
1.4849279999998539
 21
-56.515056999999963
 31
0.0
  0
LINE
  8
DETAIL
  6
CONTINUOUS
 62
     5
 10
1.484933000000183
 20
-59.484917999999993
 30
0.0
 11
-1.484933000000183
 21
-56.515061999999944
 31
0.0
  0
LINE
  8
DETAIL
  6
CONTINUOUS
 62
     5
 10
-33.0
 20
-39.999990000000032
 30
0.0
 11
-24.0
 21
-39.999990000000032
 31
0.0
  0
LINE
  8
DETAIL
  6
CONTINUOUS
 62
     5
 10
-44.000009999999747
 20
-39.999990000000032
 30
0.0
 11
-35.000009999999747
 21
-39.999990000000032
 31
0.0
  0
LINE
  8
DETAIL
  6
CONTINUOUS
 62
     5
 10
-55.000004999999867
 20
-39.999990000000032
 30
0.0
 11
-46.000004999999867
 21
-39.999990000000032
 31
0.0
  0
LINE
  8
DETAIL
  6
CONTINUOUS
 62
     5
 10
-22.00000499999987
 20
-39.999990000000032
 30
0.0
 11
-13.00000499999987
 21
-39.999990000000032
 31
0.0
  0
LINE
  8
DETAIL
  6
CONTINUOUS
 62
     5
 10
-11.000009999999749
 20
-39.999990000000032
 30
0.0
 11
-2.0000099999997469
 21
-39.999990000000032
 31
0.0
  0
LINE
  8
DETAIL
  6
CONTINUOUS
 62
     5
 10
21.999990000000249
 20
-39.999990000000032
 30
0.0
 11
30.999990000000249
 21
-39.999990000000032
 31
0.0
  0
LINE
  8
DETAIL
  6
CONTINUOUS
 62
     5
 10
10.99999500000013
 20
-39.999990000000032
 30
0.0
 11
19.99999500000013
 21
-39.999990000000032
 31
0.0
  0
LINE
  8
DETAIL
  6
CONTINUOUS
 62
     5
 10
0.0
 20
-39.999990000000032
 30
0.0
 11
9.0
 21
-39.999990000000032
 31
0.0
  0
LINE
  8
DETAIL
  6
CONTINUOUS
 62
     5
 10
33.0
 20
-39.999990000000032
 30
0.0
 11
42.0
 21
-39.999990000000032
 31
0.0
  0
LINE
  8
DETAIL
  6
CONTINUOUS
 62
     5
 10
-33.0
 20
-9.9999900000000252
 30
0.0
 11
-24.0
 21
-9.9999900000000252
 31
0.0
  0
LINE
  8
DETAIL
  6
CONTINUOUS
 62
     5
 10
-44.000009999999747
 20
-9.9999900000000252
 30
0.0
 11
-35.000009999999747
 21
-9.9999900000000252
 31
0.0
  0
LINE
  8
DETAIL
  6
CONTINUOUS
 62
     5
 10
-55.000004999999867
 20
-9.9999900000000252
 30
0.0
 11
-46.000004999999867
 21
-9.9999900000000252
 31
0.0
  0
LINE
  8
DETAIL
  6
CONTINUOUS
 62
     5
 10
-22.00000499999987
 20
-9.9999900000000252
 30
0.0
 11
-13.00000499999987
 21
-9.9999900000000252
 31
0.0
  0
LINE
  8
DETAIL
  6
CONTINUOUS
 62
     5
 10
-11.000009999999749
 20
-9.9999900000000252
 30
0.0
 11
-2.0000099999997469
 21
-9.9999900000000252
 31
0.0
  0
LINE
  8
DETAIL
  6
CONTINUOUS
 62
     5
 10
21.999990000000249
 20
-9.9999900000000252
 30
0.0
 11
30.999990000000249
 21
-9.9999900000000252
 31
0.0
  0
LINE
  8
DETAIL
  6
CONTINUOUS
 62
     5
 10
10.99999500000013
 20
-9.9999900000000252
 30
0.0
 11
19.99999500000013
 21
-9.9999900000000252
 31
0.0
  0
LINE
  8
DETAIL
  6
CONTINUOUS
 62
     5
 10
0.0
 20
-9.9999900000000252
 30
0.0
 11
9.0
 21
-9.9999900000000252
 31
0.0
  0
LINE
  8
DETAIL
  6
CONTINUOUS
 62
     5
 10
33.0
 20
-9.9999900000000252
 30
0.0
 11
42.0
 21
-9.9999900000000252
 31
0.0
  0
LINE
  8
DETAIL
  6
CONTINUOUS
 62
     5
 10
52.999995000000133
 20
-39.999990000000032
 30
0.0
 11
52.999995000000133
 21
-9.9999900000000252
 31
0.0
  0
LINE
  8
DETAIL
  6
CONTINUOUS
 62
     5
 10
63.999990000000253
 20
-39.999990000000032
 30
0.0
 11
63.999990000000253
 21
-9.9999900000000252
 31
0.0
  0
LINE
  8
DETAIL
  6
CONTINUOUS
 62
     5
 10
54.999990000000253
 20
-39.999990000000032
 30
0.0
 11
54.999990000000253
 21
-9.9999900000000252
 31
0.0
  0
LINE
  8
DETAIL
  6
CONTINUOUS
 62
     5
 10
75.0
 20
-39.999990000000032
 30
0.0
 11
75.0
 21
-9.9999900000000252
 31
0.0
  0
LINE
  8
DETAIL
  6
CONTINUOUS
 62
     5
 10
66.0
 20
-39.999990000000032
 30
0.0
 11
66.0
 21
-9.9999900000000252
 31
0.0
  0
LINE
  8
DETAIL
  6
CONTINUOUS
 62
     5
 10
85.999995000000126
 20
-39.999990000000032
 30
0.0
 11
85.999995000000126
 21
-9.9999900000000252
 31
0.0
  0
LINE
  8
DETAIL
  6
CONTINUOUS
 62
     5
 10
76.999995000000126
 20
-39.999990000000032
 30
0.0
 11
76.999995000000126
 21
-9.9999900000000252
 31
0.0
  0
LINE
  8
DETAIL
  6
CONTINUOUS
 62
     5
 10
96.999990000000253
 20
-39.999990000000032
 30
0.0
 11
96.999990000000253
 21
-9.9999900000000252
 31
0.0
  0
LINE
  8
DETAIL
  6
CONTINUOUS
 62
     5
 10
87.999990000000253
 20
-39.999990000000032
 30
0.0
 11
87.999990000000253
 21
-9.9999900000000252
 31
0.0
  0
LINE
  8
DETAIL
  6
CONTINUOUS
 62
     5
 10
108.0
 20
-39.999990000000032
 30
0.0
 11
108.0
 21
-9.9999900000000252
 31
0.0
  0
LINE
  8
DETAIL
  6
CONTINUOUS
 62
     5
 10
99.0
 20
-39.999990000000032
 30
0.0
 11
99.0
 21
-9.9999900000000252
 31
0.0
  0
LINE
  8
DETAIL
  6
CONTINUOUS
 62
     5
 10
118.9999950000001
 20
-39.999990000000032
 30
0.0
 11
118.9999950000001
 21
-9.9999900000000252
 31
0.0
  0
LINE
  8
DETAIL
  6
CONTINUOUS
 62
     5
 10
109.9999950000001
 20
-39.999990000000032
 30
0.0
 11
109.9999950000001
 21
-9.9999900000000252
 31
0.0
  0
LINE
  8
DETAIL
  6
CONTINUOUS
 62
     5
 10
129.99999000000031
 20
-39.999990000000032
 30
0.0
 11
129.99999000000031
 21
-9.9999900000000252
 31
0.0
  0
LINE
  8
DETAIL
  6
CONTINUOUS
 62
     5
 10
120.9999900000003
 20
-39.999990000000032
 30
0.0
 11
120.9999900000003
 21
-9.9999900000000252
 31
0.0
  0
LINE
  8
DETAIL
  6
CONTINUOUS
 62
     5
 10
141.0
 20
-39.999990000000032
 30
0.0
 11
141.0
 21
-9.9999900000000252
 31
0.0
  0
LINE
  8
DETAIL
  6
CONTINUOUS
 62
     5
 10
132.0
 20
-39.999990000000032
 30
0.0
 11
132.0
 21
-9.9999900000000252
 31
0.0
  0
LINE
  8
DETAIL
  6
CONTINUOUS
 62
     5
 10
151.9999950000001
 20
-39.999990000000032
 30
0.0
 11
151.9999950000001
 21
-9.9999900000000252
 31
0.0
  0
LINE
  8
DETAIL
  6
CONTINUOUS
 62
     5
 10
142.9999950000001
 20
-39.999990000000032
 30
0.0
 11
142.9999950000001
 21
-9.9999900000000252
 31
0.0
  0
LINE
  8
DETAIL
  6
CONTINUOUS
 62
     5
 10
153.99999000000031
 20
-39.999990000000032
 30
0.0
 11
153.99999000000031
 21
-9.9999900000000252
 31
0.0
  0
LINE
  8
DETAIL
  6
CONTINUOUS
 62
     5
 10
99.0
 20
-39.999990000000032
 30
0.0
 11
108.0
 21
-39.999990000000032
 31
0.0
  0
LINE
  8
DETAIL
  6
CONTINUOUS
 62
     5
 10
93.015072000000146
 20
-59.484922999999981
 30
0.0
 11
95.984927999999854
 21
-56.515056999999963
 31
0.0
  0
LINE
  8
DETAIL
  6
CONTINUOUS
 62
     5
 10
95.984932999999728
 20
-59.484917999999993
 30
0.0
 11
93.015067000000272
 21
-56.515061999999944
 31
0.0
  0
LINE
  8
DETAIL
  6
CONTINUOUS
 62
     5
 10
76.999995000000126
 20
-39.999990000000032
 30
0.0
 11
85.999995000000126
 21
-39.999990000000032
 31
0.0
  0
LINE
  8
DETAIL
  6
CONTINUOUS
 62
     5
 10
54.999990000000253
 20
-39.999990000000032
 30
0.0
 11
63.999990000000253
 21
-39.999990000000032
 31
0.0
  0
LINE
  8
DETAIL
  6
CONTINUOUS
 62
     5
 10
66.0
 20
-39.999990000000032
 30
0.0
 11
75.0
 21
-39.999990000000032
 31
0.0
  0
LINE
  8
DETAIL
  6
CONTINUOUS
 62
     5
 10
87.999990000000253
 20
-39.999990000000032
 30
0.0
 11
96.999990000000253
 21
-39.999990000000032
 31
0.0
  0
LINE
  8
DETAIL
  6
CONTINUOUS
 62
     5
 10
132.0
 20
-39.999990000000032
 30
0.0
 11
141.0
 21
-39.999990000000032
 31
0.0
  0
LINE
  8
DETAIL
  6
CONTINUOUS
 62
     5
 10
109.9999950000001
 20
-39.999990000000032
 30
0.0
 11
118.9999950000001
 21
-39.999990000000032
 31
0.0
  0
LINE
  8
DETAIL
  6
CONTINUOUS
 62
     5
 10
120.9999900000003
 20
-39.999990000000032
 30
0.0
 11
129.99999000000031
 21
-39.999990000000032
 31
0.0
  0
LINE
  8
DETAIL
  6
CONTINUOUS
 62
     5
 10
142.9999950000001
 20
-39.999990000000032
 30
0.0
 11
151.9999950000001
 21
-39.999990000000032
 31
0.0
  0
LINE
  8
DETAIL
  6
CONTINUOUS
 62
     5
 10
99.0
 20
-9.9999900000000252
 30
0.0
 11
108.0
 21
-9.9999900000000252
 31
0.0
  0
LINE
  8
DETAIL
  6
CONTINUOUS
 62
     5
 10
76.999995000000126
 20
-9.9999900000000252
 30
0.0
 11
85.999995000000126
 21
-9.9999900000000252
 31
0.0
  0
LINE
  8
DETAIL
  6
CONTINUOUS
 62
     5
 10
54.999990000000253
 20
-9.9999900000000252
 30
0.0
 11
63.999990000000253
 21
-9.9999900000000252
 31
0.0
  0
LINE
  8
DETAIL
  6
CONTINUOUS
 62
     5
 10
66.0
 20
-9.9999900000000252
 30
0.0
 11
75.0
 21
-9.9999900000000252
 31
0.0
  0
LINE
  8
DETAIL
  6
CONTINUOUS
 62
     5
 10
87.999990000000253
 20
-9.9999900000000252
 30
0.0
 11
96.999990000000253
 21
-9.9999900000000252
 31
0.0
  0
ARC
  8
DETAIL
  6
CONTINUOUS
 62
     5
 10
135.0
 20
-3.6000179999999768
 30
0.0
 40
6.1000310000000004
 50
39.601964999996078
 51
140.39801699999529
  0
LINE
  8
DETAIL
  6
CONTINUOUS
 62
     5
 10
130.29997600000021
 20
0.2884460000000217
 30
0.0
 11
139.7000229999999
 21
0.2884460000000217
 31
0.0
  0
LINE
  8
DETAIL
  6
CONTINUOUS
 62
     5
 10
132.0
 20
-9.9999900000000252
 30
0.0
 11
141.0
 21
-9.9999900000000252
 31
0.0
  0
LINE
  8
DETAIL
  6
CONTINUOUS
 62
     5
 10
139.7000229999999
 20
0.0
 30
0.0
 11
130.29997600000021
 21
0.0
 31
0.0
  0
LINE
  8
DETAIL
  6
CONTINUOUS
 62
     5
 10
109.9999950000001
 20
-9.9999900000000252
 30
0.0
 11
118.9999950000001
 21
-9.9999900000000252
 31
0.0
  0
LINE
  8
DETAIL
  6
CONTINUOUS
 62
     5
 10
120.9999900000003
 20
-9.9999900000000252
 30
0.0
 11
129.99999000000031
 21
-9.9999900000000252
 31
0.0
  0
LINE
  8
DETAIL
  6
CONTINUOUS
 62
     5
 10
130.29997600000021
 20
0.0
 30
0.0
 11
130.29997600000021
 21
0.2884460000000217
 31
0.0
  0
LINE
  8
DETAIL
  6
CONTINUOUS
 62
     5
 10
142.9999950000001
 20
-9.9999900000000252
 30
0.0
 11
151.9999950000001
 21
-9.9999900000000252
 31
0.0
  0
LINE
  8
DETAIL
  6
CONTINUOUS
 62
     5
 10
139.7000229999999
 20
0.0
 30
0.0
 11
139.7000229999999
 21
0.2884460000000217
 31
0.0
  0
CIRCLE
  8
DETAIL
  6
CONTINUOUS
 62
     5
 10
394.5
 20
-57.999990000000032
 30
0.0
 40
4.700024
  0
CIRCLE
  8
DETAIL
  6
CONTINUOUS
 62
     5
 10
480.99999000000031
 20
-57.999990000000032
 30
0.0
 40
4.700024
  0
LINE
  8
DETAIL
  6
CONTINUOUS
 62
     5
 10
487.99999500000013
 20
0.0
 30
0.0
 11
487.99999500000013
 21
-115.399995
 31
0.0
  0
LINE
  8
DETAIL
  6
CONTINUOUS
 62
     5
 10
489.99999000000031
 20
-112.6999949999999
 30
0.0
 11
489.99999000000031
 21
-2.700000000000045
 31
0.0
  0
LINE
  8
DETAIL
  6
CONTINUOUS
 62
     5
 10
491.19999000000013
 20
-112.6999949999999
 30
0.0
 11
491.19999000000013
 21
-2.700000000000045
 31
0.0
  0
LINE
  8
DETAIL
  6
CONTINUOUS
 62
     5
 10
523.5
 20
-107.7
 30
0.0
 11
523.5
 21
-7.6999949999999444
 31
0.0
  0
LINE
  8
DETAIL
  6
CONTINUOUS
 62
     5
 10
489.99999000000031
 20
-112.999995
 30
0.0
 11
489.99999000000031
 21
-3.0
 31
0.0
  0
LINE
  8
DETAIL
  6
CONTINUOUS
 62
     5
 10
487.99999500000013
 20
-115.399995
 30
0.0
 11
487.99999500000013
 21
0.0
 31
0.0
  0
ARC
  8
DETAIL
  6
CONTINUOUS
 62
     5
 10
179.52039000000011
 20
-141.39999
 30
0.0
 40
1.999995
 50
181.1457629999976
 51
270.0
  0
ARC
  8
DETAIL
  6
CONTINUOUS
 62
     5
 10
326.48948999999988
 20
-140.89999499999999
 30
0.0
 40
2.5000049999999998
 50
270.0
 51
358.85423699999598
  0
ARC
  8
DETAIL
  6
CONTINUOUS
 62
     5
 10
309.47609999999992
 20
-141.39999
 30
0.0
 40
1.999995
 50
270.0
 51
358.85423699999598
  0
LINE
  8
DETAIL
  6
CONTINUOUS
 62
     5
 10
162.51049499999999
 20
-143.40000000000001
 30
0.0
 11
326.48948999999988
 21
-143.40000000000001
 31
0.0
  0
LINE
  8
DETAIL
  6
CONTINUOUS
 62
     5
 10
185.49999000000031
 20
-148.89999
 30
0.0
 11
303.49999500000013
 21
-148.89999
 31
0.0
  0
LINE
  8
DETAIL
  6
CONTINUOUS
 62
     5
 10
184.5
 20
-164.39999499999999
 30
0.0
 11
304.5
 21
-164.39999499999999
 31
0.0
  0
LINE
  8
DETAIL
  6
CONTINUOUS
 62
     5
 10
273.49999500000013
 20
-152.40000000000001
 30
0.0
 11
260.49999000000031
 21
-152.40000000000001
 31
0.0
  0
ARC
  8
DETAIL
  6
CONTINUOUS
 62
     5
 10
214.5
 20
-163.39999
 30
0.0
 40
1.000005
 50
180.0
 51
270.0
  0
LINE
  8
DETAIL
  6
CONTINUOUS
 62
     5
 10
198.4999950000001
 20
-152.40000000000001
 30
0.0
 11
185.49999000000031
 21
-152.40000000000001
 31
0.0
  0
LINE
  8
DETAIL
  6
CONTINUOUS
 62
     5
 10
185.49999000000031
 20
-152.40000000000001
 30
0.0
 11
185.49999000000031
 21
-163.39999
 31
0.0
  0
LINE
  8
DETAIL
  6
CONTINUOUS
 62
     5
 10
174.4999950000001
 20
-146.89999499999999
 30
0.0
 11
174.4999950000001
 21
-162.89999499999999
 31
0.0
  0
LINE
  8
DETAIL
  6
CONTINUOUS
 62
     5
 10
175.9999950000001
 20
-164.39999499999999
 30
0.0
 11
184.5
 21
-164.39999499999999
 31
0.0
  0
ARC
  8
DETAIL
  6
CONTINUOUS
 62
     5
 10
184.5
 20
-163.39999
 30
0.0
 40
1.000005
 50
270.0
 51
0.0
  0
ARC
  8
DETAIL
  6
CONTINUOUS
 62
     5
 10
175.9999950000001
 20
-162.89999499999999
 30
0.0
 40
1.5
 50
180.0
 51
270.0
  0
LINE
  8
DETAIL
  6
CONTINUOUS
 62
     5
 10
185.49999000000031
 20
-143.40000000000001
 30
0.0
 11
160.9999950000001
 21
-143.40000000000001
 31
0.0
  0
ARC
  8
DETAIL
  6
CONTINUOUS
 62
     5
 10
172.9999950000001
 20
-146.89999499999999
 30
0.0
 40
1.5
 50
0.0
 51
90.0
  0
LINE
  8
DETAIL
  6
CONTINUOUS
 62
     5
 10
163.79997099999991
 20
-145.68844100000001
 30
0.0
 11
173.20001899999991
 21
-145.68844100000001
 31
0.0
  0
LINE
  8
DETAIL
  6
CONTINUOUS
 62
     5
 10
173.20001899999991
 20
-145.39999499999999
 30
0.0
 11
173.20001899999991
 21
-145.68844100000001
 31
0.0
  0
LINE
  8
DETAIL
  6
CONTINUOUS
 62
     5
 10
163.79997099999991
 20
-145.39999499999999
 30
0.0
 11
163.79997099999991
 21
-145.68844100000001
 31
0.0
  0
LINE
  8
DETAIL
  6
CONTINUOUS
 62
     5
 10
173.20001899999991
 20
-145.39999499999999
 30
0.0
 11
163.79997099999991
 21
-145.39999499999999
 31
0.0
  0
ARC
  8
DETAIL
  6
CONTINUOUS
 62
     5
 10
168.4999950000001
 20
-141.79997700000001
 30
0.0
 40
6.1000310000000004
 50
219.60198300000479
 51
320.39803500000392
  0
LINE
  8
DETAIL
  6
CONTINUOUS
 62
     5
 10
160.9999950000001
 20
-143.40000000000001
 30
0.0
 11
160.9999950000001
 21
-145.39999499999999
 31
0.0
  0
LINE
  8
DETAIL
  6
CONTINUOUS
 62
     5
 10
172.9999950000001
 20
-145.39999499999999
 30
0.0
 11
160.9999950000001
 21
-145.39999499999999
 31
0.0
  0
LINE
  8
DETAIL
  6
CONTINUOUS
 62
     5
 10
169.9999950000001
 20
-143.40000000000001
 30
0.0
 11
169.9999950000001
 21
-145.39999499999999
 31
0.0
  0
LINE
  8
DETAIL
  6
CONTINUOUS
 62
     5
 10
185.49999000000031
 20
-143.40000000000001
 30
0.0
 11
185.49999000000031
 21
-148.89999
 31
0.0
  0
LINE
  8
DETAIL
  6
CONTINUOUS
 62
     5
 10
213.4999950000001
 20
-152.40000000000001
 30
0.0
 11
213.4999950000001
 21
-163.39999
 31
0.0
  0
LINE
  8
DETAIL
  6
CONTINUOUS
 62
     5
 10
200.49999000000031
 20
-152.40000000000001
 30
0.0
 11
200.49999000000031
 21
-163.39999
 31
0.0
  0
LINE
  8
DETAIL
  6
CONTINUOUS
 62
     5
 10
198.4999950000001
 20
-152.40000000000001
 30
0.0
 11
198.4999950000001
 21
-163.39999
 31
0.0
  0
ARC
  8
DETAIL
  6
CONTINUOUS
 62
     5
 10
199.5
 20
-163.39999
 30
0.0
 40
1.000005
 50
270.0
 51
0.0
  0
ARC
  8
DETAIL
  6
CONTINUOUS
 62
     5
 10
199.5
 20
-163.39999
 30
0.0
 40
1.000005
 50
180.0
 51
270.0
  0
LINE
  8
DETAIL
  6
CONTINUOUS
 62
     5
 10
213.4999950000001
 20
-152.40000000000001
 30
0.0
 11
200.49999000000031
 21
-152.40000000000001
 31
0.0
  0
LINE
  8
DETAIL
  6
CONTINUOUS
 62
     5
 10
243.4999950000001
 20
-152.40000000000001
 30
0.0
 11
230.49999000000031
 21
-152.40000000000001
 31
0.0
  0
LINE
  8
DETAIL
  6
CONTINUOUS
 62
     5
 10
228.4999950000001
 20
-152.40000000000001
 30
0.0
 11
228.4999950000001
 21
-163.39999
 31
0.0
  0
LINE
  8
DETAIL
  6
CONTINUOUS
 62
     5
 10
230.49999000000031
 20
-152.40000000000001
 30
0.0
 11
230.49999000000031
 21
-163.39999
 31
0.0
  0
LINE
  8
DETAIL
  6
CONTINUOUS
 62
     5
 10
215.49999000000031
 20
-152.40000000000001
 30
0.0
 11
215.49999000000031
 21
-163.39999
 31
0.0
  0
ARC
  8
DETAIL
  6
CONTINUOUS
 62
     5
 10
214.5
 20
-163.39999
 30
0.0
 40
1.000005
 50
270.0
 51
0.0
  0
ARC
  8
DETAIL
  6
CONTINUOUS
 62
     5
 10
229.5
 20
-163.39999
 30
0.0
 40
1.000005
 50
180.0
 51
270.0
  0
ARC
  8
DETAIL
  6
CONTINUOUS
 62
     5
 10
229.5
 20
-163.39999
 30
0.0
 40
1.000005
 50
270.0
 51
0.0
  0
LINE
  8
DETAIL
  6
CONTINUOUS
 62
     5
 10
228.4999950000001
 20
-152.40000000000001
 30
0.0
 11
215.49999000000031
 21
-152.40000000000001
 31
0.0
  0
LINE
  8
DETAIL
  6
CONTINUOUS
 62
     5
 10
260.49999000000031
 20
-152.40000000000001
 30
0.0
 11
260.49999000000031
 21
-163.39999
 31
0.0
  0
LINE
  8
DETAIL
  6
CONTINUOUS
 62
     5
 10
258.49999500000013
 20
-152.40000000000001
 30
0.0
 11
258.49999500000013
 21
-163.39999
 31
0.0
  0
LINE
  8
DETAIL
  6
CONTINUOUS
 62
     5
 10
245.49999000000031
 20
-152.40000000000001
 30
0.0
 11
245.49999000000031
 21
-163.39999
 31
0.0
  0
LINE
  8
DETAIL
  6
CONTINUOUS
 62
     5
 10
243.4999950000001
 20
-152.40000000000001
 30
0.0
 11
243.4999950000001
 21
-163.39999
 31
0.0
  0
ARC
  8
DETAIL
  6
CONTINUOUS
 62
     5
 10
244.5
 20
-163.39999
 30
0.0
 40
1.000005
 50
270.0
 51
0.0
  0
ARC
  8
DETAIL
  6
CONTINUOUS
 62
     5
 10
244.5
 20
-163.39999
 30
0.0
 40
1.000005
 50
180.0
 51
270.0
  0
ARC
  8
DETAIL
  6
CONTINUOUS
 62
     5
 10
259.5
 20
-163.39999
 30
0.0
 40
1.000005
 50
270.0
 51
0.0
  0
ARC
  8
DETAIL
  6
CONTINUOUS
 62
     5
 10
259.5
 20
-163.39999
 30
0.0
 40
1.000005
 50
180.0
 51
270.0
  0
LINE
  8
DETAIL
  6
CONTINUOUS
 62
     5
 10
258.49999500000013
 20
-152.40000000000001
 30
0.0
 11
245.49999000000031
 21
-152.40000000000001
 31
0.0
  0
LINE
  8
DETAIL
  6
CONTINUOUS
 62
     5
 10
303.49999500000013
 20
-152.40000000000001
 30
0.0
 11
290.49999000000031
 21
-152.40000000000001
 31
0.0
  0
LINE
  8
DETAIL
  6
CONTINUOUS
 62
     5
 10
273.49999500000013
 20
-152.40000000000001
 30
0.0
 11
273.49999500000013
 21
-163.39999
 31
0.0
  0
LINE
  8
DETAIL
  6
CONTINUOUS
 62
     5
 10
275.49999000000031
 20
-152.40000000000001
 30
0.0
 11
275.49999000000031
 21
-163.39999
 31
0.0
  0
LINE
  8
DETAIL
  6
CONTINUOUS
 62
     5
 10
288.49999500000013
 20
-152.40000000000001
 30
0.0
 11
288.49999500000013
 21
-163.39999
 31
0.0
  0
LINE
  8
DETAIL
  6
CONTINUOUS
 62
     5
 10
290.49999000000031
 20
-152.40000000000001
 30
0.0
 11
290.49999000000031
 21
-163.39999
 31
0.0
  0
ARC
  8
DETAIL
  6
CONTINUOUS
 62
     5
 10
274.5
 20
-163.39999
 30
0.0
 40
1.000005
 50
180.0
 51
270.0
  0
ARC
  8
DETAIL
  6
CONTINUOUS
 62
     5
 10
274.5
 20
-163.39999
 30
0.0
 40
1.000005
 50
270.0
 51
0.0
  0
ARC
  8
DETAIL
  6
CONTINUOUS
 62
     5
 10
289.5
 20
-163.39999
 30
0.0
 40
1.000005
 50
180.0
 51
270.0
  0
ARC
  8
DETAIL
  6
CONTINUOUS
 62
     5
 10
289.5
 20
-163.39999
 30
0.0
 40
1.000005
 50
270.0
 51
0.0
  0
LINE
  8
DETAIL
  6
CONTINUOUS
 62
     5
 10
288.49999500000013
 20
-152.40000000000001
 30
0.0
 11
275.49999000000031
 21
-152.40000000000001
 31
0.0
  0
LINE
  8
DETAIL
  6
CONTINUOUS
 62
     5
 10
303.49999500000013
 20
-152.40000000000001
 30
0.0
 11
303.49999500000013
 21
-163.39999
 31
0.0
  0
LINE
  8
DETAIL
  6
CONTINUOUS
 62
     5
 10
311.49999000000031
 20
-146.89999499999999
 30
0.0
 11
311.49999000000031
 21
-162.89999499999999
 31
0.0
  0
LINE
  8
DETAIL
  6
CONTINUOUS
 62
     5
 10
304.5
 20
-164.39999499999999
 30
0.0
 11
309.99999000000031
 21
-164.39999499999999
 31
0.0
  0
ARC
  8
DETAIL
  6
CONTINUOUS
 62
     5
 10
304.5
 20
-163.39999
 30
0.0
 40
1.000005
 50
180.0
 51
270.0
  0
ARC
  8
DETAIL
  6
CONTINUOUS
 62
     5
 10
309.99999000000031
 20
-162.89999499999999
 30
0.0
 40
1.5
 50
270.0
 51
0.0
  0
LINE
  8
DETAIL
  6
CONTINUOUS
 62
     5
 10
303.49999500000013
 20
-143.40000000000001
 30
0.0
 11
319.5
 21
-143.40000000000001
 31
0.0
  0
LINE
  8
DETAIL
  6
CONTINUOUS
 62
     5
 10
303.49999500000013
 20
-143.40000000000001
 30
0.0
 11
303.49999500000013
 21
-148.89999
 31
0.0
  0
LINE
  8
DETAIL
  6
CONTINUOUS
 62
     5
 10
319.5
 20
-143.40000000000001
 30
0.0
 11
319.5
 21
-143.89999499999999
 31
0.0
  0
LINE
  8
DETAIL
  6
CONTINUOUS
 62
     5
 10
312.99999000000031
 20
-145.39999499999999
 30
0.0
 11
318.0
 21
-145.39999499999999
 31
0.0
  0
ARC
  8
DETAIL
  6
CONTINUOUS
 62
     5
 10
312.99999000000031
 20
-146.89999499999999
 30
0.0
 40
1.5
 50
90.0
 51
180.0
  0
ARC
  8
DETAIL
  6
CONTINUOUS
 62
     5
 10
318.0
 20
-143.89999499999999
 30
0.0
 40
1.5
 50
270.0
 51
0.0
  0
LINE
  8
DETAIL
  6
CONTINUOUS
 62
     5
 10
177.52080000000021
 20
-141.43999500000001
 30
0.0
 11
177.04979999999981
 21
-117.889995
 31
0.0
  0
LINE
  8
DETAIL
  6
CONTINUOUS
 62
     5
 10
164.79997600000021
 20
-119.688446
 30
0.0
 11
174.2000229999999
 21
-119.688446
 31
0.0
  0
LINE
  8
DETAIL
  6
CONTINUOUS
 62
     5
 10
174.2000229999999
 20
-119.40000000000001
 30
0.0
 11
164.79997600000021
 21
-119.40000000000001
 31
0.0
  0
ARC
  8
DETAIL
  6
CONTINUOUS
 62
     5
 10
169.5
 20
-115.799982
 30
0.0
 40
6.1000310000000004
 50
219.60198300000479
 51
320.39803500000392
  0
LINE
  8
DETAIL
  6
CONTINUOUS
 62
     5
 10
174.6999900000001
 20
-119.40000000000001
 30
0.0
 11
164.29999499999991
 21
-119.40000000000001
 31
0.0
  0
LINE
  8
DETAIL
  6
CONTINUOUS
 62
     5
 10
160.0300950000001
 20
-117.39999
 30
0.0
 11
176.54989500000011
 21
-117.39999
 31
0.0
  0
LINE
  8
DETAIL
  6
CONTINUOUS
 62
     5
 10
164.79997600000021
 20
-119.40000000000001
 30
0.0
 11
164.79997600000021
 21
-119.688446
 31
0.0
  0
ARC
  8
DETAIL
  6
CONTINUOUS
 62
     5
 10
164.29999499999991
 20
-119.09999999999999
 30
0.0
 40
0.3
 50
180.0
 51
270.0
  0
LINE
  8
DETAIL
  6
CONTINUOUS
 62
     5
 10
163.9999950000001
 20
-117.69999
 30
0.0
 11
163.9999950000001
 21
-119.09999999999999
 31
0.0
  0
ARC
  8
DETAIL
  6
CONTINUOUS
 62
     5
 10
163.69999499999989
 20
-117.69999
 30
0.0
 40
0.3
 50
0.0
 51
90.0
  0
LINE
  8
DETAIL
  6
CONTINUOUS
 62
     5
 10
174.2000229999999
 20
-119.40000000000001
 30
0.0
 11
174.2000229999999
 21
-119.688446
 31
0.0
  0
ARC
  8
DETAIL
  6
CONTINUOUS
 62
     5
 10
174.6999900000001
 20
-119.09999999999999
 30
0.0
 40
0.3
 50
270.0
 51
0.0
  0
LINE
  8
DETAIL
  6
CONTINUOUS
 62
     5
 10
174.99999000000031
 20
-117.69999
 30
0.0
 11
174.99999000000031
 21
-119.09999999999999
 31
0.0
  0
ARC
  8
DETAIL
  6
CONTINUOUS
 62
     5
 10
175.29999000000001
 20
-117.69999
 30
0.0
 40
0.3
 50
90.0
 51
180.0
  0
ARC
  8
DETAIL
  6
CONTINUOUS
 62
     5
 10
176.54989500000011
 20
-117.90000000000001
 30
0.0
 40
0.499995
 50
1.145763000004081
 51
90.0
  0
LINE
  8
DETAIL
  6
CONTINUOUS
 62
     5
 10
253.51507200000009
 20
-108.884933
 30
0.0
 11
256.48492799999991
 21
-105.91506699999999
 31
0.0
  0
LINE
  8
DETAIL
  6
CONTINUOUS
 62
     5
 10
256.48493299999973
 20
-108.8849279999999
 30
0.0
 11
253.5150670000003
 21
-105.915072
 31
0.0
  0
CIRCLE
  8
DETAIL
  6
CONTINUOUS
 62
     5
 10
255.0
 20
-107.40000000000001
 30
0.0
 40
4.700024
  0
LINE
  8
DETAIL
  6
CONTINUOUS
 62
     5
 10
324.20002299999987
 20
-119.688446
 30
0.0
 11
314.79997600000019
 21
-119.688446
 31
0.0
  0
LINE
  8
DETAIL
  6
CONTINUOUS
 62
     5
 10
314.79997600000019
 20
-119.40000000000001
 30
0.0
 11
324.20002299999987
 21
-119.40000000000001
 31
0.0
  0
ARC
  8
DETAIL
  6
CONTINUOUS
 62
     5
 10
319.5
 20
-115.799982
 30
0.0
 40
6.1000310000000004
 50
219.60196499999611
 51
320.39801699999532
  0
LINE
  8
DETAIL
  6
CONTINUOUS
 62
     5
 10
314.29999500000031
 20
-119.40000000000001
 30
0.0
 11
324.69999000000013
 21
-119.40000000000001
 31
0.0
  0
LINE
  8
DETAIL
  6
CONTINUOUS
 62
     5
 10
312.44659499999989
 20
-117.39999
 30
0.0
 11
328.47979500000019
 21
-117.39999
 31
0.0
  0
LINE
  8
DETAIL
  6
CONTINUOUS
 62
     5
 10
311.47570499999978
 20
-141.43999500000001
 30
0.0
 11
311.94670500000029
 21
-117.889995
 31
0.0
  0
LINE
  8
DETAIL
  6
CONTINUOUS
 62
     5
 10
314.79997600000019
 20
-119.40000000000001
 30
0.0
 11
314.79997600000019
 21
-119.688446
 31
0.0
  0
ARC
  8
DETAIL
  6
CONTINUOUS
 62
     5
 10
313.69999499999989
 20
-117.69999
 30
0.0
 40
0.3
 50
0.0
 51
90.0
  0
ARC
  8
DETAIL
  6
CONTINUOUS
 62
     5
 10
314.29999500000031
 20
-119.09999999999999
 30
0.0
 40
0.3
 50
180.0
 51
270.0
  0
LINE
  8
DETAIL
  6
CONTINUOUS
 62
     5
 10
313.99999500000013
 20
-117.69999
 30
0.0
 11
313.99999500000013
 21
-119.09999999999999
 31
0.0
  0
ARC
  8
DETAIL
  6
CONTINUOUS
 62
     5
 10
312.44659499999989
 20
-117.90000000000001
 30
0.0
 40
0.499995
 50
90.0
 51
178.85423699999589
  0
LINE
  8
DETAIL
  6
CONTINUOUS
 62
     5
 10
328.98899999999998
 20
-140.94999000000001
 30
0.0
 11
329.49999000000031
 21
-115.399995
 31
0.0
  0
LINE
  8
DETAIL
  6
CONTINUOUS
 62
     5
 10
324.20002299999987
 20
-119.40000000000001
 30
0.0
 11
324.20002299999987
 21
-119.688446
 31
0.0
  0
ARC
  8
DETAIL
  6
CONTINUOUS
 62
     5
 10
325.29998999999998
 20
-117.69999
 30
0.0
 40
0.3
 50
90.0
 51
180.0
  0
ARC
  8
DETAIL
  6
CONTINUOUS
 62
     5
 10
324.69999000000013
 20
-119.09999999999999
 30
0.0
 40
0.3
 50
270.0
 51
0.0
  0
LINE
  8
DETAIL
  6
CONTINUOUS
 62
     5
 10
324.99999000000031
 20
-117.69999
 30
0.0
 11
324.99999000000031
 21
-119.09999999999999
 31
0.0
  0
ARC
  8
DETAIL
  6
CONTINUOUS
 62
     5
 10
328.47979500000019
 20
-116.40000000000001
 30
0.0
 40
1.000005
 50
270.0
 51
358.85423699999598
  0
LINE
  8
DETAIL
  6
CONTINUOUS
 62
     5
 10
476.29999500000031
 20
-115.688445
 30
0.0
 11
485.69999999999982
 21
-115.688445
 31
0.0
  0
LINE
  8
DETAIL
  6
CONTINUOUS
 62
     5
 10
485.69999999999982
 20
-115.399995
 30
0.0
 11
476.29999500000031
 21
-115.399995
 31
0.0
  0
ARC
  8
DETAIL
  6
CONTINUOUS
 62
     5
 10
480.99999000000031
 20
-111.799995
 30
0.0
 40
6.1000050000000003
 50
219.60198300000479
 51
320.39803500000392
  0
LINE
  8
DETAIL
  6
CONTINUOUS
 62
     5
 10
476.29999500000031
 20
-115.399995
 30
0.0
 11
476.29999500000031
 21
-115.688445
 31
0.0
  0
LINE
  8
DETAIL
  6
CONTINUOUS
 62
     5
 10
491.48843600000009
 20
-102.400018
 30
0.0
 11
491.48843600000009
 21
-92.999972000000071
 31
0.0
  0
LINE
  8
DETAIL
  6
CONTINUOUS
 62
     5
 10
491.19999000000013
 20
-92.999972000000071
 30
0.0
 11
491.19999000000013
 21
-102.400018
 31
0.0
  0
ARC
  8
DETAIL
  6
CONTINUOUS
 62
     5
 10
487.59997199999998
 20
-97.699994999999944
 30
0.0
 40
6.1000310000000004
 50
309.6019830000098
 51
50.398034999994742
  0
ARC
  8
DETAIL
  6
CONTINUOUS
 62
     5
 10
511.5
 20
-100.6999949999999
 30
0.0
 40
4.9999949999999993
 50
180.0
 51
0.0
  0
LINE
  8
DETAIL
  6
CONTINUOUS
 62
     5
 10
518.49999000000025
 20
-112.6999949999999
 30
0.0
 11
489.99999000000031
 21
-112.6999949999999
 31
0.0
  0
LINE
  8
DETAIL
  6
CONTINUOUS
 62
     5
 10
485.69999999999982
 20
-115.399995
 30
0.0
 11
485.69999999999982
 21
-115.688445
 31
0.0
  0
LINE
  8
DETAIL
  6
CONTINUOUS
 62
     5
 10
488.40000000000009
 20
-114.59999999999999
 30
0.0
 11
487.99999500000013
 21
-114.59999999999999
 31
0.0
  0
LINE
  8
DETAIL
  6
CONTINUOUS
 62
     5
 10
488.40000000000009
 20
-113.79998999999999
 30
0.0
 11
487.99999500000013
 21
-113.79998999999999
 31
0.0
  0
LINE
  8
DETAIL
  6
CONTINUOUS
 62
     5
 10
489.99999000000031
 20
-112.59998999999991
 30
0.0
 11
487.99999500000013
 21
-112.59998999999991
 31
0.0
  0
LINE
  8
DETAIL
  6
CONTINUOUS
 62
     5
 10
489.19999499999989
 20
-112.999995
 30
0.0
 11
489.19999499999989
 21
-112.59998999999991
 31
0.0
  0
ARC
  8
DETAIL
  6
CONTINUOUS
 62
     5
 10
488.40000000000009
 20
-112.999995
 30
0.0
 40
0.799995
 50
270.0
 51
0.0
  0
ARC
  8
DETAIL
  6
CONTINUOUS
 62
     5
 10
488.40000000000009
 20
-112.999995
 30
0.0
 40
1.6000049999999999
 50
270.0
 51
0.0
  0
LINE
  8
DETAIL
  6
CONTINUOUS
 62
     5
 10
491.19999000000013
 20
-102.400018
 30
0.0
 11
491.48843600000009
 21
-102.400018
 31
0.0
  0
LINE
  8
DETAIL
  6
CONTINUOUS
 62
     5
 10
487.99999500000013
 20
-108.69999
 30
0.0
 11
487.99999500000013
 21
-111.0
 31
0.0
  0
LINE
  8
DETAIL
  6
CONTINUOUS
 62
     5
 10
523.5
 20
-107.7
 30
0.0
 11
518.49999000000025
 21
-112.6999949999999
 31
0.0
  0
ARC
  8
DETAIL
  6
CONTINUOUS
 62
     5
 10
511.5
 20
-94.699994999999944
 30
0.0
 40
4.9999949999999993
 50
0.0
 51
180.0
  0
LINE
  8
DETAIL
  6
CONTINUOUS
 62
     5
 10
491.19999000000013
 20
-92.999972000000071
 30
0.0
 11
491.48843600000009
 21
-92.999972000000071
 31
0.0
  0
LINE
  8
DETAIL
  6
CONTINUOUS
 62
     5
 10
506.49999000000031
 20
-100.6999949999999
 30
0.0
 11
506.49999000000031
 21
-94.699994999999944
 31
0.0
  0
LINE
  8
DETAIL
  6
CONTINUOUS
 62
     5
 10
516.49999500000013
 20
-100.6999949999999
 30
0.0
 11
516.49999500000013
 21
-94.699994999999944
 31
0.0
  0
LINE
  8
DETAIL
  6
CONTINUOUS
 62
     5
 10
373.99999500000013
 20
-9.9999900000000252
 30
0.0
 11
382.99999500000013
 21
-9.9999900000000252
 31
0.0
  0
LINE
  8
DETAIL
  6
CONTINUOUS
 62
     5
 10
373.99999500000013
 20
-39.999990000000032
 30
0.0
 11
382.99999500000013
 21
-39.999990000000032
 31
0.0
  0
LINE
  8
DETAIL
  6
CONTINUOUS
 62
     5
 10
264.0
 20
-9.9999900000000252
 30
0.0
 11
273.0
 21
-9.9999900000000252
 31
0.0
  0
LINE
  8
DETAIL
  6
CONTINUOUS
 62
     5
 10
264.0
 20
-39.999990000000032
 30
0.0
 11
273.0
 21
-39.999990000000032
 31
0.0
  0
LINE
  8
DETAIL
  6
CONTINUOUS
 62
     5
 10
162.99999000000031
 20
-39.999990000000032
 30
0.0
 11
162.99999000000031
 21
-9.9999900000000252
 31
0.0
  0
LINE
  8
DETAIL
  6
CONTINUOUS
 62
     5
 10
174.0
 20
-39.999990000000032
 30
0.0
 11
174.0
 21
-9.9999900000000252
 31
0.0
  0
LINE
  8
DETAIL
  6
CONTINUOUS
 62
     5
 10
165.0
 20
-39.999990000000032
 30
0.0
 11
165.0
 21
-9.9999900000000252
 31
0.0
  0
LINE
  8
DETAIL
  6
CONTINUOUS
 62
     5
 10
184.9999950000001
 20
-39.999990000000032
 30
0.0
 11
184.9999950000001
 21
-9.9999900000000252
 31
0.0
  0
LINE
  8
DETAIL
  6
CONTINUOUS
 62
     5
 10
175.9999950000001
 20
-39.999990000000032
 30
0.0
 11
175.9999950000001
 21
-9.9999900000000252
 31
0.0
  0
LINE
  8
DETAIL
  6
CONTINUOUS
 62
     5
 10
195.99999000000031
 20
-39.999990000000032
 30
0.0
 11
195.99999000000031
 21
-9.9999900000000252
 31
0.0
  0
LINE
  8
DETAIL
  6
CONTINUOUS
 62
     5
 10
186.99999000000031
 20
-39.999990000000032
 30
0.0
 11
186.99999000000031
 21
-9.9999900000000252
 31
0.0
  0
LINE
  8
DETAIL
  6
CONTINUOUS
 62
     5
 10
207.0
 20
-39.999990000000032
 30
0.0
 11
207.0
 21
-9.9999900000000252
 31
0.0
  0
LINE
  8
DETAIL
  6
CONTINUOUS
 62
     5
 10
198.0
 20
-39.999990000000032
 30
0.0
 11
198.0
 21
-9.9999900000000252
 31
0.0
  0
LINE
  8
DETAIL
  6
CONTINUOUS
 62
     5
 10
217.9999950000001
 20
-39.999990000000032
 30
0.0
 11
217.9999950000001
 21
-9.9999900000000252
 31
0.0
  0
LINE
  8
DETAIL
  6
CONTINUOUS
 62
     5
 10
208.9999950000001
 20
-39.999990000000032
 30
0.0
 11
208.9999950000001
 21
-9.9999900000000252
 31
0.0
  0
LINE
  8
DETAIL
  6
CONTINUOUS
 62
     5
 10
228.99999000000031
 20
-39.999990000000032
 30
0.0
 11
228.99999000000031
 21
-9.9999900000000252
 31
0.0
  0
LINE
  8
DETAIL
  6
CONTINUOUS
 62
     5
 10
219.99999000000031
 20
-39.999990000000032
 30
0.0
 11
219.99999000000031
 21
-9.9999900000000252
 31
0.0
  0
LINE
  8
DETAIL
  6
CONTINUOUS
 62
     5
 10
240.0
 20
-39.999990000000032
 30
0.0
 11
240.0
 21
-9.9999900000000252
 31
0.0
  0
LINE
  8
DETAIL
  6
CONTINUOUS
 62
     5
 10
231.0
 20
-39.999990000000032
 30
0.0
 11
231.0
 21
-9.9999900000000252
 31
0.0
  0
LINE
  8
DETAIL
  6
CONTINUOUS
 62
     5
 10
250.9999950000001
 20
-39.999990000000032
 30
0.0
 11
250.9999950000001
 21
-9.9999900000000252
 31
0.0
  0
LINE
  8
DETAIL
  6
CONTINUOUS
 62
     5
 10
241.9999950000001
 20
-39.999990000000032
 30
0.0
 11
241.9999950000001
 21
-9.9999900000000252
 31
0.0
  0
LINE
  8
DETAIL
  6
CONTINUOUS
 62
     5
 10
261.99999000000031
 20
-39.999990000000032
 30
0.0
 11
261.99999000000031
 21
-9.9999900000000252
 31
0.0
  0
LINE
  8
DETAIL
  6
CONTINUOUS
 62
     5
 10
252.99999000000031
 20
-39.999990000000032
 30
0.0
 11
252.99999000000031
 21
-9.9999900000000252
 31
0.0
  0
LINE
  8
DETAIL
  6
CONTINUOUS
 62
     5
 10
264.0
 20
-39.999990000000032
 30
0.0
 11
264.0
 21
-9.9999900000000252
 31
0.0
  0
LINE
  8
DETAIL
  6
CONTINUOUS
 62
     5
 10
208.9999950000001
 20
-39.999990000000032
 30
0.0
 11
217.9999950000001
 21
-39.999990000000032
 31
0.0
  0
LINE
  8
DETAIL
  6
CONTINUOUS
 62
     5
 10
165.0
 20
-39.999990000000032
 30
0.0
 11
174.0
 21
-39.999990000000032
 31
0.0
  0
LINE
  8
DETAIL
  6
CONTINUOUS
 62
     5
 10
175.9999950000001
 20
-39.999990000000032
 30
0.0
 11
184.9999950000001
 21
-39.999990000000032
 31
0.0
  0
LINE
  8
DETAIL
  6
CONTINUOUS
 62
     5
 10
198.0
 20
-39.999990000000032
 30
0.0
 11
207.0
 21
-39.999990000000032
 31
0.0
  0
LINE
  8
DETAIL
  6
CONTINUOUS
 62
     5
 10
186.99999000000031
 20
-39.999990000000032
 30
0.0
 11
195.99999000000031
 21
-39.999990000000032
 31
0.0
  0
LINE
  8
DETAIL
  6
CONTINUOUS
 62
     5
 10
219.99999000000031
 20
-39.999990000000032
 30
0.0
 11
228.99999000000031
 21
-39.999990000000032
 31
0.0
  0
LINE
  8
DETAIL
  6
CONTINUOUS
 62
     5
 10
231.0
 20
-39.999990000000032
 30
0.0
 11
240.0
 21
-39.999990000000032
 31
0.0
  0
LINE
  8
DETAIL
  6
CONTINUOUS
 62
     5
 10
252.99999000000031
 20
-39.999990000000032
 30
0.0
 11
261.99999000000031
 21
-39.999990000000032
 31
0.0
  0
LINE
  8
DETAIL
  6
CONTINUOUS
 62
     5
 10
241.9999950000001
 20
-39.999990000000032
 30
0.0
 11
250.9999950000001
 21
-39.999990000000032
 31
0.0
  0
LINE
  8
DETAIL
  6
CONTINUOUS
 62
     5
 10
208.9999950000001
 20
-9.9999900000000252
 30
0.0
 11
217.9999950000001
 21
-9.9999900000000252
 31
0.0
  0
LINE
  8
DETAIL
  6
CONTINUOUS
 62
     5
 10
165.0
 20
-9.9999900000000252
 30
0.0
 11
174.0
 21
-9.9999900000000252
 31
0.0
  0
LINE
  8
DETAIL
  6
CONTINUOUS
 62
     5
 10
175.9999950000001
 20
-9.9999900000000252
 30
0.0
 11
184.9999950000001
 21
-9.9999900000000252
 31
0.0
  0
LINE
  8
DETAIL
  6
CONTINUOUS
 62
     5
 10
198.0
 20
-9.9999900000000252
 30
0.0
 11
207.0
 21
-9.9999900000000252
 31
0.0
  0
LINE
  8
DETAIL
  6
CONTINUOUS
 62
     5
 10
186.99999000000031
 20
-9.9999900000000252
 30
0.0
 11
195.99999000000031
 21
-9.9999900000000252
 31
0.0
  0
LINE
  8
DETAIL
  6
CONTINUOUS
 62
     5
 10
219.99999000000031
 20
-9.9999900000000252
 30
0.0
 11
228.99999000000031
 21
-9.9999900000000252
 31
0.0
  0
LINE
  8
DETAIL
  6
CONTINUOUS
 62
     5
 10
231.0
 20
-9.9999900000000252
 30
0.0
 11
240.0
 21
-9.9999900000000252
 31
0.0
  0
LINE
  8
DETAIL
  6
CONTINUOUS
 62
     5
 10
252.99999000000031
 20
-9.9999900000000252
 30
0.0
 11
261.99999000000031
 21
-9.9999900000000252
 31
0.0
  0
LINE
  8
DETAIL
  6
CONTINUOUS
 62
     5
 10
241.9999950000001
 20
-9.9999900000000252
 30
0.0
 11
250.9999950000001
 21
-9.9999900000000252
 31
0.0
  0
LINE
  8
DETAIL
  6
CONTINUOUS
 62
     5
 10
273.0
 20
-39.999990000000032
 30
0.0
 11
273.0
 21
-9.9999900000000252
 31
0.0
  0
LINE
  8
DETAIL
  6
CONTINUOUS
 62
     5
 10
283.99999500000013
 20
-39.999990000000032
 30
0.0
 11
283.99999500000013
 21
-9.9999900000000252
 31
0.0
  0
LINE
  8
DETAIL
  6
CONTINUOUS
 62
     5
 10
274.99999500000013
 20
-39.999990000000032
 30
0.0
 11
274.99999500000013
 21
-9.9999900000000252
 31
0.0
  0
LINE
  8
DETAIL
  6
CONTINUOUS
 62
     5
 10
294.99999000000031
 20
-39.999990000000032
 30
0.0
 11
294.99999000000031
 21
-9.9999900000000252
 31
0.0
  0
LINE
  8
DETAIL
  6
CONTINUOUS
 62
     5
 10
285.99999000000031
 20
-39.999990000000032
 30
0.0
 11
285.99999000000031
 21
-9.9999900000000252
 31
0.0
  0
LINE
  8
DETAIL
  6
CONTINUOUS
 62
     5
 10
306.0
 20
-39.999990000000032
 30
0.0
 11
306.0
 21
-9.9999900000000252
 31
0.0
  0
LINE
  8
DETAIL
  6
CONTINUOUS
 62
     5
 10
297.0
 20
-39.999990000000032
 30
0.0
 11
297.0
 21
-9.9999900000000252
 31
0.0
  0
LINE
  8
DETAIL
  6
CONTINUOUS
 62
     5
 10
316.99999500000013
 20
-39.999990000000032
 30
0.0
 11
316.99999500000013
 21
-9.9999900000000252
 31
0.0
  0
LINE
  8
DETAIL
  6
CONTINUOUS
 62
     5
 10
307.99999500000013
 20
-39.999990000000032
 30
0.0
 11
307.99999500000013
 21
-9.9999900000000252
 31
0.0
  0
LINE
  8
DETAIL
  6
CONTINUOUS
 62
     5
 10
327.99999000000031
 20
-39.999990000000032
 30
0.0
 11
327.99999000000031
 21
-9.9999900000000252
 31
0.0
  0
LINE
  8
DETAIL
  6
CONTINUOUS
 62
     5
 10
318.99999000000031
 20
-39.999990000000032
 30
0.0
 11
318.99999000000031
 21
-9.9999900000000252
 31
0.0
  0
LINE
  8
DETAIL
  6
CONTINUOUS
 62
     5
 10
339.0
 20
-39.999990000000032
 30
0.0
 11
339.0
 21
-9.9999900000000252
 31
0.0
  0
LINE
  8
DETAIL
  6
CONTINUOUS
 62
     5
 10
330.0
 20
-39.999990000000032
 30
0.0
 11
330.0
 21
-9.9999900000000252
 31
0.0
  0
LINE
  8
DETAIL
  6
CONTINUOUS
 62
     5
 10
349.99999500000013
 20
-39.999990000000032
 30
0.0
 11
349.99999500000013
 21
-9.9999900000000252
 31
0.0
  0
LINE
  8
DETAIL
  6
CONTINUOUS
 62
     5
 10
340.99999500000013
 20
-39.999990000000032
 30
0.0
 11
340.99999500000013
 21
-9.9999900000000252
 31
0.0
  0
LINE
  8
DETAIL
  6
CONTINUOUS
 62
     5
 10
360.99999000000031
 20
-39.999990000000032
 30
0.0
 11
360.99999000000031
 21
-9.9999900000000252
 31
0.0
  0
LINE
  8
DETAIL
  6
CONTINUOUS
 62
     5
 10
351.99999000000031
 20
-39.999990000000032
 30
0.0
 11
351.99999000000031
 21
-9.9999900000000252
 31
0.0
  0
LINE
  8
DETAIL
  6
CONTINUOUS
 62
     5
 10
372.0
 20
-39.999990000000032
 30
0.0
 11
372.0
 21
-9.9999900000000252
 31
0.0
  0
LINE
  8
DETAIL
  6
CONTINUOUS
 62
     5
 10
363.0
 20
-39.999990000000032
 30
0.0
 11
363.0
 21
-9.9999900000000252
 31
0.0
  0
LINE
  8
DETAIL
  6
CONTINUOUS
 62
     5
 10
373.99999500000013
 20
-39.999990000000032
 30
0.0
 11
373.99999500000013
 21
-9.9999900000000252
 31
0.0
  0
LINE
  8
DETAIL
  6
CONTINUOUS
 62
     5
 10
318.99999000000031
 20
-39.999990000000032
 30
0.0
 11
327.99999000000031
 21
-39.999990000000032
 31
0.0
  0
LINE
  8
DETAIL
  6
CONTINUOUS
 62
     5
 10
285.99999000000031
 20
-39.999990000000032
 30
0.0
 11
294.99999000000031
 21
-39.999990000000032
 31
0.0
  0
LINE
  8
DETAIL
  6
CONTINUOUS
 62
     5
 10
274.99999500000013
 20
-39.999990000000032
 30
0.0
 11
283.99999500000013
 21
-39.999990000000032
 31
0.0
  0
LINE
  8
DETAIL
  6
CONTINUOUS
 62
     5
 10
297.0
 20
-39.999990000000032
 30
0.0
 11
306.0
 21
-39.999990000000032
 31
0.0
  0
LINE
  8
DETAIL
  6
CONTINUOUS
 62
     5
 10
307.99999500000013
 20
-39.999990000000032
 30
0.0
 11
316.99999500000013
 21
-39.999990000000032
 31
0.0
  0
LINE
  8
DETAIL
  6
CONTINUOUS
 62
     5
 10
340.99999500000013
 20
-39.999990000000032
 30
0.0
 11
349.99999500000013
 21
-39.999990000000032
 31
0.0
  0
LINE
  8
DETAIL
  6
CONTINUOUS
 62
     5
 10
330.0
 20
-39.999990000000032
 30
0.0
 11
339.0
 21
-39.999990000000032
 31
0.0
  0
LINE
  8
DETAIL
  6
CONTINUOUS
 62
     5
 10
351.99999000000031
 20
-39.999990000000032
 30
0.0
 11
360.99999000000031
 21
-39.999990000000032
 31
0.0
  0
LINE
  8
DETAIL
  6
CONTINUOUS
 62
     5
 10
363.0
 20
-39.999990000000032
 30
0.0
 11
372.0
 21
-39.999990000000032
 31
0.0
  0
LINE
  8
DETAIL
  6
CONTINUOUS
 62
     5
 10
318.99999000000031
 20
-9.9999900000000252
 30
0.0
 11
327.99999000000031
 21
-9.9999900000000252
 31
0.0
  0
LINE
  8
DETAIL
  6
CONTINUOUS
 62
     5
 10
285.99999000000031
 20
-9.9999900000000252
 30
0.0
 11
294.99999000000031
 21
-9.9999900000000252
 31
0.0
  0
LINE
  8
DETAIL
  6
CONTINUOUS
 62
     5
 10
274.99999500000013
 20
-9.9999900000000252
 30
0.0
 11
283.99999500000013
 21
-9.9999900000000252
 31
0.0
  0
LINE
  8
DETAIL
  6
CONTINUOUS
 62
     5
 10
297.0
 20
-9.9999900000000252
 30
0.0
 11
306.0
 21
-9.9999900000000252
 31
0.0
  0
LINE
  8
DETAIL
  6
CONTINUOUS
 62
     5
 10
307.99999500000013
 20
-9.9999900000000252
 30
0.0
 11
316.99999500000013
 21
-9.9999900000000252
 31
0.0
  0
LINE
  8
DETAIL
  6
CONTINUOUS
 62
     5
 10
340.99999500000013
 20
-9.9999900000000252
 30
0.0
 11
349.99999500000013
 21
-9.9999900000000252
 31
0.0
  0
LINE
  8
DETAIL
  6
CONTINUOUS
 62
     5
 10
330.0
 20
-9.9999900000000252
 30
0.0
 11
339.0
 21
-9.9999900000000252
 31
0.0
  0
LINE
  8
DETAIL
  6
CONTINUOUS
 62
     5
 10
351.99999000000031
 20
-9.9999900000000252
 30
0.0
 11
360.99999000000031
 21
-9.9999900000000252
 31
0.0
  0
LINE
  8
DETAIL
  6
CONTINUOUS
 62
     5
 10
363.0
 20
-9.9999900000000252
 30
0.0
 11
372.0
 21
-9.9999900000000252
 31
0.0
  0
LINE
  8
DETAIL
  6
CONTINUOUS
 62
     5
 10
476.29996599999998
 20
0.2884460000000217
 30
0.0
 11
485.70001300000013
 21
0.2884460000000217
 31
0.0
  0
LINE
  8
DETAIL
  6
CONTINUOUS
 62
     5
 10
485.70001300000013
 20
0.0
 30
0.0
 11
476.29996599999998
 21
0.0
 31
0.0
  0
ARC
  8
DETAIL
  6
CONTINUOUS
 62
     5
 10
480.99999000000031
 20
-3.6000179999999768
 30
0.0
 40
6.1000310000000004
 50
39.601964999996078
 51
140.39801699999529
  0
LINE
  8
DETAIL
  6
CONTINUOUS
 62
     5
 10
382.99999500000013
 20
-39.999990000000032
 30
0.0
 11
382.99999500000013
 21
-9.9999900000000252
 31
0.0
  0
LINE
  8
DETAIL
  6
CONTINUOUS
 62
     5
 10
393.99999000000031
 20
-39.999990000000032
 30
0.0
 11
393.99999000000031
 21
-9.9999900000000252
 31
0.0
  0
LINE
  8
DETAIL
  6
CONTINUOUS
 62
     5
 10
384.99999000000031
 20
-39.999990000000032
 30
0.0
 11
384.99999000000031
 21
-9.9999900000000252
 31
0.0
  0
LINE
  8
DETAIL
  6
CONTINUOUS
 62
     5
 10
405.0
 20
-39.999990000000032
 30
0.0
 11
405.0
 21
-9.9999900000000252
 31
0.0
  0
LINE
  8
DETAIL
  6
CONTINUOUS
 62
     5
 10
396.0
 20
-39.999990000000032
 30
0.0
 11
396.0
 21
-9.9999900000000252
 31
0.0
  0
LINE
  8
DETAIL
  6
CONTINUOUS
 62
     5
 10
415.99999500000013
 20
-39.999990000000032
 30
0.0
 11
415.99999500000013
 21
-9.9999900000000252
 31
0.0
  0
LINE
  8
DETAIL
  6
CONTINUOUS
 62
     5
 10
406.99999500000013
 20
-39.999990000000032
 30
0.0
 11
406.99999500000013
 21
-9.9999900000000252
 31
0.0
  0
LINE
  8
DETAIL
  6
CONTINUOUS
 62
     5
 10
426.99999000000031
 20
-39.999990000000032
 30
0.0
 11
426.99999000000031
 21
-9.9999900000000252
 31
0.0
  0
LINE
  8
DETAIL
  6
CONTINUOUS
 62
     5
 10
417.99999000000031
 20
-39.999990000000032
 30
0.0
 11
417.99999000000031
 21
-9.9999900000000252
 31
0.0
  0
LINE
  8
DETAIL
  6
CONTINUOUS
 62
     5
 10
438.0
 20
-39.999990000000032
 30
0.0
 11
438.0
 21
-9.9999900000000252
 31
0.0
  0
LINE
  8
DETAIL
  6
CONTINUOUS
 62
     5
 10
429.0
 20
-39.999990000000032
 30
0.0
 11
429.0
 21
-9.9999900000000252
 31
0.0
  0
LINE
  8
DETAIL
  6
CONTINUOUS
 62
     5
 10
448.99999500000013
 20
-39.999990000000032
 30
0.0
 11
448.99999500000013
 21
-9.9999900000000252
 31
0.0
  0
LINE
  8
DETAIL
  6
CONTINUOUS
 62
     5
 10
439.99999500000013
 20
-39.999990000000032
 30
0.0
 11
439.99999500000013
 21
-9.9999900000000252
 31
0.0
  0
LINE
  8
DETAIL
  6
CONTINUOUS
 62
     5
 10
459.99999000000031
 20
-39.999990000000032
 30
0.0
 11
459.99999000000031
 21
-9.9999900000000252
 31
0.0
  0
LINE
  8
DETAIL
  6
CONTINUOUS
 62
     5
 10
450.99999000000031
 20
-39.999990000000032
 30
0.0
 11
450.99999000000031
 21
-9.9999900000000252
 31
0.0
  0
LINE
  8
DETAIL
  6
CONTINUOUS
 62
     5
 10
473.0
 20
-39.999990000000032
 30
0.0
 11
473.0
 21
-9.9999900000000252
 31
0.0
  0
LINE
  8
DETAIL
  6
CONTINUOUS
 62
     5
 10
462.0
 20
-39.999990000000032
 30
0.0
 11
462.0
 21
-9.9999900000000252
 31
0.0
  0
LINE
  8
DETAIL
  6
CONTINUOUS
 62
     5
 10
393.01507200000009
 20
-59.484922999999981
 30
0.0
 11
395.98492799999991
 21
-56.515056999999963
 31
0.0
  0
LINE
  8
DETAIL
  6
CONTINUOUS
 62
     5
 10
395.98493299999973
 20
-59.484917999999993
 30
0.0
 11
393.01506700000027
 21
-56.515061999999944
 31
0.0
  0
LINE
  8
DETAIL
  6
CONTINUOUS
 62
     5
 10
396.0
 20
-39.999990000000032
 30
0.0
 11
405.0
 21
-39.999990000000032
 31
0.0
  0
LINE
  8
DETAIL
  6
CONTINUOUS
 62
     5
 10
384.99999000000031
 20
-39.999990000000032
 30
0.0
 11
393.99999000000031
 21
-39.999990000000032
 31
0.0
  0
LINE
  8
DETAIL
  6
CONTINUOUS
 62
     5
 10
406.99999500000013
 20
-39.999990000000032
 30
0.0
 11
415.99999500000013
 21
-39.999990000000032
 31
0.0
  0
LINE
  8
DETAIL
  6
CONTINUOUS
 62
     5
 10
417.99999000000031
 20
-39.999990000000032
 30
0.0
 11
426.99999000000031
 21
-39.999990000000032
 31
0.0
  0
LINE
  8
DETAIL
  6
CONTINUOUS
 62
     5
 10
479.51506199999989
 20
-59.484922999999981
 30
0.0
 11
482.48491800000011
 21
-56.515056999999963
 31
0.0
  0
LINE
  8
DETAIL
  6
CONTINUOUS
 62
     5
 10
482.48492299999998
 20
-59.484917999999993
 30
0.0
 11
479.51505700000013
 21
-56.515061999999944
 31
0.0
  0
LINE
  8
DETAIL
  6
CONTINUOUS
 62
     5
 10
450.99999000000031
 20
-39.999990000000032
 30
0.0
 11
459.99999000000031
 21
-39.999990000000032
 31
0.0
  0
LINE
  8
DETAIL
  6
CONTINUOUS
 62
     5
 10
439.99999500000013
 20
-39.999990000000032
 30
0.0
 11
448.99999500000013
 21
-39.999990000000032
 31
0.0
  0
LINE
  8
DETAIL
  6
CONTINUOUS
 62
     5
 10
429.0
 20
-39.999990000000032
 30
0.0
 11
438.0
 21
-39.999990000000032
 31
0.0
  0
LINE
  8
DETAIL
  6
CONTINUOUS
 62
     5
 10
462.0
 20
-39.999990000000032
 30
0.0
 11
473.0
 21
-39.999990000000032
 31
0.0
  0
ARC
  8
DETAIL
  6
CONTINUOUS
 62
     5
 10
405.0
 20
-3.6000179999999768
 30
0.0
 40
6.1000310000000004
 50
39.601964999996078
 51
140.39801699999529
  0
LINE
  8
DETAIL
  6
CONTINUOUS
 62
     5
 10
400.29997600000019
 20
0.2884460000000217
 30
0.0
 11
409.70002299999987
 21
0.2884460000000217
 31
0.0
  0
LINE
  8
DETAIL
  6
CONTINUOUS
 62
     5
 10
409.70002299999987
 20
0.0
 30
0.0
 11
400.29997600000019
 21
0.0
 31
0.0
  0
LINE
  8
DETAIL
  6
CONTINUOUS
 62
     5
 10
396.0
 20
-9.9999900000000252
 30
0.0
 11
405.0
 21
-9.9999900000000252
 31
0.0
  0
LINE
  8
DETAIL
  6
CONTINUOUS
 62
     5
 10
384.99999000000031
 20
-9.9999900000000252
 30
0.0
 11
393.99999000000031
 21
-9.9999900000000252
 31
0.0
  0
LINE
  8
DETAIL
  6
CONTINUOUS
 62
     5
 10
400.29997600000019
 20
0.0
 30
0.0
 11
400.29997600000019
 21
0.2884460000000217
 31
0.0
  0
LINE
  8
DETAIL
  6
CONTINUOUS
 62
     5
 10
406.99999500000013
 20
-9.9999900000000252
 30
0.0
 11
415.99999500000013
 21
-9.9999900000000252
 31
0.0
  0
LINE
  8
DETAIL
  6
CONTINUOUS
 62
     5
 10
417.99999000000031
 20
-9.9999900000000252
 30
0.0
 11
426.99999000000031
 21
-9.9999900000000252
 31
0.0
  0
LINE
  8
DETAIL
  6
CONTINUOUS
 62
     5
 10
409.70002299999987
 20
0.0
 30
0.0
 11
409.70002299999987
 21
0.2884460000000217
 31
0.0
  0
LINE
  8
DETAIL
  6
CONTINUOUS
 62
     5
 10
450.99999000000031
 20
-9.9999900000000252
 30
0.0
 11
459.99999000000031
 21
-9.9999900000000252
 31
0.0
  0
LINE
  8
DETAIL
  6
CONTINUOUS
 62
     5
 10
439.99999500000013
 20
-9.9999900000000252
 30
0.0
 11
448.99999500000013
 21
-9.9999900000000252
 31
0.0
  0
LINE
  8
DETAIL
  6
CONTINUOUS
 62
     5
 10
429.0
 20
-9.9999900000000252
 30
0.0
 11
438.0
 21
-9.9999900000000252
 31
0.0
  0
LINE
  8
DETAIL
  6
CONTINUOUS
 62
     5
 10
462.0
 20
-9.9999900000000252
 30
0.0
 11
473.0
 21
-9.9999900000000252
 31
0.0
  0
LINE
  8
DETAIL
  6
CONTINUOUS
 62
     5
 10
476.29996599999998
 20
0.0
 30
0.0
 11
476.29996599999998
 21
0.2884460000000217
 31
0.0
  0
LINE
  8
DETAIL
  6
CONTINUOUS
 62
     5
 10
491.48843600000009
 20
-22.400023000000029
 30
0.0
 11
491.48843600000009
 21
-12.999976000000061
 31
0.0
  0
LINE
  8
DETAIL
  6
CONTINUOUS
 62
     5
 10
491.19999000000013
 20
-12.999976000000061
 30
0.0
 11
491.19999000000013
 21
-22.400023000000029
 31
0.0
  0
ARC
  8
DETAIL
  6
CONTINUOUS
 62
     5
 10
487.59997199999998
 20
-17.700000000000049
 30
0.0
 40
6.1000310000000004
 50
309.6019830000098
 51
50.398034999994742
  0
LINE
  8
DETAIL
  6
CONTINUOUS
 62
     5
 10
516.49999500000013
 20
-20.700000000000049
 30
0.0
 11
516.49999500000013
 21
-14.700000000000051
 31
0.0
  0
LINE
  8
DETAIL
  6
CONTINUOUS
 62
     5
 10
506.49999000000031
 20
-20.700000000000049
 30
0.0
 11
506.49999000000031
 21
-14.700000000000051
 31
0.0
  0
LINE
  8
DETAIL
  6
CONTINUOUS
 62
     5
 10
487.99999500000013
 20
-46.699994999999937
 30
0.0
 11
487.99999500000013
 21
0.0
 31
0.0
  0
ARC
  8
DETAIL
  6
CONTINUOUS
 62
     5
 10
511.5
 20
-20.700000000000049
 30
0.0
 40
4.9999949999999993
 50
180.0
 51
0.0
  0
LINE
  8
DETAIL
  6
CONTINUOUS
 62
     5
 10
491.19999000000013
 20
-22.400023000000029
 30
0.0
 11
491.48843600000009
 21
-22.400023000000029
 31
0.0
  0
ARC
  8
DETAIL
  6
CONTINUOUS
 62
     5
 10
511.5
 20
-14.700000000000051
 30
0.0
 40
4.9999949999999993
 50
0.0
 51
180.0
  0
LINE
  8
DETAIL
  6
CONTINUOUS
 62
     5
 10
518.49999000000025
 20
-2.700000000000045
 30
0.0
 11
489.99999000000031
 21
-2.700000000000045
 31
0.0
  0
LINE
  8
DETAIL
  6
CONTINUOUS
 62
     5
 10
491.19999000000013
 20
-12.999976000000061
 30
0.0
 11
491.48843600000009
 21
-12.999976000000061
 31
0.0
  0
LINE
  8
DETAIL
  6
CONTINUOUS
 62
     5
 10
485.70001300000013
 20
0.0
 30
0.0
 11
485.70001300000013
 21
0.2884460000000217
 31
0.0
  0
LINE
  8
DETAIL
  6
CONTINUOUS
 62
     5
 10
489.99999000000031
 20
-2.5999950000000349
 30
0.0
 11
489.99999000000031
 21
-3.0
 31
0.0
  0
LINE
  8
DETAIL
  6
CONTINUOUS
 62
     5
 10
489.99999000000031
 20
-3.0
 30
0.0
 11
487.99999500000013
 21
-3.0
 31
0.0
  0
LINE
  8
DETAIL
  6
CONTINUOUS
 62
     5
 10
488.40000000000009
 20
-1.799999999999955
 30
0.0
 11
487.99999500000013
 21
-1.799999999999955
 31
0.0
  0
LINE
  8
DETAIL
  6
CONTINUOUS
 62
     5
 10
489.19999499999989
 20
-2.5999950000000349
 30
0.0
 11
489.19999499999989
 21
-3.0
 31
0.0
  0
ARC
  8
DETAIL
  6
CONTINUOUS
 62
     5
 10
488.40000000000009
 20
-2.5999950000000349
 30
0.0
 40
0.799995
 50
0.0
 51
90.0
  0
LINE
  8
DETAIL
  6
CONTINUOUS
 62
     5
 10
488.40000000000009
 20
-0.9999900000000253
 30
0.0
 11
487.99999500000013
 21
-0.9999900000000253
 31
0.0
  0
ARC
  8
DETAIL
  6
CONTINUOUS
 62
     5
 10
488.40000000000009
 20
-2.5999950000000349
 30
0.0
 40
1.6000049999999999
 50
0.0
 51
90.0
  0
LINE
  8
DETAIL
  6
CONTINUOUS
 62
     5
 10
523.5
 20
-7.6999949999999444
 30
0.0
 11
518.49999000000025
 21
-2.700000000000045
 31
0.0
  0
LINE
  8
OUTLINE
  6
CONTINUOUS
 62
     3
 10
160.011
 20
-140.94999000000001
 30
0.0
 11
159.4999950000001
 21
-115.399995
 31
0.0
  0
ARC
  8
OUTLINE
  6
CONTINUOUS
 62
     3
 10
162.51049499999999
 20
-140.89999499999999
 30
0.0
 40
2.5000049999999998
 50
181.1457629999976
 51
270.0
  0
LINE
  8
OUTLINE
  6
CONTINUOUS
 62
     3
 10
-488.00000999999969
 20
-115.399995
 30
0.0
 11
-329.50000499999987
 21
-115.399995
 31
0.0
  0
LINE
  8
OUTLINE
  6
CONTINUOUS
 62
     3
 10
-159.50000999999969
 20
-115.399995
 30
0.0
 11
-157.5
 21
-115.399995
 31
0.0
  0
LINE
  8
OUTLINE
  6
CONTINUOUS
 62
     3
 10
157.5
 20
-115.399995
 30
0.0
 11
159.4999950000001
 21
-115.399995
 31
0.0
  0
LINE
  8
OUTLINE
  6
CONTINUOUS
 62
     3
 10
329.49999000000031
 20
-115.399995
 30
0.0
 11
487.99999500000013
 21
-115.399995
 31
0.0
  0
LINE
  8
OUTLINE
  6
CONTINUOUS
 62
     3
 10
-488.00000999999969
 20
0.0
 30
0.0
 11
487.99999500000013
 21
0.0
 31
0.0
  0
LINE
  8
OUTLINE
  6
CONTINUOUS
 62
     3
 10
-488.00000999999969
 20
-115.399995
 30
0.0
 11
-488.00000999999969
 21
-114.59999999999989
 31
0.0
  0
LINE
  8
OUTLINE
  6
CONTINUOUS
 62
     3
 10
-488.00000999999969
 20
-0.9999900000000253
 30
0.0
 11
-488.00000999999969
 21
0.0
 31
0.0
  0
ARC
  8
OUTLINE
  6
CONTINUOUS
 62
     3
 10
-326.48950500000001
 20
-140.89999499999999
 30
0.0
 40
2.5000049999999998
 50
181.1457629999976
 51
270.0
  0
LINE
  8
OUTLINE
  6
CONTINUOUS
 62
     3
 10
-162.5105100000001
 20
-143.40000000000001
 30
0.0
 11
-169.5
 21
-143.40000000000001
 31
0.0
  0
LINE
  8
OUTLINE
  6
CONTINUOUS
 62
     3
 10
-326.48950500000001
 20
-143.40000000000001
 30
0.0
 11
-328.00000499999987
 21
-143.40000000000001
 31
0.0
  0
LINE
  8
OUTLINE
  6
CONTINUOUS
 62
     3
 10
-315.799982
 20
-145.39999499999999
 30
0.0
 11
-328.00000499999987
 21
-145.39999499999999
 31
0.0
  0
LINE
  8
OUTLINE
  6
CONTINUOUS
 62
     3
 10
-328.00000499999987
 20
-143.40000000000001
 30
0.0
 11
-328.00000499999987
 21
-145.39999499999999
 31
0.0
  0
LINE
  8
OUTLINE
  6
CONTINUOUS
 62
     3
 10
-314.50000499999987
 20
-146.89999499999999
 30
0.0
 11
-314.50000499999987
 21
-162.89999499999999
 31
0.0
  0
LINE
  8
OUTLINE
  6
CONTINUOUS
 62
     3
 10
-313.00000499999987
 20
-164.39999499999999
 30
0.0
 11
-179.00000999999969
 21
-164.39999499999999
 31
0.0
  0
ARC
  8
OUTLINE
  6
CONTINUOUS
 62
     3
 10
-313.00000499999987
 20
-162.89999499999999
 30
0.0
 40
1.5
 50
180.0
 51
270.0
  0
ARC
  8
OUTLINE
  6
CONTINUOUS
 62
     3
 10
-316.00000499999987
 20
-146.89999499999999
 30
0.0
 40
1.5
 50
0.0
 51
90.0
  0
LINE
  8
OUTLINE
  6
CONTINUOUS
 62
     3
 10
-328.98899999999998
 20
-140.94999000000001
 30
0.0
 11
-329.50000499999987
 21
-115.399995
 31
0.0
  0
LINE
  8
OUTLINE
  6
CONTINUOUS
 62
     3
 10
-157.5
 20
-140.40000000000001
 30
0.0
 11
157.5
 21
-140.40000000000001
 31
0.0
  0
ARC
  8
OUTLINE
  6
CONTINUOUS
 62
     3
 10
-162.5105100000001
 20
-140.89999499999999
 30
0.0
 40
2.5000049999999998
 50
270.0
 51
358.85423699999598
  0
LINE
  8
OUTLINE
  6
CONTINUOUS
 62
     3
 10
-177.50000999999969
 20
-146.89999499999999
 30
0.0
 11
-177.50000999999969
 21
-162.89999499999999
 31
0.0
  0
ARC
  8
OUTLINE
  6
CONTINUOUS
 62
     3
 10
-179.00000999999969
 20
-162.89999499999999
 30
0.0
 40
1.5
 50
270.0
 51
0.0
  0
ARC
  8
OUTLINE
  6
CONTINUOUS
 62
     3
 10
-176.00000999999969
 20
-146.89999499999999
 30
0.0
 40
1.5
 50
90.0
 51
180.0
  0
LINE
  8
OUTLINE
  6
CONTINUOUS
 62
     3
 10
-169.5
 20
-143.40000000000001
 30
0.0
 11
-169.5
 21
-143.89999499999999
 31
0.0
  0
LINE
  8
OUTLINE
  6
CONTINUOUS
 62
     3
 10
-176.00000999999969
 20
-145.39999499999999
 30
0.0
 11
-171.0
 21
-145.39999499999999
 31
0.0
  0
ARC
  8
OUTLINE
  6
CONTINUOUS
 62
     3
 10
-171.0
 20
-143.89999499999999
 30
0.0
 40
1.5
 50
270.0
 51
0.0
  0
LINE
  8
OUTLINE
  6
CONTINUOUS
 62
     3
 10
-160.011
 20
-140.94999000000001
 30
0.0
 11
-159.50000999999969
 21
-115.399995
 31
0.0
  0
LINE
  8
OUTLINE
  6
CONTINUOUS
 62
     3
 10
-157.5
 20
-115.399995
 30
0.0
 11
-157.5
 21
-140.40000000000001
 31
0.0
  0
LINE
  8
OUTLINE
  6
CONTINUOUS
 62
     3
 10
157.5
 20
-115.399995
 30
0.0
 11
157.5
 21
-140.40000000000001
 31
0.0
  0
LINE
  8
OUTLINE
  6
CONTINUOUS
 62
     3
 10
487.99999500000013
 20
0.0
 30
0.0
 11
487.99999500000013
 21
-0.9999900000000253
 31
0.0
  0
LINE
  8
OUTLINE
  6
CONTINUOUS
 62
     3
 10
487.99999500000013
 20
-114.59999999999989
 30
0.0
 11
487.99999500000013
 21
-115.399995
 31
0.0
  0
ARC
  8
OUTLINE
  6
CONTINUOUS
 62
     3
 10
326.48948999999988
 20
-140.89999499999999
 30
0.0
 40
2.5000049999999998
 50
270.0
 51
358.85423699999598
  0
LINE
  8
OUTLINE
  6
CONTINUOUS
 62
     3
 10
174.4999950000001
 20
-146.89999499999999
 30
0.0
 11
174.4999950000001
 21
-162.89999499999999
 31
0.0
  0
LINE
  8
OUTLINE
  6
CONTINUOUS
 62
     3
 10
175.9999950000001
 20
-164.39999499999999
 30
0.0
 11
309.99999000000031
 21
-164.39999499999999
 31
0.0
  0
ARC
  8
OUTLINE
  6
CONTINUOUS
 62
     3
 10
175.9999950000001
 20
-162.89999499999999
 30
0.0
 40
1.5
 50
180.0
 51
270.0
  0
LINE
  8
OUTLINE
  6
CONTINUOUS
 62
     3
 10
326.48948999999988
 20
-143.40000000000001
 30
0.0
 11
319.5
 21
-143.40000000000001
 31
0.0
  0
LINE
  8
OUTLINE
  6
CONTINUOUS
 62
     3
 10
162.51049499999999
 20
-143.40000000000001
 30
0.0
 11
160.9999950000001
 21
-143.40000000000001
 31
0.0
  0
ARC
  8
OUTLINE
  6
CONTINUOUS
 62
     3
 10
172.9999950000001
 20
-146.89999499999999
 30
0.0
 40
1.5
 50
0.0
 51
90.0
  0
LINE
  8
OUTLINE
  6
CONTINUOUS
 62
     3
 10
160.9999950000001
 20
-143.40000000000001
 30
0.0
 11
160.9999950000001
 21
-145.39999499999999
 31
0.0
  0
LINE
  8
OUTLINE
  6
CONTINUOUS
 62
     3
 10
173.20001899999991
 20
-145.39999499999999
 30
0.0
 11
160.9999950000001
 21
-145.39999499999999
 31
0.0
  0
LINE
  8
OUTLINE
  6
CONTINUOUS
 62
     3
 10
311.49999000000031
 20
-146.89999499999999
 30
0.0
 11
311.49999000000031
 21
-162.89999499999999
 31
0.0
  0
ARC
  8
OUTLINE
  6
CONTINUOUS
 62
     3
 10
309.99999000000031
 20
-162.89999499999999
 30
0.0
 40
1.5
 50
270.0
 51
0.0
  0
LINE
  8
OUTLINE
  6
CONTINUOUS
 62
     3
 10
319.5
 20
-143.40000000000001
 30
0.0
 11
319.5
 21
-143.89999499999999
 31
0.0
  0
LINE
  8
OUTLINE
  6
CONTINUOUS
 62
     3
 10
312.99999000000031
 20
-145.39999499999999
 30
0.0
 11
318.0
 21
-145.39999499999999
 31
0.0
  0
ARC
  8
OUTLINE
  6
CONTINUOUS
 62
     3
 10
312.99999000000031
 20
-146.89999499999999
 30
0.0
 40
1.5
 50
90.0
 51
180.0
  0
ARC
  8
OUTLINE
  6
CONTINUOUS
 62
     3
 10
318.0
 20
-143.89999499999999
 30
0.0
 40
1.5
 50
270.0
 51
0.0
  0
LINE
  8
OUTLINE
  6
CONTINUOUS
 62
     3
 10
328.98899999999998
 20
-140.94999000000001
 30
0.0
 11
329.49999000000031
 21
-115.399995
 31
0.0
  0
LINE
  8
OUTLINE
  6
CONTINUOUS
 62
     3
 10
-490.00000499999987
 20
-112.9999949999999
 30
0.0
 11
-490.00000499999987
 21
-2.5999950000000349
 31
0.0
  0
LINE
  8
OUTLINE
  6
CONTINUOUS
 62
     3
 10
-488.40000000000009
 20
-114.59999999999989
 30
0.0
 11
-488.00000999999969
 21
-114.59999999999989
 31
0.0
  0
ARC
  8
OUTLINE
  6
CONTINUOUS
 62
     3
 10
-488.40000000000009
 20
-112.9999949999999
 30
0.0
 40
1.6000049999999999
 50
180.0
 51
270.0
  0
LINE
  8
OUTLINE
  6
CONTINUOUS
 62
     3
 10
-488.40000000000009
 20
-0.9999900000000253
 30
0.0
 11
-488.00000999999969
 21
-0.9999900000000253
 31
0.0
  0
ARC
  8
OUTLINE
  6
CONTINUOUS
 62
     3
 10
-488.40000000000009
 20
-2.5999950000000349
 30
0.0
 40
1.6000049999999999
 50
90.0
 51
180.0
  0
LINE
  8
OUTLINE
  6
CONTINUOUS
 62
     3
 10
489.99999000000031
 20
-112.9999949999999
 30
0.0
 11
489.99999000000031
 21
-2.5999950000000349
 31
0.0
  0
LINE
  8
OUTLINE
  6
CONTINUOUS
 62
     3
 10
488.40000000000009
 20
-114.59999999999989
 30
0.0
 11
487.99999500000013
 21
-114.59999999999989
 31
0.0
  0
ARC
  8
OUTLINE
  6
CONTINUOUS
 62
     3
 10
488.40000000000009
 20
-112.9999949999999
 30
0.0
 40
1.6000049999999999
 50
270.0
 51
0.0
  0
LINE
  8
OUTLINE
  6
CONTINUOUS
 62
     3
 10
488.40000000000009
 20
-0.9999900000000253
 30
0.0
 11
487.99999500000013
 21
-0.9999900000000253
 31
0.0
  0
ARC
  8
OUTLINE
  6
CONTINUOUS
 62
     3
 10
488.40000000000009
 20
-2.5999950000000349
 30
0.0
 40
1.6000049999999999
 50
0.0
 51
90.0
  0
ENDSEC
  0
EOF
