  0
SECTION
  2
HEADER
  9
$ACADVER
  1
AC1009
  9
$DWGCODEPAGE
  3
dos932
  9
$INSBASE
 10
0.0
 20
0.0
 30
0.0
  9
$EXTMIN
 10
-908.098658
 20
-521.91951399999994
 30
0.0
  9
$EXTMAX
 10
1045.572354428572
 20
846.55234200000064
 30
50.0
  9
$LIMMIN
 10
-2970.0
 20
-2100.0
  9
$LIMMAX
 10
2970.0
 20
2100.0
  9
$ORTHOMODE
 70
     1
  9
$REGENMODE
 70
     1
  9
$FILLMODE
 70
     1
  9
$QTEXTMODE
 70
     0
  9
$MIRRTEXT
 70
     0
  9
$LTSCALE
 40
20.0
  9
$ATTMODE
 70
     1
  9
$TEXTSIZE
 40
64.0
  9
$TRACEWID
 40
0.05
  9
$TEXTSTYLE
  7
STANDARD
  9
$CLAYER
  8
SIZE
  9
$CELTYPE
  6
CONTINUOUS
  9
$CECOLOR
 62
     7
  9
$DIMSCALE
 40
1.0
  9
$DIMASZ
 40
12.0
  9
$DIMEXO
 40
20.0
  9
$DIMDLI
 40
200.0
  9
$DIMRND
 40
0.0
  9
$DIMDLE
 40
0.0
  9
$DIMEXE
 40
20.0
  9
$DIMTP
 40
0.0
  9
$DIMTM
 40
0.0
  9
$DIMTXT
 40
64.0
  9
$DIMCEN
 40
0.09
  9
$DIMTSZ
 40
0.0
  9
$DIMTOL
 70
     0
  9
$DIMLIM
 70
     0
  9
$DIMTIH
 70
     0
  9
$DIMTOH
 70
     0
  9
$DIMSE1
 70
     0
  9
$DIMSE2
 70
     0
  9
$DIMTAD
 70
     1
  9
$DIMZIN
 70
     8
  9
$DIMBLK
  1

  9
$DIMASO
 70
     1
  9
$DIMSHO
 70
     0
  9
$DIMPOST
  1

  9
$DIMAPOST
  1

  9
$DIMALT
 70
     0
  9
$DIMALTD
 70
     2
  9
$DIMALTF
 40
25.399999999999999
  9
$DIMLFAC
 40
1.0
  9
$DIMTOFL
 70
     1
  9
$DIMTVP
 40
0.0
  9
$DIMTIX
 70
     1
  9
$DIMSOXD
 70
     0
  9
$DIMSAH
 70
     0
  9
$DIMBLK1
  1

  9
$DIMBLK2
  1

  9
$DIMSTYLE
  2
STANDARD
  9
$DIMCLRD
 70
     7
  9
$DIMCLRE
 70
     7
  9
$DIMCLRT
 70
     7
  9
$DIMTFAC
 40
1.0
  9
$DIMGAP
 40
25.0
  9
$LUNITS
 70
     2
  9
$LUPREC
 70
     4
  9
$SKETCHINC
 40
0.1
  9
$FILLETRAD
 40
3.0
  9
$AUNITS
 70
     1
  9
$AUPREC
 70
     3
  9
$MENU
  1
ACAD
  9
$ELEVATION
 40
0.0
  9
$PELEVATION
 40
0.0
  9
$THICKNESS
 40
0.0
  9
$LIMCHECK
 70
     0
  9
$CHAMFERA
 40
0.0
  9
$CHAMFERB
 40
0.0
  9
$SKPOLY
 70
     0
  9
$TDCREATE
 40
2453019.62301037
  9
$TDUPDATE
 40
2459017.566827766
  9
$TDINDWG
 40
1.7375044097
  9
$TDUSRTIMER
 40
1.7375044097
  9
$USRTIMER
 70
     1
  9
$ANGBASE
 50
0.0
  9
$ANGDIR
 70
     0
  9
$PDMODE
 70
     3
  9
$PDSIZE
 40
-2.0
  9
$PLINEWID
 40
0.0
  9
$SPLFRAME
 70
     0
  9
$SPLINETYPE
 70
     6
  9
$SPLINESEGS
 70
     8
  9
$SURFTAB1
 70
     6
  9
$SURFTAB2
 70
     6
  9
$SURFTYPE
 70
     6
  9
$SURFU
 70
     6
  9
$SURFV
 70
     6
  9
$UCSNAME
  2

  9
$UCSORG
 10
0.0
 20
0.0
 30
0.0
  9
$UCSXDIR
 10
1.0
 20
0.0
 30
0.0
  9
$UCSYDIR
 10
0.0
 20
1.0
 30
0.0
  9
$PUCSNAME
  2

  9
$PUCSORG
 10
0.0
 20
0.0
 30
0.0
  9
$PUCSXDIR
 10
1.0
 20
0.0
 30
0.0
  9
$PUCSYDIR
 10
0.0
 20
1.0
 30
0.0
  9
$USERI1
 70
     0
  9
$USERI2
 70
     0
  9
$USERI3
 70
     0
  9
$USERI4
 70
     0
  9
$USERI5
 70
     0
  9
$USERR1
 40
20.0
  9
$USERR2
 40
0.0
  9
$USERR3
 40
0.0
  9
$USERR4
 40
0.0
  9
$USERR5
 40
0.0
  9
$WORLDVIEW
 70
     1
  9
$SHADEDGE
 70
     3
  9
$SHADEDIF
 70
    70
  9
$TILEMODE
 70
     1
  9
$MAXACTVP
 70
    48
  9
$PINSBASE
 10
0.0
 20
0.0
 30
0.0
  9
$PLIMCHECK
 70
     0
  9
$PEXTMIN
 10
-100000000000000000000.0
 20
-100000000000000000000.0
 30
-100000000000000000000.0
  9
$PEXTMAX
 10
100000000000000000000.0
 20
100000000000000000000.0
 30
100000000000000000000.0
  9
$PLIMMIN
 10
0.0
 20
0.0
  9
$PLIMMAX
 10
12.0
 20
9.0
  9
$UNITMODE
 70
     0
  9
$VISRETAIN
 70
     0
  9
$PLINEGEN
 70
     0
  9
$PSLTSCALE
 70
     0
  9
$TREEDEPTH
 70
  3020
  9
$ATTDIA
 70
     0
  9
$ATTREQ
 70
     1
  9
$BLIPMODE
 70
     1
  9
$COORDS
 70
     1
  9
$DRAGMODE
 70
     2
  9
$OSMODE
 70
     0
  9
$HANDLING
 70
     0
  9
$HANDSEED
  5
103D6
  0
ENDSEC
  0
SECTION
  2
TABLES
  0
TABLE
  2
LTYPE
 70
     3
  0
LTYPE
  2
CONTINUOUS
 70
     0
  3
実線
 72
    65
 73
     0
 40
0.0
  0
LTYPE
  2
DASHDOT
 70
     0
  3
____ _ ____ _ ____ _ ____ _ ____ _ ____ _ ____
 72
    65
 73
     4
 40
5.5
 49
4.0
 49
-0.6
 49
0.3
 49
-0.6
  0
LTYPE
  2
DASHED
 70
     0
  3
-- -- -- -- -- -- -- -- -- -- -- -- -- -- --
 72
    65
 73
     2
 40
0.75
 49
0.5
 49
-0.25
  0
ENDTAB
  0
TABLE
  2
LAYER
 70
    12
  0
LAYER
  2
0
 70
     0
 62
     7
  6
CONTINUOUS
  0
LAYER
  2
BASIS
 70
     0
 62
     6
  6
DASHDOT
  0
LAYER
  2
OUTLINE
 70
     0
 62
     3
  6
CONTINUOUS
  0
LAYER
  2
DETAIL
 70
     0
 62
     5
  6
CONTINUOUS
  0
LAYER
  2
SIZE
 70
     0
 62
    30
  6
CONTINUOUS
  0
LAYER
  2
ARRANGE
 70
     0
 62
     1
  6
CONTINUOUS
  0
LAYER
  2
ETC
 70
     0
 62
    61
  6
CONTINUOUS
  0
LAYER
  2
FIX
 70
     0
 62
    11
  6
CONTINUOUS
  0
LAYER
  2
NOTE
 70
     0
 62
     4
  6
CONTINUOUS
  0
LAYER
  2
DEFPOINTS
 70
    64
 62
     7
  6
CONTINUOUS
  0
LAYER
  2
SERVICESPACE
 70
    64
 62
     2
  6
DASHDOT
  0
LAYER
  2
SYMBOLLINE
 70
    64
 62
    15
  6
CONTINUOUS
  0
ENDTAB
  0
TABLE
  2
STYLE
 70
     1
  0
STYLE
  2
STANDARD
 70
     0
 40
64.0
 41
0.9
 50
0.0
 71
     0
 42
64.0
  3
SIMPLEX.shx
  4
BIGFONT.shx
  0
ENDTAB
  0
TABLE
  2
APPID
 70
    19
  0
APPID
  2
ACAD
 70
     0
  0
APPID
  2
AUTOCAD_POSTSCRIPT_FIGURE
 70
     0
  0
APPID
  2
ACAD_EXEMPT_FROM_CAD_STANDARDS
 70
     0
  0
APPID
  2
ACAD_PSEXT
 70
     0
  0
APPID
  2
ACAUTHENVIRON
 70
     0
  0
APPID
  2
GENIUS_GENOENT_13
 70
     0
  0
APPID
  2
GENIUS_GENCFG_13
 70
     0
  0
APPID
  2
GENIUS_GENCFG0_13
 70
     0
  0
APPID
  2
GENIUS_GENCFG1_13
 70
     0
  0
APPID
  2
GENIUS_GENCFG2_13
 70
     0
  0
APPID
  2
GENIUS_GENCFG3_13
 70
     0
  0
APPID
  2
GENIUS_GENCFG4_13
 70
     0
  0
APPID
  2
GENIUS_GEVCFG0_13
 70
     0
  0
APPID
  2
CONTENTBLOCKICON
 70
     0
  0
APPID
  2
CONTENTBLOCKDESCRIPTION
 70
     0
  0
APPID
  2
ACAD_NAV_VCDISPLAY
 70
     0
  0
APPID
  2
ACAD_MLEADERVER
 70
     0
  0
APPID
  2
ACDBDYNAMICBLOCKTRUENAME
 70
     0
  0
APPID
  2
ACDBDYNAMICBLOCKGUID
 70
     0
  0
ENDTAB
  0
TABLE
  2
DIMSTYLE
 70
     1
  0
DIMSTYLE
  2
STANDARD
 70
     0
  3

  4

  5
_ORIGIN
  6

  7

 40
1.0
 41
12.0
 42
20.0
 43
200.0
 44
20.0
 45
0.0
 46
0.0
 47
0.0
 48
0.0
140
64.0
141
0.09
142
0.0
143
25.399999999999999
144
1.0
145
0.0
146
1.0
147
25.0
 71
     0
 72
     0
 73
     0
 74
     0
 75
     0
 76
     0
 77
     1
 78
     8
170
     0
171
     2
172
     1
173
     0
174
     1
175
     0
176
     7
177
     7
178
     7
  0
ENDTAB
  0
TABLE
  2
VIEW
 70
     1
  0
VIEW
  2
ALL
 70
     0
 40
4282.6198079999986
 10
0.0
 20
41.309904000000003
 41
5940.0
 11
0.0
 21
0.0
 31
1.0
 12
0.0
 22
0.0
 32
0.0
 42
50.0
 43
0.0
 44
0.0
 50
0.0
 71
     0
  0
ENDTAB
  0
TABLE
  2
UCS
 70
     0
  0
ENDTAB
  0
TABLE
  2
VPORT
 70
     1
  0
VPORT
  2
*ACTIVE
 70
     0
 10
0.0
 20
0.0
 11
1.0
 21
1.0
 12
68.884291254080608
 22
162.30011983111041
 13
0.0
 23
0.0
 14
1.0
 24
1.0
 15
0.0
 25
0.0
 16
0.0
 26
0.0
 36
1.0
 17
0.0
 27
0.0
 37
0.0
 40
880.28728342084503
 41
2.2114384748700169
 42
50.0
 43
0.0
 44
0.0
 50
0.0
 51
0.0
 71
     0
 72
  1000
 73
     1
 74
     3
 75
     0
 76
     0
 77
     0
 78
     0
  0
ENDTAB
  0
ENDSEC
  0
SECTION
  2
BLOCKS
  0
BLOCK
  8
0
  2
_ORIGIN
 70
     0
 10
0.0
 20
0.0
 30
0.0
  3
_ORIGIN
  1
_ORIGIN
  0
CIRCLE
  8
0
  6
CONTINUOUS
 62
     7
 10
0.0
 20
0.0
 30
0.0
 40
0.5
  0
LINE
  8
0
  6
CONTINUOUS
 62
     7
 10
0.0
 20
0.0
 30
0.0
 11
-1.0
 21
0.0
 31
0.0
  0
ENDBLK
  8
0
  0
ENDSEC
  0
SECTION
  2
ENTITIES
  0
TEXT
  8
ETC
  6
CONTINUOUS
 62
    61
 10
326.943783
 20
782.55234199999995
 30
0.0
 40
64.0
  1
APF-2815YSB2_5
 41
0.9
  0
TEXT
  8
ETC
  6
CONTINUOUS
 62
    61
 10
322.757789
 20
664.59703200000001
 30
0.0
 40
64.0
  1
産業扇
 41
0.9
  0
TEXT
  8
ETC
  6
CONTINUOUS
 62
    61
 10
373.36529200000001
 20
557.67609600000003
 30
0.0
 40
40.0
  1
APF-2815YSB2
 41
0.9
  0
CIRCLE
  8
ARRANGE
  6
CONTINUOUS
 62
     1
 10
0.0
 20
0.0
 30
0.0
 40
40.0
  0
POINT
  8
ARRANGE
  6
CONTINUOUS
 62
     1
 10
0.0
 20
0.0
 30
0.0
  0
LINE
  8
BASIS
  6
DASHDOT
 62
     6
 10
0.0
 20
-79.014993000000004
 30
0.0
 11
0.0
 21
87.654333000000008
 31
0.0
  0
LINE
  8
BASIS
  6
DASHDOT
 62
     6
 10
-52.843132999999987
 20
0.0
 30
0.0
 11
174.90665300000001
 21
0.0
 31
0.0
  0
LINE
  8
NOTE
  6
CONTINUOUS
 62
     4
 10
14.077927000000001
 20
80.150005000000021
 30
0.0
 11
-174.354488
 21
336.70138600000001
 31
0.0
  0
LINE
  8
NOTE
  6
CONTINUOUS
 62
     4
 10
-174.354488
 20
336.70138600000001
 30
0.0
 11
-908.098658
 21
336.70138600000001
 31
0.0
  0
TEXT
  8
NOTE
  6
CONTINUOUS
 62
     4
 10
-875.27977699999997
 20
354.50250599999998
 30
0.0
 40
64.0
  1
隙間防止用クッション
 41
0.9
  0
LINE
  8
NOTE
  6
CONTINUOUS
 62
     4
 10
97.60000500000001
 20
-79.757106000000007
 30
0.0
 11
97.60000500000001
 21
-61.608834000000002
 31
0.0
  0
LINE
  8
NOTE
  6
CONTINUOUS
 62
     4
 10
17.59999500000001
 20
-78.781393999999992
 30
0.0
 11
17.59999500000001
 21
-61.803973999999997
 31
0.0
  0
LINE
  8
BASIS
  6
DASHDOT
 62
     6
 10
25.000005000000002
 20
56.150005000000021
 30
0.0
 11
25.000005000000002
 21
84.150010000000009
 31
0.0
  0
LINE
  8
SIZE
  6
CONTINUOUS
 62
    30
 10
40.000005000000002
 20
100.15000499999999
 30
0.0
 11
40.000005000000002
 21
182.70786100000001
 31
0.0
  0
LINE
  8
SIZE
  6
CONTINUOUS
 62
    30
 10
10.000005
 20
100.15000499999999
 30
0.0
 11
10.000005
 21
182.70786100000001
 31
0.0
  0
LINE
  8
SIZE
  6
CONTINUOUS
 62
    30
 10
-1.999994999999998
 20
162.70786100000001
 30
0.0
 11
-13.999995
 21
162.70786100000001
 31
0.0
  0
LINE
  8
SIZE
  6
CONTINUOUS
 62
    30
 10
52.000005000000002
 20
162.70786100000001
 30
0.0
 11
207.257148
 21
162.70786100000001
 31
0.0
  0
LINE
  8
SIZE
  6
CONTINUOUS
 62
    30
 10
10.000005
 20
162.70786100000001
 30
0.0
 11
40.000005000000002
 21
162.70786100000001
 31
0.0
  0
CIRCLE
  8
SIZE
  6
CONTINUOUS
 62
    30
 10
10.000005
 20
162.70786100000001
 30
0.0
 40
6.0
  0
LINE
  8
SIZE
  6
CONTINUOUS
 62
    30
 10
10.000005
 20
162.70786100000001
 30
0.0
 11
-1.999994999999998
 21
162.70786100000001
 31
0.0
  0
CIRCLE
  8
SIZE
  6
CONTINUOUS
 62
    30
 10
40.000005000000002
 20
162.70786100000001
 30
0.0
 40
6.0
  0
LINE
  8
SIZE
  6
CONTINUOUS
 62
    30
 10
40.000005000000002
 20
162.70786100000001
 30
0.0
 11
52.000005000000002
 21
162.70786100000001
 31
0.0
  0
TEXT
  8
SIZE
  6
CONTINUOUS
 62
    30
 10
89.00000457142859
 20
187.70786100000001
 30
0.0
 40
64.0
  1
30
 41
0.9
 72
     1
 11
135.62857600000001
 21
187.70786100000001
 31
0.0
  0
LINE
  8
SIZE
  6
CONTINUOUS
 62
    30
 10
49.999994999999998
 20
100.15000499999999
 30
0.0
 11
49.999994999999998
 21
302.70786099999998
 31
0.0
  0
LINE
  8
SIZE
  6
CONTINUOUS
 62
    30
 10
0.0
 20
107.65433299999999
 30
0.0
 11
0.0
 21
302.70786099999998
 31
0.0
  0
LINE
  8
SIZE
  6
CONTINUOUS
 62
    30
 10
61.999994999999998
 20
282.70786099999998
 30
0.0
 11
73.999994999999998
 21
282.70786099999998
 31
0.0
  0
LINE
  8
SIZE
  6
CONTINUOUS
 62
    30
 10
-12.0
 20
282.70786099999998
 30
0.0
 11
-24.0
 21
282.70786099999998
 31
0.0
  0
LINE
  8
SIZE
  6
CONTINUOUS
 62
    30
 10
49.999994999999998
 20
282.70786099999998
 30
0.0
 11
0.0
 21
282.70786099999998
 31
0.0
  0
CIRCLE
  8
SIZE
  6
CONTINUOUS
 62
    30
 10
49.999994999999998
 20
282.70786099999998
 30
0.0
 40
6.0
  0
LINE
  8
SIZE
  6
CONTINUOUS
 62
    30
 10
49.999994999999998
 20
282.70786099999998
 30
0.0
 11
61.999994999999998
 21
282.70786099999998
 31
0.0
  0
CIRCLE
  8
SIZE
  6
CONTINUOUS
 62
    30
 10
0.0
 20
282.70786099999998
 30
0.0
 40
6.0
  0
LINE
  8
SIZE
  6
CONTINUOUS
 62
    30
 10
0.0
 20
282.70786099999998
 30
0.0
 11
-12.0
 21
282.70786099999998
 31
0.0
  0
TEXT
  8
SIZE
  6
CONTINUOUS
 62
    30
 10
-21.628573428571411
 20
307.70786099999998
 30
0.0
 40
64.0
  1
50
 41
0.9
 72
     1
 11
24.999998000000009
 21
307.70786099999998
 31
0.0
  0
LINE
  8
SIZE
  6
CONTINUOUS
 62
    30
 10
-17.400005
 20
-62.144727000000003
 30
0.0
 11
-214.21591799999999
 21
-62.144727000000003
 31
0.0
  0
LINE
  8
SIZE
  6
CONTINUOUS
 62
    30
 10
-24.706309999999998
 20
62.750004999999987
 30
0.0
 11
-214.21591799999999
 21
62.750004999999987
 31
0.0
  0
LINE
  8
SIZE
  6
CONTINUOUS
 62
    30
 10
-194.21591799999999
 20
50.750004999999987
 30
0.0
 11
-194.21591799999999
 21
-50.144727000000003
 31
0.0
  0
LINE
  8
SIZE
  6
CONTINUOUS
 62
    30
 10
-194.21591799999999
 20
-62.144727000000003
 30
0.0
 11
-194.21591799999999
 21
-261.53758399999998
 31
0.0
  0
CIRCLE
  8
SIZE
  6
CONTINUOUS
 62
    30
 10
-194.21591799999999
 20
62.750004999999987
 30
0.0
 40
6.0
  0
LINE
  8
SIZE
  6
CONTINUOUS
 62
    30
 10
-194.21591799999999
 20
62.750004999999987
 30
0.0
 11
-194.21591799999999
 21
50.750004999999987
 31
0.0
  0
CIRCLE
  8
SIZE
  6
CONTINUOUS
 62
    30
 10
-194.21591799999999
 20
-62.144727000000003
 30
0.0
 40
6.0
  0
LINE
  8
SIZE
  6
CONTINUOUS
 62
    30
 10
-194.21591799999999
 20
-62.144727000000003
 30
0.0
 11
-194.21591799999999
 21
-50.144727000000003
 31
0.0
  0
TEXT
  8
SIZE
  6
CONTINUOUS
 62
    30
 10
-219.21591799999999
 20
-236.5375845714286
 30
0.0
 40
64.0
  1
125
 50
90.0
 41
0.9
 72
     1
 11
-219.21591799999999
 21
-167.96615600000001
 31
0.0
  0
LINE
  8
SIZE
  6
CONTINUOUS
 62
    30
 10
-24.706309999999998
 20
62.750004999999987
 30
0.0
 11
-214.21591799999999
 21
62.750004999999987
 31
0.0
  0
LINE
  8
SIZE
  6
CONTINUOUS
 62
    30
 10
-18.800000000000001
 20
70.150000000000006
 30
0.0
 11
-214.21591799999999
 21
70.150000000000006
 31
0.0
  0
LINE
  8
SIZE
  6
CONTINUOUS
 62
    30
 10
-194.21591799999999
 20
50.750004999999987
 30
0.0
 11
-194.21591799999999
 21
38.750005000000002
 31
0.0
  0
LINE
  8
SIZE
  6
CONTINUOUS
 62
    30
 10
-194.21591799999999
 20
82.150000000000006
 30
0.0
 11
-194.21591799999999
 21
182.80000000000001
 31
0.0
  0
LINE
  8
SIZE
  6
CONTINUOUS
 62
    30
 10
-194.21591799999999
 20
62.750004999999987
 30
0.0
 11
-194.21591799999999
 21
70.150000000000006
 31
0.0
  0
CIRCLE
  8
SIZE
  6
CONTINUOUS
 62
    30
 10
-194.21591799999999
 20
62.750004999999987
 30
0.0
 40
6.0
  0
LINE
  8
SIZE
  6
CONTINUOUS
 62
    30
 10
-194.21591799999999
 20
62.750004999999987
 30
0.0
 11
-194.21591799999999
 21
50.750004999999987
 31
0.0
  0
CIRCLE
  8
SIZE
  6
CONTINUOUS
 62
    30
 10
-194.21591799999999
 20
70.150000000000006
 30
0.0
 40
6.0
  0
LINE
  8
SIZE
  6
CONTINUOUS
 62
    30
 10
-194.21591799999999
 20
70.150000000000006
 30
0.0
 11
-194.21591799999999
 21
82.150000000000006
 31
0.0
  0
TEXT
  8
SIZE
  6
CONTINUOUS
 62
    30
 10
-219.21591799999999
 20
119.40000000000001
 30
0.0
 40
64.0
  1
7
 50
90.0
 41
0.9
 72
     1
 11
-219.21591799999999
 21
138.59999999999999
 31
0.0
  0
LINE
  8
SIZE
  6
CONTINUOUS
 62
    30
 10
-17.400005
 20
-72.14999499999999
 30
0.0
 11
-334.21591799999999
 21
-72.14999499999999
 31
0.0
  0
LINE
  8
SIZE
  6
CONTINUOUS
 62
    30
 10
-18.800000000000001
 20
70.150000000000006
 30
0.0
 11
-334.21591799999999
 21
70.150000000000006
 31
0.0
  0
LINE
  8
SIZE
  6
CONTINUOUS
 62
    30
 10
-314.21591799999999
 20
58.150000000000013
 30
0.0
 11
-314.21591799999999
 21
-60.14999499999999
 31
0.0
  0
LINE
  8
SIZE
  6
CONTINUOUS
 62
    30
 10
-314.21591799999999
 20
-72.14999499999999
 30
0.0
 11
-314.21591799999999
 21
-388.13856600000003
 31
0.0
  0
CIRCLE
  8
SIZE
  6
CONTINUOUS
 62
    30
 10
-314.21591799999999
 20
70.150000000000006
 30
0.0
 40
6.0
  0
LINE
  8
SIZE
  6
CONTINUOUS
 62
    30
 10
-314.21591799999999
 20
70.150000000000006
 30
0.0
 11
-314.21591799999999
 21
58.150000000000013
 31
0.0
  0
CIRCLE
  8
SIZE
  6
CONTINUOUS
 62
    30
 10
-314.21591799999999
 20
-72.14999499999999
 30
0.0
 40
6.0
  0
LINE
  8
SIZE
  6
CONTINUOUS
 62
    30
 10
-314.21591799999999
 20
-72.14999499999999
 30
0.0
 11
-314.21591799999999
 21
-60.14999499999999
 31
0.0
  0
TEXT
  8
SIZE
  6
CONTINUOUS
 62
    30
 10
-339.21591799999999
 20
-372.46428099999991
 30
0.0
 40
64.0
  1
（142）
 50
90.0
 41
0.9
 72
     1
 11
-339.21591799999999
 21
-236.14428100000001
 31
0.0
  0
LINE
  8
NOTE
  6
CONTINUOUS
 62
     4
 10
237.637169
 20
-233.825501
 30
0.0
 11
97.60000500000001
 21
-70.549990000000008
 31
0.0
  0
LINE
  8
NOTE
  6
CONTINUOUS
 62
     4
 10
912.4449689999999
 20
-233.825501
 30
0.0
 11
237.637169
 21
-233.825501
 31
0.0
  0
TEXT
  8
NOTE
  6
CONTINUOUS
 62
     4
 10
285.57682299999999
 20
-216.02438100000001
 30
0.0
 40
64.0
  1
AH 4-φ10×16
 41
0.9
  0
CIRCLE
  8
FIX
  6
CONTINUOUS
 62
    11
 10
97.60000500000001
 20
-70.549990000000008
 30
0.0
 40
5.0
  0
CIRCLE
  8
FIX
  6
CONTINUOUS
 62
    11
 10
17.59999500000001
 20
-70.292683999999994
 30
0.0
 40
5.0
  0
TEXT
  8
NOTE
  6
CONTINUOUS
 62
     4
 10
-769.95406300000002
 20
246.99744100000001
 30
0.0
 40
64.0
  1
（厚さ10mm）付
 41
0.9
  0
LINE
  8
NOTE
  6
CONTINUOUS
 62
     4
 10
97.60000500000001
 20
-70.682969999999997
 30
0.0
 11
110.697795
 21
-78.732293999999996
 31
0.0
  0
LINE
  8
NOTE
  6
CONTINUOUS
 62
     4
 10
97.660003000000017
 20
-70.668666000000002
 30
0.0
 11
103.256674
 21
-84.042697000000004
 31
0.0
  0
LINE
  8
NOTE
  6
CONTINUOUS
 62
     4
 10
14.077927000000001
 20
80.150005000000021
 30
0.0
 11
6.7981830000000016
 21
99.675389999999993
 31
0.0
  0
LINE
  8
NOTE
  6
CONTINUOUS
 62
     4
 10
14.077927000000001
 20
80.150005000000021
 30
0.0
 11
-1.702976
 21
92.219040000000007
 31
0.0
  0
LINE
  8
SIZE
  6
CONTINUOUS
 62
    30
 10
0.0
 20
-99.014993000000004
 30
0.0
 11
0.0
 21
-521.91951399999994
 31
0.0
  0
LINE
  8
SIZE
  6
CONTINUOUS
 62
    30
 10
164.10711499999999
 20
-78.04289
 30
0.0
 11
164.10711499999999
 21
-521.91951399999994
 31
0.0
  0
LINE
  8
SIZE
  6
CONTINUOUS
 62
    30
 10
12.0
 20
-501.91951399999988
 30
0.0
 11
152.10711499999999
 21
-501.91951399999988
 31
0.0
  0
CIRCLE
  8
SIZE
  6
CONTINUOUS
 62
    30
 10
0.0
 20
-501.91951399999988
 30
0.0
 40
6.0
  0
LINE
  8
SIZE
  6
CONTINUOUS
 62
    30
 10
0.0
 20
-501.91951399999988
 30
0.0
 11
12.0
 21
-501.91951399999988
 31
0.0
  0
CIRCLE
  8
SIZE
  6
CONTINUOUS
 62
    30
 10
164.10711499999999
 20
-501.91951399999988
 30
0.0
 40
6.0
  0
LINE
  8
SIZE
  6
CONTINUOUS
 62
    30
 10
164.10711499999999
 20
-501.91951399999988
 30
0.0
 11
152.10711499999999
 21
-501.91951399999988
 31
0.0
  0
TEXT
  8
SIZE
  6
CONTINUOUS
 62
    30
 10
12.11070085714289
 20
-476.91951399999999
 30
0.0
 40
64.0
  1
164
 41
0.9
 72
     1
 11
82.05355800000001
 21
-476.91951399999999
 31
0.0
  0
LINE
  8
SIZE
  6
CONTINUOUS
 62
    30
 10
17.59999500000001
 20
-98.781393999999992
 30
0.0
 11
17.59999500000001
 21
-401.91951399999999
 31
0.0
  0
LINE
  8
SIZE
  6
CONTINUOUS
 62
    30
 10
97.60000500000001
 20
-99.757106000000007
 30
0.0
 11
97.60000500000001
 21
-401.91951399999999
 31
0.0
  0
LINE
  8
SIZE
  6
CONTINUOUS
 62
    30
 10
29.59999500000001
 20
-381.91951399999999
 30
0.0
 11
85.60000500000001
 21
-381.91951399999999
 31
0.0
  0
LINE
  8
SIZE
  6
CONTINUOUS
 62
    30
 10
97.60000500000001
 20
-381.91951399999999
 30
0.0
 11
315.37172900000002
 21
-381.91951399999999
 31
0.0
  0
CIRCLE
  8
SIZE
  6
CONTINUOUS
 62
    30
 10
17.59999500000001
 20
-381.91951399999999
 30
0.0
 40
6.0
  0
LINE
  8
SIZE
  6
CONTINUOUS
 62
    30
 10
17.59999500000001
 20
-381.91951399999999
 30
0.0
 11
29.59999500000001
 21
-381.91951399999999
 31
0.0
  0
CIRCLE
  8
SIZE
  6
CONTINUOUS
 62
    30
 10
97.60000500000001
 20
-381.91951399999999
 30
0.0
 40
6.0
  0
LINE
  8
SIZE
  6
CONTINUOUS
 62
    30
 10
97.60000500000001
 20
-381.91951399999999
 30
0.0
 11
85.60000500000001
 21
-381.91951399999999
 31
0.0
  0
TEXT
  8
SIZE
  6
CONTINUOUS
 62
    30
 10
197.11458557142859
 20
-356.91951399999999
 30
0.0
 40
64.0
  1
80
 41
0.9
 72
     1
 11
243.743157
 21
-356.91951399999999
 31
0.0
  0
LINE
  8
SIZE
  6
CONTINUOUS
 62
    30
 10
17.59999500000001
 20
-98.781393999999992
 30
0.0
 11
17.59999500000001
 21
-401.91951399999999
 31
0.0
  0
LINE
  8
SIZE
  6
CONTINUOUS
 62
    30
 10
0.0
 20
-99.014993000000004
 30
0.0
 11
0.0
 21
-401.91951399999999
 31
0.0
  0
LINE
  8
SIZE
  6
CONTINUOUS
 62
    30
 10
29.59999500000001
 20
-381.91951399999999
 30
0.0
 11
41.599995000000007
 21
-381.91951399999999
 31
0.0
  0
LINE
  8
SIZE
  6
CONTINUOUS
 62
    30
 10
-12.0
 20
-381.91951399999999
 30
0.0
 11
-156.28571400000001
 21
-381.91951399999999
 31
0.0
  0
LINE
  8
SIZE
  6
CONTINUOUS
 62
    30
 10
17.59999500000001
 20
-381.91951399999999
 30
0.0
 11
0.0
 21
-381.91951399999999
 31
0.0
  0
CIRCLE
  8
SIZE
  6
CONTINUOUS
 62
    30
 10
17.59999500000001
 20
-381.91951399999999
 30
0.0
 40
6.0
  0
LINE
  8
SIZE
  6
CONTINUOUS
 62
    30
 10
17.59999500000001
 20
-381.91951399999999
 30
0.0
 11
29.59999500000001
 21
-381.91951399999999
 31
0.0
  0
CIRCLE
  8
SIZE
  6
CONTINUOUS
 62
    30
 10
0.0
 20
-381.91951399999999
 30
0.0
 40
6.0
  0
LINE
  8
SIZE
  6
CONTINUOUS
 62
    30
 10
0.0
 20
-381.91951399999999
 30
0.0
 11
-12.0
 21
-381.91951399999999
 31
0.0
  0
TEXT
  8
SIZE
  6
CONTINUOUS
 62
    30
 10
-131.2857141428571
 20
-356.91951399999999
 30
0.0
 40
64.0
  1
18
 41
0.9
 72
     1
 11
-90.142856999999992
 21
-356.91951399999999
 31
0.0
  0
LINE
  8
DETAIL
  6
CONTINUOUS
 62
     5
 10
115.399995
 20
-62.5
 30
0.0
 11
115.399995
 21
62.5
 31
0.0
  0
LINE
  8
DETAIL
  6
CONTINUOUS
 62
     5
 10
107.59999500000001
 20
-22.149999999999999
 30
0.0
 11
112.600005
 21
-27.149995000000001
 31
0.0
  0
LINE
  8
DETAIL
  6
CONTINUOUS
 62
     5
 10
7.600005000000003
 20
-22.149999999999999
 30
0.0
 11
2.5999949999999998
 21
-27.149995000000001
 31
0.0
  0
LINE
  8
DETAIL
  6
CONTINUOUS
 62
     5
 10
146.39999499999999
 20
-62.249994999999998
 30
0.0
 11
146.39999499999999
 21
62.250010000000003
 31
0.0
  0
LINE
  8
DETAIL
  6
CONTINUOUS
 62
     5
 10
152.39999499999999
 20
57.750010000000003
 30
0.0
 11
152.39999499999999
 21
-57.749994999999998
 31
0.0
  0
LINE
  8
DETAIL
  6
CONTINUOUS
 62
     5
 10
156.40000000000001
 20
-20.74999
 30
0.0
 11
156.40000000000001
 21
-57.749994999999998
 31
0.0
  0
LINE
  8
DETAIL
  6
CONTINUOUS
 62
     5
 10
1.399994999999997
 20
-60.549999999999997
 30
0.0
 11
1.399994999999997
 21
69.150010000000009
 31
0.0
  0
LINE
  8
DETAIL
  6
CONTINUOUS
 62
     5
 10
0.6000000000000014
 20
-60.549999999999997
 30
0.0
 11
0.6000000000000014
 21
69.150010000000009
 31
0.0
  0
LINE
  8
DETAIL
  6
CONTINUOUS
 62
     5
 10
114.59999999999999
 20
60.650005000000021
 30
0.0
 11
114.59999999999999
 21
-60.549999999999997
 31
0.0
  0
LINE
  8
DETAIL
  6
CONTINUOUS
 62
     5
 10
112.600005
 20
-72.14999499999999
 30
0.0
 11
2.5999949999999998
 21
-72.14999499999999
 31
0.0
  0
LINE
  8
DETAIL
  6
CONTINUOUS
 62
     5
 10
112.600005
 20
-70.549990000000008
 30
0.0
 11
2.5999949999999998
 21
-70.549990000000008
 31
0.0
  0
LINE
  8
DETAIL
  6
CONTINUOUS
 62
     5
 10
162.89999499999999
 20
-62.249994999999998
 30
0.0
 11
144.40000000000001
 21
-62.249994999999998
 31
0.0
  0
LINE
  8
DETAIL
  6
CONTINUOUS
 62
     5
 10
163.40000499999999
 20
-57.749994999999998
 30
0.0
 11
146.39999499999999
 21
-57.749994999999998
 31
0.0
  0
ARC
  8
DETAIL
  6
CONTINUOUS
 62
     5
 10
163.40000499999999
 20
-58.75
 30
0.0
 40
1.000005
 50
0.0
 51
90.0
  0
LINE
  8
DETAIL
  6
CONTINUOUS
 62
     5
 10
164.39999499999999
 20
60.750010000000003
 30
0.0
 11
164.39999499999999
 21
-60.749994999999998
 31
0.0
  0
ARC
  8
DETAIL
  6
CONTINUOUS
 62
     5
 10
162.89999499999999
 20
-60.749994999999998
 30
0.0
 40
1.5
 50
270.0
 51
0.0
  0
LINE
  8
DETAIL
  6
CONTINUOUS
 62
     5
 10
112.600005
 20
-72.14999499999999
 30
0.0
 11
112.600005
 21
-27.149995000000001
 31
0.0
  0
CIRCLE
  8
DETAIL
  6
CONTINUOUS
 62
     5
 10
97.60000500000001
 20
-42.149994999999997
 30
0.0
 40
4.700024
  0
ARC
  8
DETAIL
  6
CONTINUOUS
 62
     5
 10
142.40000499999999
 20
-42.476095000000001
 30
0.0
 40
1.999995
 50
271.14576299999987
 51
0.0
  0
LINE
  8
DETAIL
  6
CONTINUOUS
 62
     5
 10
144.40000000000001
 20
-62.249994999999998
 30
0.0
 11
144.40000000000001
 21
62.250010000000003
 31
0.0
  0
LINE
  8
DETAIL
  6
CONTINUOUS
 62
     5
 10
141.94999000000001
 20
-61.988994999999989
 30
0.0
 11
115.399995
 21
-62.5
 31
0.0
  0
LINE
  8
DETAIL
  6
CONTINUOUS
 62
     5
 10
142.43999500000001
 20
-44.475700000000003
 30
0.0
 11
115.399995
 21
-44.996499999999997
 31
0.0
  0
ARC
  8
DETAIL
  6
CONTINUOUS
 62
     5
 10
115.8
 20
-52.499994999999998
 30
0.0
 40
6.1000050000000003
 50
309.60198299999922
 51
50.39803499999941
  0
ARC
  8
DETAIL
  6
CONTINUOUS
 62
     5
 10
141.89999499999999
 20
-59.489499999999992
 30
0.0
 40
2.5000049999999998
 50
271.14576299999987
 51
0.0
  0
LINE
  8
DETAIL
  6
CONTINUOUS
 62
     5
 10
119.68845
 20
-57.19999
 30
0.0
 11
119.68845
 21
-47.799999999999997
 31
0.0
  0
LINE
  8
DETAIL
  6
CONTINUOUS
 62
     5
 10
119.40000000000001
 20
-47.299990000000008
 30
0.0
 11
119.40000000000001
 21
-57.700000000000003
 31
0.0
  0
LINE
  8
DETAIL
  6
CONTINUOUS
 62
     5
 10
117.40000499999999
 20
-45.44659
 30
0.0
 11
117.40000499999999
 21
-61.969900000000003
 31
0.0
  0
ARC
  8
DETAIL
  6
CONTINUOUS
 62
     5
 10
119.09999999999999
 20
-57.700000000000003
 30
0.0
 40
0.3
 50
270.0
 51
0.0
  0
LINE
  8
DETAIL
  6
CONTINUOUS
 62
     5
 10
117.700005
 20
-58.0
 30
0.0
 11
119.09999999999999
 21
-58.0
 31
0.0
  0
ARC
  8
DETAIL
  6
CONTINUOUS
 62
     5
 10
117.700005
 20
-58.299999999999997
 30
0.0
 40
0.3
 50
90.0
 51
180.0
  0
ARC
  8
DETAIL
  6
CONTINUOUS
 62
     5
 10
116.899995
 20
-61.969900000000003
 30
0.0
 40
0.499995
 50
271.14576299999987
 51
0.0
  0
LINE
  8
DETAIL
  6
CONTINUOUS
 62
     5
 10
113.09999999999999
 20
-61.150000000000013
 30
0.0
 11
113.09999999999999
 21
-58.150000000000013
 31
0.0
  0
LINE
  8
DETAIL
  6
CONTINUOUS
 62
     5
 10
114.59999999999999
 20
-58.150000000000013
 30
0.0
 11
113.09999999999999
 21
-58.150000000000013
 31
0.0
  0
LINE
  8
DETAIL
  6
CONTINUOUS
 62
     5
 10
113.09999999999999
 20
-61.150000000000013
 30
0.0
 11
112.600005
 21
-61.150000000000013
 31
0.0
  0
ARC
  8
DETAIL
  6
CONTINUOUS
 62
     5
 10
113.800005
 20
-60.549999999999997
 30
0.0
 40
1.6000049999999999
 50
270.0
 51
0.0
  0
ARC
  8
DETAIL
  6
CONTINUOUS
 62
     5
 10
113.800005
 20
-60.549999999999997
 30
0.0
 40
0.799995
 50
270.0
 51
0.0
  0
LINE
  8
DETAIL
  6
CONTINUOUS
 62
     5
 10
112.600005
 20
-61.349994999999993
 30
0.0
 11
113.800005
 21
-61.349994999999993
 31
0.0
  0
LINE
  8
DETAIL
  6
CONTINUOUS
 62
     5
 10
112.600005
 20
-62.149990000000003
 30
0.0
 11
113.800005
 21
-62.149990000000003
 31
0.0
  0
LINE
  8
DETAIL
  6
CONTINUOUS
 62
     5
 10
119.40000000000001
 20
-57.19999
 30
0.0
 11
119.68845
 21
-57.19999
 31
0.0
  0
LINE
  8
DETAIL
  6
CONTINUOUS
 62
     5
 10
119.40000000000001
 20
-47.799999999999997
 30
0.0
 11
119.68845
 21
-47.799999999999997
 31
0.0
  0
ARC
  8
DETAIL
  6
CONTINUOUS
 62
     5
 10
119.09999999999999
 20
-47.299990000000008
 30
0.0
 40
0.3
 50
0.0
 51
90.0
  0
LINE
  8
DETAIL
  6
CONTINUOUS
 62
     5
 10
117.700005
 20
-46.999989999999997
 30
0.0
 11
119.09999999999999
 21
-46.999989999999997
 31
0.0
  0
ARC
  8
DETAIL
  6
CONTINUOUS
 62
     5
 10
117.700005
 20
-46.69999
 30
0.0
 40
0.3
 50
180.0
 51
270.0
  0
ARC
  8
DETAIL
  6
CONTINUOUS
 62
     5
 10
117.90000000000001
 20
-45.44659
 30
0.0
 40
0.499995
 50
91.145762999999945
 51
180.0
  0
LINE
  8
DETAIL
  6
CONTINUOUS
 62
     5
 10
146.39999499999999
 20
-30.25
 30
0.0
 11
144.40000000000001
 21
-30.25
 31
0.0
  0
LINE
  8
DETAIL
  6
CONTINUOUS
 62
     5
 10
99.084932999999978
 20
-43.634928000000002
 30
0.0
 11
96.115076999999985
 21
-40.665062000000013
 31
0.0
  0
LINE
  8
DETAIL
  6
CONTINUOUS
 62
     5
 10
96.115071999999998
 20
-43.634923000000001
 30
0.0
 11
99.084937999999994
 21
-40.665066999999993
 31
0.0
  0
LINE
  8
DETAIL
  6
CONTINUOUS
 62
     5
 10
2.5999949999999998
 20
-72.14999499999999
 30
0.0
 11
2.5999949999999998
 21
-27.149995000000001
 31
0.0
  0
CIRCLE
  8
DETAIL
  6
CONTINUOUS
 62
     5
 10
17.59999500000001
 20
-42.149994999999997
 30
0.0
 40
4.700024
  0
LINE
  8
DETAIL
  6
CONTINUOUS
 62
     5
 10
2.5999949999999998
 20
-59.950000000000003
 30
0.0
 11
1.399994999999997
 21
-59.950000000000003
 31
0.0
  0
ARC
  8
DETAIL
  6
CONTINUOUS
 62
     5
 10
2.2000049999999969
 20
-60.549999999999997
 30
0.0
 40
1.6000049999999999
 50
180.0
 51
270.0
  0
LINE
  8
DETAIL
  6
CONTINUOUS
 62
     5
 10
2.2000049999999969
 20
-61.349994999999993
 30
0.0
 11
2.5999949999999998
 21
-61.349994999999993
 31
0.0
  0
LINE
  8
DETAIL
  6
CONTINUOUS
 62
     5
 10
2.2000049999999969
 20
-62.149990000000003
 30
0.0
 11
2.5999949999999998
 21
-62.149990000000003
 31
0.0
  0
ARC
  8
DETAIL
  6
CONTINUOUS
 62
     5
 10
2.2000049999999969
 20
-60.549999999999997
 30
0.0
 40
0.799995
 50
180.0
 51
270.0
  0
LINE
  8
DETAIL
  6
CONTINUOUS
 62
     5
 10
0.6000000000000014
 20
-47.149990000000003
 30
0.0
 11
1.399994999999997
 21
-47.149990000000003
 31
0.0
  0
LINE
  8
DETAIL
  6
CONTINUOUS
 62
     5
 10
16.115067
 20
-43.634928000000002
 30
0.0
 11
19.084923
 21
-40.665062000000013
 31
0.0
  0
LINE
  8
DETAIL
  6
CONTINUOUS
 62
     5
 10
19.084928000000001
 20
-43.634923000000001
 30
0.0
 11
16.115061999999991
 21
-40.665066999999993
 31
0.0
  0
LINE
  8
DETAIL
  6
CONTINUOUS
 62
     5
 10
49.999994999999998
 20
70.150000000000006
 30
0.0
 11
0.0
 21
70.150000000000006
 31
0.0
  0
LINE
  8
DETAIL
  6
DASHED
 62
     5
 10
49.999994999999998
 20
80.150005000000021
 30
0.0
 11
0.0
 21
80.150005000000021
 31
0.0
  0
LINE
  8
DETAIL
  6
CONTINUOUS
 62
     5
 10
7.600005000000003
 20
-22.149999999999999
 30
0.0
 11
107.59999500000001
 21
-22.149999999999999
 31
0.0
  0
LINE
  8
DETAIL
  6
CONTINUOUS
 62
     5
 10
48.599999999999987
 20
69.550000000000011
 30
0.0
 11
1.2000000000000031
 21
69.550000000000011
 31
0.0
  0
LINE
  8
DETAIL
  6
CONTINUOUS
 62
     5
 10
4.399994999999997
 20
62.150005000000021
 30
0.0
 11
114.199995
 21
62.150005000000021
 31
0.0
  0
ARC
  8
DETAIL
  6
CONTINUOUS
 62
     5
 10
141.89999499999999
 20
59.489499999999992
 30
0.0
 40
2.5000049999999998
 50
0.0
 51
88.854237000000055
  0
LINE
  8
DETAIL
  6
CONTINUOUS
 62
     5
 10
117.40000499999999
 20
45.446605000000012
 30
0.0
 11
117.40000499999999
 21
61.969900000000003
 31
0.0
  0
LINE
  8
DETAIL
  6
CONTINUOUS
 62
     5
 10
152.39999499999999
 20
57.750010000000003
 30
0.0
 11
146.39999499999999
 21
57.750010000000003
 31
0.0
  0
LINE
  8
DETAIL
  6
CONTINUOUS
 62
     5
 10
156.40000000000001
 20
18.75001
 30
0.0
 11
156.40000000000001
 21
-18.749994999999998
 31
0.0
  0
LINE
  8
DETAIL
  6
CONTINUOUS
 62
     5
 10
163.40000499999999
 20
-20.74999
 30
0.0
 11
156.40000000000001
 21
-20.74999
 31
0.0
  0
LINE
  8
DETAIL
  6
CONTINUOUS
 62
     5
 10
163.40000499999999
 20
-18.749994999999998
 30
0.0
 11
156.40000000000001
 21
-18.749994999999998
 31
0.0
  0
ARC
  8
DETAIL
  6
CONTINUOUS
 62
     5
 10
163.40000499999999
 20
-19.75
 30
0.0
 40
1.000005
 50
270.0
 51
89.771869177696132
  0
LINE
  8
DETAIL
  6
CONTINUOUS
 62
     5
 10
156.40000000000001
 20
57.750010000000003
 30
0.0
 11
156.40000000000001
 21
20.750005000000002
 31
0.0
  0
LINE
  8
DETAIL
  6
CONTINUOUS
 62
     5
 10
163.40000499999999
 20
18.75001
 30
0.0
 11
156.40000000000001
 21
18.75001
 31
0.0
  0
LINE
  8
DETAIL
  6
CONTINUOUS
 62
     5
 10
163.40000499999999
 20
20.750005000000002
 30
0.0
 11
156.40000000000001
 21
20.750005000000002
 31
0.0
  0
ARC
  8
DETAIL
  6
CONTINUOUS
 62
     5
 10
163.40000499999999
 20
19.75
 30
0.0
 40
1.000005
 50
270.0
 51
89.771869177696132
  0
LINE
  8
DETAIL
  6
CONTINUOUS
 62
     5
 10
163.40000499999999
 20
57.750010000000003
 30
0.0
 11
156.40000000000001
 21
57.750010000000003
 31
0.0
  0
ARC
  8
DETAIL
  6
CONTINUOUS
 62
     5
 10
163.40000499999999
 20
58.75
 30
0.0
 40
1.000005
 50
270.0
 51
0.0
  0
LINE
  8
DETAIL
  6
CONTINUOUS
 62
     5
 10
115.688445
 20
-4.6999950000000013
 30
0.0
 11
115.688445
 21
4.700010000000006
 31
0.0
  0
ARC
  8
DETAIL
  6
CONTINUOUS
 62
     5
 10
118.399995
 20
0.0
 30
0.0
 40
4.0000050000000007
 50
270.0
 51
90.0
  0
ARC
  8
DETAIL
  6
CONTINUOUS
 62
     5
 10
111.799995
 20
0.0
 30
0.0
 40
6.1000050000000003
 50
309.60198299999922
 51
50.39803499999941
  0
LINE
  8
DETAIL
  6
CONTINUOUS
 62
     5
 10
146.39999499999999
 20
-20.249994999999998
 30
0.0
 11
144.40000000000001
 21
-20.249994999999998
 31
0.0
  0
LINE
  8
DETAIL
  6
CONTINUOUS
 62
     5
 10
116.36985
 20
-4.0405949999999962
 30
0.0
 11
118.399995
 21
-3.9999899999999968
 31
0.0
  0
LINE
  8
DETAIL
  6
CONTINUOUS
 62
     5
 10
115.399995
 20
-4.6999950000000013
 30
0.0
 11
115.688445
 21
-4.6999950000000013
 31
0.0
  0
LINE
  8
DETAIL
  6
CONTINUOUS
 62
     5
 10
115.399995
 20
4.700010000000006
 30
0.0
 11
115.688445
 21
4.700010000000006
 31
0.0
  0
LINE
  8
DETAIL
  6
CONTINUOUS
 62
     5
 10
116.36985
 20
4.0406100000000009
 30
0.0
 11
118.399995
 21
4.0000050000000016
 31
0.0
  0
LINE
  8
DETAIL
  6
CONTINUOUS
 62
     5
 10
146.39999499999999
 20
20.25001
 30
0.0
 11
144.40000000000001
 21
20.25001
 31
0.0
  0
LINE
  8
DETAIL
  6
CONTINUOUS
 62
     5
 10
146.39999499999999
 20
30.25
 30
0.0
 11
144.40000000000001
 21
30.25
 31
0.0
  0
ARC
  8
DETAIL
  6
CONTINUOUS
 62
     5
 10
115.8
 20
52.500010000000003
 30
0.0
 40
6.1000050000000003
 50
309.60196500000058
 51
50.398017000000792
  0
LINE
  8
DETAIL
  6
CONTINUOUS
 62
     5
 10
142.43999500000001
 20
44.475700000000003
 30
0.0
 11
115.399995
 21
44.996499999999997
 31
0.0
  0
ARC
  8
DETAIL
  6
CONTINUOUS
 62
     5
 10
142.40000499999999
 20
42.476110000000013
 30
0.0
 40
1.999995
 50
0.0
 51
88.854237000000055
  0
LINE
  8
DETAIL
  6
CONTINUOUS
 62
     5
 10
119.68845
 20
57.200004999999997
 30
0.0
 11
119.68845
 21
47.799999999999997
 31
0.0
  0
LINE
  8
DETAIL
  6
CONTINUOUS
 62
     5
 10
119.40000000000001
 20
47.300004999999999
 30
0.0
 11
119.40000000000001
 21
57.699999999999989
 31
0.0
  0
LINE
  8
DETAIL
  6
CONTINUOUS
 62
     5
 10
119.40000000000001
 20
47.799999999999997
 30
0.0
 11
119.68845
 21
47.799999999999997
 31
0.0
  0
ARC
  8
DETAIL
  6
CONTINUOUS
 62
     5
 10
117.700005
 20
46.700004999999997
 30
0.0
 40
0.3
 50
90.0
 51
180.0
  0
ARC
  8
DETAIL
  6
CONTINUOUS
 62
     5
 10
119.09999999999999
 20
47.300004999999999
 30
0.0
 40
0.3
 50
270.0
 51
0.0
  0
LINE
  8
DETAIL
  6
CONTINUOUS
 62
     5
 10
117.700005
 20
47.000005000000002
 30
0.0
 11
119.09999999999999
 21
47.000005000000002
 31
0.0
  0
ARC
  8
DETAIL
  6
CONTINUOUS
 62
     5
 10
117.90000000000001
 20
45.446605000000012
 30
0.0
 40
0.499995
 50
180.0
 51
268.85423700000013
  0
LINE
  8
DETAIL
  6
CONTINUOUS
 62
     5
 10
119.40000000000001
 20
57.200004999999997
 30
0.0
 11
119.68845
 21
57.200004999999997
 31
0.0
  0
ARC
  8
DETAIL
  6
CONTINUOUS
 62
     5
 10
117.700005
 20
58.300000000000011
 30
0.0
 40
0.3
 50
180.0
 51
270.0
  0
ARC
  8
DETAIL
  6
CONTINUOUS
 62
     5
 10
119.09999999999999
 20
57.699999999999989
 30
0.0
 40
0.3
 50
0.0
 51
90.0
  0
LINE
  8
DETAIL
  6
CONTINUOUS
 62
     5
 10
117.700005
 20
58.0
 30
0.0
 11
119.09999999999999
 21
58.0
 31
0.0
  0
LINE
  8
DETAIL
  6
CONTINUOUS
 62
     5
 10
162.89999499999999
 20
62.250010000000003
 30
0.0
 11
144.40000000000001
 21
62.250010000000003
 31
0.0
  0
ARC
  8
DETAIL
  6
CONTINUOUS
 62
     5
 10
162.89999499999999
 20
60.750010000000003
 30
0.0
 40
1.5
 50
0.0
 51
90.0
  0
LINE
  8
DETAIL
  6
CONTINUOUS
 62
     5
 10
114.199995
 20
62.750004999999987
 30
0.0
 11
50.599995000000007
 21
62.750004999999987
 31
0.0
  0
LINE
  8
DETAIL
  6
CONTINUOUS
 62
     5
 10
50.800004999999999
 20
61.350009999999997
 30
0.0
 11
113.800005
 21
61.350009999999997
 31
0.0
  0
LINE
  8
DETAIL
  6
CONTINUOUS
 62
     5
 10
141.94999000000001
 20
61.989010000000007
 30
0.0
 11
115.399995
 21
62.5
 31
0.0
  0
LINE
  8
DETAIL
  6
CONTINUOUS
 62
     5
 10
112.100024
 20
63.038451000000009
 30
0.0
 11
102.699977
 21
63.038451000000009
 31
0.0
  0
ARC
  8
DETAIL
  6
CONTINUOUS
 62
     5
 10
107.40000000000001
 20
59.14998700000001
 30
0.0
 40
6.1000310000000004
 50
39.601983000000651
 51
140.39803500000031
  0
LINE
  8
DETAIL
  6
CONTINUOUS
 62
     5
 10
112.100024
 20
62.750004999999987
 30
0.0
 11
112.100024
 21
63.038451000000009
 31
0.0
  0
ARC
  8
DETAIL
  6
CONTINUOUS
 62
     5
 10
116.899995
 20
61.969900000000003
 30
0.0
 40
0.499995
 50
0.0
 51
88.854237000000055
  0
LINE
  8
DETAIL
  6
CONTINUOUS
 62
     5
 10
114.199995
 20
62.750004999999987
 30
0.0
 11
114.199995
 21
62.150005000000021
 31
0.0
  0
LINE
  8
DETAIL
  6
CONTINUOUS
 62
     5
 10
111.59999999999999
 20
61.350009999999997
 30
0.0
 11
111.59999999999999
 21
60.650005000000021
 31
0.0
  0
LINE
  8
DETAIL
  6
CONTINUOUS
 62
     5
 10
114.59999999999999
 20
60.650005000000021
 30
0.0
 11
111.59999999999999
 21
60.650005000000021
 31
0.0
  0
ARC
  8
DETAIL
  6
CONTINUOUS
 62
     5
 10
113.800005
 20
60.550000000000011
 30
0.0
 40
1.6000049999999999
 50
0.0
 51
90.0
  0
ARC
  8
DETAIL
  6
CONTINUOUS
 62
     5
 10
113.800005
 20
60.550000000000011
 30
0.0
 40
0.799995
 50
0.0
 51
90.0
  0
LINE
  8
DETAIL
  6
CONTINUOUS
 62
     5
 10
102.699977
 20
62.750004999999987
 30
0.0
 11
102.699977
 21
63.038451000000009
 31
0.0
  0
ARC
  8
DETAIL
  6
CONTINUOUS
 62
     5
 10
48.799995000000003
 20
68.949999999999989
 30
0.0
 40
1.2
 50
0.0
 51
90.0
  0
ARC
  8
DETAIL
  6
CONTINUOUS
 62
     5
 10
58.799999999999997
 20
59.150005000000021
 30
0.0
 40
6.1000050000000003
 50
39.601983000000651
 51
140.39803500000031
  0
LINE
  8
DETAIL
  6
CONTINUOUS
 62
     5
 10
63.499994999999998
 20
62.750004999999987
 30
0.0
 11
63.499994999999998
 21
63.038454999999999
 31
0.0
  0
LINE
  8
DETAIL
  6
CONTINUOUS
 62
     5
 10
54.10000500000001
 20
62.750004999999987
 30
0.0
 11
54.10000500000001
 21
63.038454999999999
 31
0.0
  0
LINE
  8
DETAIL
  6
CONTINUOUS
 62
     5
 10
63.499994999999998
 20
63.038454999999999
 30
0.0
 11
54.10000500000001
 21
63.038454999999999
 31
0.0
  0
ARC
  8
DETAIL
  6
CONTINUOUS
 62
     5
 10
50.599995000000007
 20
63.35000500000001
 30
0.0
 40
0.6
 50
180.0
 51
270.0
  0
ARC
  8
DETAIL
  6
CONTINUOUS
 62
     5
 10
50.400000000000013
 20
63.35000500000001
 30
0.0
 40
1.2
 50
180.0
 51
270.0
  0
ARC
  8
DETAIL
  6
CONTINUOUS
 62
     5
 10
48.599999999999987
 20
68.949999999999989
 30
0.0
 40
0.6
 50
0.0
 51
90.0
  0
LINE
  8
DETAIL
  6
CONTINUOUS
 62
     5
 10
49.200000000000003
 20
63.35000500000001
 30
0.0
 11
49.200000000000003
 21
68.949999999999989
 31
0.0
  0
LINE
  8
DETAIL
  6
CONTINUOUS
 62
     5
 10
49.999994999999998
 20
63.35000500000001
 30
0.0
 11
49.999994999999998
 21
68.949999999999989
 31
0.0
  0
LINE
  8
DETAIL
  6
CONTINUOUS
 62
     5
 10
50.800004999999999
 20
61.350009999999997
 30
0.0
 11
50.800004999999999
 21
62.150005000000021
 31
0.0
  0
LINE
  8
DETAIL
  6
DASHED
 62
     5
 10
49.999994999999998
 20
80.150005000000021
 30
0.0
 11
49.999994999999998
 21
70.150000000000006
 31
0.0
  0
LINE
  8
DETAIL
  6
DASHED
 62
     5
 10
40.000005000000002
 20
80.150005000000021
 30
0.0
 11
40.000005000000002
 21
70.150000000000006
 31
0.0
  0
LINE
  8
DETAIL
  6
CONTINUOUS
 62
     5
 10
-0.2884499999999974
 20
66.450009999999992
 30
0.0
 11
-0.2884499999999974
 21
57.050004999999999
 31
0.0
  0
ARC
  8
DETAIL
  6
CONTINUOUS
 62
     5
 10
3.600000000000001
 20
61.75
 30
0.0
 40
6.1000050000000003
 50
129.60198299999919
 51
230.3980349999994
  0
LINE
  8
DETAIL
  6
CONTINUOUS
 62
     5
 10
0.0
 20
68.949999999999989
 30
0.0
 11
0.0
 21
54.750010000000003
 31
0.0
  0
LINE
  8
DETAIL
  6
CONTINUOUS
 62
     5
 10
0.3115499999999969
 20
4.700010000000006
 30
0.0
 11
0.3115499999999969
 21
-4.6999950000000013
 31
0.0
  0
ARC
  8
DETAIL
  6
CONTINUOUS
 62
     5
 10
4.2000000000000028
 20
0.0
 30
0.0
 40
6.1000050000000003
 50
129.60198299999919
 51
230.3980349999994
  0
LINE
  8
DETAIL
  6
CONTINUOUS
 62
     5
 10
0.6000000000000014
 20
4.700010000000006
 30
0.0
 11
0.3115499999999969
 21
4.700010000000006
 31
0.0
  0
LINE
  8
DETAIL
  6
CONTINUOUS
 62
     5
 10
0.0
 20
57.050004999999999
 30
0.0
 11
-0.2884499999999974
 21
57.050004999999999
 31
0.0
  0
LINE
  8
DETAIL
  6
CONTINUOUS
 62
     5
 10
0.0
 20
54.750010000000003
 30
0.0
 11
0.6000000000000014
 21
54.750010000000003
 31
0.0
  0
ARC
  8
DETAIL
  6
CONTINUOUS
 62
     5
 10
1.2000000000000031
 20
68.949999999999989
 30
0.0
 40
1.2
 50
90.0
 51
180.0
  0
ARC
  8
DETAIL
  6
CONTINUOUS
 62
     5
 10
1.2000000000000031
 20
68.949999999999989
 30
0.0
 40
0.6
 50
90.0
 51
180.0
  0
LINE
  8
DETAIL
  6
CONTINUOUS
 62
     5
 10
1.399994999999997
 20
60.650005000000021
 30
0.0
 11
4.399994999999997
 21
60.650005000000021
 31
0.0
  0
LINE
  8
DETAIL
  6
CONTINUOUS
 62
     5
 10
4.399994999999997
 20
60.650005000000021
 30
0.0
 11
4.399994999999997
 21
62.150005000000021
 31
0.0
  0
LINE
  8
DETAIL
  6
CONTINUOUS
 62
     5
 10
0.6000000000000014
 20
69.150010000000009
 30
0.0
 11
1.399994999999997
 21
69.150010000000009
 31
0.0
  0
LINE
  8
DETAIL
  6
CONTINUOUS
 62
     5
 10
0.0
 20
66.450009999999992
 30
0.0
 11
-0.2884499999999974
 21
66.450009999999992
 31
0.0
  0
LINE
  8
DETAIL
  6
DASHED
 62
     5
 10
0.0
 20
70.150000000000006
 30
0.0
 11
0.0
 21
80.150005000000021
 31
0.0
  0
LINE
  8
DETAIL
  6
DASHED
 62
     5
 10
10.000005
 20
70.150000000000006
 30
0.0
 11
10.000005
 21
80.150005000000021
 31
0.0
  0
LINE
  8
OUTLINE
  6
CONTINUOUS
 62
     3
 10
115.399995
 20
-62.5
 30
0.0
 11
115.399995
 21
-60.556928197819758
 31
0.0
  0
LINE
  8
OUTLINE
  6
CONTINUOUS
 62
     3
 10
115.399995
 20
60.556928197819758
 30
0.0
 11
115.399995
 21
62.5
 31
0.0
  0
LINE
  8
OUTLINE
  6
CONTINUOUS
 62
     3
 10
0.6000000000000227
 20
-60.549999999999997
 30
0.0
 11
0.6000000000000227
 21
54.750010000000003
 31
0.0
  0
LINE
  8
OUTLINE
  6
CONTINUOUS
 62
     3
 10
162.89999499999999
 20
-62.249994999999998
 30
0.0
 11
144.40000000000001
 21
-62.249994999999998
 31
0.0
  0
LINE
  8
OUTLINE
  6
CONTINUOUS
 62
     3
 10
164.39999499999999
 20
60.750010000000003
 30
0.0
 11
164.39999499999999
 21
-60.749994999999998
 31
0.0
  0
ARC
  8
OUTLINE
  6
CONTINUOUS
 62
     3
 10
162.89999499999999
 20
-60.749994999999998
 30
0.0
 40
1.5
 50
270.0
 51
0.0
  0
LINE
  8
OUTLINE
  6
CONTINUOUS
 62
     3
 10
144.40000000000001
 20
-62.249994999999998
 30
0.0
 11
144.40000000000009
 21
-59.489499999999992
 31
0.0
  0
LINE
  8
OUTLINE
  6
CONTINUOUS
 62
     3
 10
144.40000000000009
 20
59.489499999999992
 30
0.0
 11
144.40000000000001
 21
62.250010000000003
 31
0.0
  0
LINE
  8
OUTLINE
  6
CONTINUOUS
 62
     3
 10
141.94999000000001
 20
-61.988994999999989
 30
0.0
 11
115.399995
 21
-62.5
 31
0.0
  0
ARC
  8
OUTLINE
  6
CONTINUOUS
 62
     3
 10
141.89999499999999
 20
-59.489499999999992
 30
0.0
 40
2.5000049999999998
 50
271.14576300000402
 51
0.0
  0
ARC
  8
OUTLINE
  6
CONTINUOUS
 62
     3
 10
113.8000050000001
 20
-60.549999999999997
 30
0.0
 40
1.6000049999999999
 50
270.0
 51
0.0
  0
LINE
  8
OUTLINE
  6
CONTINUOUS
 62
     3
 10
2.2000050000000329
 20
-62.149990000000003
 30
0.0
 11
2.5999950000000349
 21
-62.149990000000003
 31
0.0
  0
LINE
  8
OUTLINE
  6
CONTINUOUS
 62
     3
 10
112.600005
 20
-62.149990000000003
 30
0.0
 11
113.8000050000001
 21
-62.149990000000003
 31
0.0
  0
ARC
  8
OUTLINE
  6
CONTINUOUS
 62
     3
 10
2.2000050000000329
 20
-60.549999999999997
 30
0.0
 40
1.6000049999999999
 50
180.0
 51
270.0
  0
LINE
  8
OUTLINE
  6
CONTINUOUS
 62
     3
 10
1.200000000000045
 20
70.150000000000006
 30
0.0
 11
48.799994999999967
 21
70.150000000000006
 31
0.0
  0
ARC
  8
OUTLINE
  6
CONTINUOUS
 62
     3
 10
141.89999499999999
 20
59.489499999999992
 30
0.0
 40
2.5000049999999998
 50
0.0
 51
88.854237000002499
  0
LINE
  8
OUTLINE
  6
CONTINUOUS
 62
     3
 10
162.89999499999999
 20
62.250010000000003
 30
0.0
 11
144.40000000000001
 21
62.250010000000003
 31
0.0
  0
ARC
  8
OUTLINE
  6
CONTINUOUS
 62
     3
 10
162.89999499999999
 20
60.750010000000003
 30
0.0
 40
1.5
 50
0.0
 51
90.0
  0
LINE
  8
OUTLINE
  6
CONTINUOUS
 62
     3
 10
114.1999949999999
 20
62.150005000000021
 30
0.0
 11
113.8000050000001
 21
62.150005000000021
 31
0.0
  0
LINE
  8
OUTLINE
  6
CONTINUOUS
 62
     3
 10
114.1999949999999
 20
62.750004999999987
 30
0.0
 11
50.599995000000042
 21
62.750004999999987
 31
0.0
  0
LINE
  8
OUTLINE
  6
CONTINUOUS
 62
     3
 10
141.94999000000001
 20
61.989010000000007
 30
0.0
 11
115.399995
 21
62.5
 31
0.0
  0
LINE
  8
OUTLINE
  6
CONTINUOUS
 62
     3
 10
114.1999949999999
 20
62.750004999999987
 30
0.0
 11
114.1999949999999
 21
62.150005000000021
 31
0.0
  0
ARC
  8
OUTLINE
  6
CONTINUOUS
 62
     3
 10
113.8000050000001
 20
60.550000000000011
 30
0.0
 40
1.6000049999999999
 50
0.0
 51
90.0
  0
ARC
  8
OUTLINE
  6
CONTINUOUS
 62
     3
 10
48.799994999999967
 20
68.949999999999989
 30
0.0
 40
1.2
 50
0.0
 51
90.0
  0
ARC
  8
OUTLINE
  6
CONTINUOUS
 62
     3
 10
50.599995000000042
 20
63.35000500000001
 30
0.0
 40
0.6
 50
180.0
 51
270.0
  0
LINE
  8
OUTLINE
  6
CONTINUOUS
 62
     3
 10
49.999995000000013
 20
63.35000500000001
 30
0.0
 11
49.999995000000013
 21
68.949999999999989
 31
0.0
  0
LINE
  8
OUTLINE
  6
CONTINUOUS
 62
     3
 10
0.0
 20
68.949999999999989
 30
0.0
 11
0.0
 21
54.750010000000003
 31
0.0
  0
LINE
  8
OUTLINE
  6
CONTINUOUS
 62
     3
 10
0.0
 20
54.750010000000003
 30
0.0
 11
0.6000000000000227
 21
54.750010000000003
 31
0.0
  0
ARC
  8
OUTLINE
  6
CONTINUOUS
 62
     3
 10
1.200000000000045
 20
68.949999999999989
 30
0.0
 40
1.2
 50
90.0
 51
180.0
  0
LINE
  8
OUTLINE
  6
CONTINUOUS
 62
     3
 10
112.600005
 20
-72.14999499999999
 30
0.0
 11
2.5999950000000349
 21
-72.14999499999999
 31
0.0
  0
LINE
  8
OUTLINE
  6
CONTINUOUS
 62
     3
 10
112.600005
 20
-72.14999499999999
 30
0.0
 11
112.600005
 21
-62.149990000000003
 31
0.0
  0
LINE
  8
OUTLINE
  6
CONTINUOUS
 62
     3
 10
2.5999950000000349
 20
-72.14999499999999
 30
0.0
 11
2.5999950000000349
 21
-62.149990000000003
 31
0.0
  0
ENDSEC
  0
EOF
