  0
SECTION
  2
HEADER
  9
$ACADVER
  1
AC1009
  9
$DWGCODEPAGE
  3
dos932
  9
$INSBASE
 10
0.0
 20
0.0
 30
0.0
  9
$EXTMIN
 10
-922.46491441717421
 20
-451.727455121204
 30
0.0
  9
$EXTMAX
 10
1202.4620242188121
 20
841.21703819889319
 30
50.0
  9
$LIMMIN
 10
-2970.0
 20
-2100.0
  9
$LIMMAX
 10
2970.0
 20
2100.0
  9
$ORTHOMODE
 70
     0
  9
$REGENMODE
 70
     1
  9
$FILLMODE
 70
     1
  9
$QTEXTMODE
 70
     0
  9
$MIRRTEXT
 70
     0
  9
$LTSCALE
 40
20.0
  9
$ATTMODE
 70
     1
  9
$TEXTSIZE
 40
64.0
  9
$TRACEWID
 40
0.05
  9
$TEXTSTYLE
  7
STANDARD
  9
$CLAYER
  8
SIZE
  9
$CELTYPE
  6
CONTINUOUS
  9
$CECOLOR
 62
     7
  9
$DIMSCALE
 40
1.0
  9
$DIMASZ
 40
12.0
  9
$DIMEXO
 40
20.0
  9
$DIMDLI
 40
200.0
  9
$DIMRND
 40
0.0
  9
$DIMDLE
 40
0.0
  9
$DIMEXE
 40
20.0
  9
$DIMTP
 40
0.0
  9
$DIMTM
 40
0.0
  9
$DIMTXT
 40
64.0
  9
$DIMCEN
 40
0.09
  9
$DIMTSZ
 40
0.0
  9
$DIMTOL
 70
     0
  9
$DIMLIM
 70
     0
  9
$DIMTIH
 70
     0
  9
$DIMTOH
 70
     0
  9
$DIMSE1
 70
     0
  9
$DIMSE2
 70
     0
  9
$DIMTAD
 70
     1
  9
$DIMZIN
 70
     8
  9
$DIMBLK
  1

  9
$DIMASO
 70
     1
  9
$DIMSHO
 70
     0
  9
$DIMPOST
  1

  9
$DIMAPOST
  1

  9
$DIMALT
 70
     0
  9
$DIMALTD
 70
     2
  9
$DIMALTF
 40
25.399999999999999
  9
$DIMLFAC
 40
1.0
  9
$DIMTOFL
 70
     1
  9
$DIMTVP
 40
0.0
  9
$DIMTIX
 70
     1
  9
$DIMSOXD
 70
     0
  9
$DIMSAH
 70
     0
  9
$DIMBLK1
  1

  9
$DIMBLK2
  1

  9
$DIMSTYLE
  2
STANDARD
  9
$DIMCLRD
 70
     7
  9
$DIMCLRE
 70
     7
  9
$DIMCLRT
 70
     7
  9
$DIMTFAC
 40
1.0
  9
$DIMGAP
 40
25.0
  9
$LUNITS
 70
     2
  9
$LUPREC
 70
     4
  9
$SKETCHINC
 40
0.1
  9
$FILLETRAD
 40
3.0
  9
$AUNITS
 70
     1
  9
$AUPREC
 70
     3
  9
$MENU
  1
ACAD
  9
$ELEVATION
 40
0.0
  9
$PELEVATION
 40
0.0
  9
$THICKNESS
 40
0.0
  9
$LIMCHECK
 70
     0
  9
$CHAMFERA
 40
0.0
  9
$CHAMFERB
 40
0.0
  9
$SKPOLY
 70
     0
  9
$TDCREATE
 40
2453019.623009259
  9
$TDUPDATE
 40
2459291.629887442
  9
$TDINDWG
 40
1.7166595023
  9
$TDUSRTIMER
 40
1.7166595023
  9
$USRTIMER
 70
     1
  9
$ANGBASE
 50
0.0
  9
$ANGDIR
 70
     0
  9
$PDMODE
 70
     3
  9
$PDSIZE
 40
-2.0
  9
$PLINEWID
 40
0.0
  9
$SPLFRAME
 70
     0
  9
$SPLINETYPE
 70
     6
  9
$SPLINESEGS
 70
     8
  9
$SURFTAB1
 70
     6
  9
$SURFTAB2
 70
     6
  9
$SURFTYPE
 70
     6
  9
$SURFU
 70
     6
  9
$SURFV
 70
     6
  9
$UCSNAME
  2

  9
$UCSORG
 10
0.0
 20
0.0
 30
0.0
  9
$UCSXDIR
 10
1.0
 20
0.0
 30
0.0
  9
$UCSYDIR
 10
0.0
 20
1.0
 30
0.0
  9
$PUCSNAME
  2

  9
$PUCSORG
 10
0.0
 20
0.0
 30
0.0
  9
$PUCSXDIR
 10
1.0
 20
0.0
 30
0.0
  9
$PUCSYDIR
 10
0.0
 20
1.0
 30
0.0
  9
$USERI1
 70
     0
  9
$USERI2
 70
     0
  9
$USERI3
 70
     0
  9
$USERI4
 70
     0
  9
$USERI5
 70
     0
  9
$USERR1
 40
20.0
  9
$USERR2
 40
0.0
  9
$USERR3
 40
0.0
  9
$USERR4
 40
0.0
  9
$USERR5
 40
0.0
  9
$WORLDVIEW
 70
     1
  9
$SHADEDGE
 70
     3
  9
$SHADEDIF
 70
    70
  9
$TILEMODE
 70
     1
  9
$MAXACTVP
 70
    48
  9
$PINSBASE
 10
0.0
 20
0.0
 30
0.0
  9
$PLIMCHECK
 70
     0
  9
$PEXTMIN
 10
-100000000000000000000.0
 20
-100000000000000000000.0
 30
-100000000000000000000.0
  9
$PEXTMAX
 10
100000000000000000000.0
 20
100000000000000000000.0
 30
100000000000000000000.0
  9
$PLIMMIN
 10
0.0
 20
0.0
  9
$PLIMMAX
 10
12.0
 20
9.0
  9
$UNITMODE
 70
     0
  9
$VISRETAIN
 70
     0
  9
$PLINEGEN
 70
     0
  9
$PSLTSCALE
 70
     0
  9
$TREEDEPTH
 70
  3020
  9
$ATTDIA
 70
     0
  9
$ATTREQ
 70
     1
  9
$BLIPMODE
 70
     1
  9
$COORDS
 70
     1
  9
$DRAGMODE
 70
     2
  9
$OSMODE
 70
     0
  9
$HANDLING
 70
     0
  9
$HANDSEED
  5
1E9
  0
ENDSEC
  0
SECTION
  2
TABLES
  0
TABLE
  2
LTYPE
 70
     2
  0
LTYPE
  2
CONTINUOUS
 70
     0
  3
実線
 72
    65
 73
     0
 40
0.0
  0
LTYPE
  2
DASHDOT
 70
     0
  3
____ _ ____ _ ____ _ ____ _ ____ _ ____ _ ____
 72
    65
 73
     4
 40
5.5
 49
4.0
 49
-0.6
 49
0.3
 49
-0.6
  0
ENDTAB
  0
TABLE
  2
LAYER
 70
    12
  0
LAYER
  2
SIZE
 70
     0
 62
    30
  6
CONTINUOUS
  0
LAYER
  2
BASIS
 70
     0
 62
     6
  6
DASHDOT
  0
LAYER
  2
DETAIL
 70
     0
 62
     5
  6
CONTINUOUS
  0
LAYER
  2
ARRANGE
 70
     0
 62
     1
  6
CONTINUOUS
  0
LAYER
  2
ETC
 70
     0
 62
    61
  6
CONTINUOUS
  0
LAYER
  2
FIX
 70
     0
 62
    11
  6
CONTINUOUS
  0
LAYER
  2
NOTE
 70
     0
 62
     4
  6
CONTINUOUS
  0
LAYER
  2
SERVICESPACE
 70
     0
 62
     2
  6
DASHDOT
  0
LAYER
  2
0
 70
    64
 62
     7
  6
CONTINUOUS
  0
LAYER
  2
DEFPOINTS
 70
    64
 62
     7
  6
CONTINUOUS
  0
LAYER
  2
OUTLINE
 70
    64
 62
     3
  6
CONTINUOUS
  0
LAYER
  2
SYMBOLLINE
 70
    64
 62
    15
  6
CONTINUOUS
  0
ENDTAB
  0
TABLE
  2
STYLE
 70
     1
  0
STYLE
  2
STANDARD
 70
     0
 40
64.0
 41
0.9
 50
0.0
 71
     0
 42
64.0
  3
SIMPLEX.shx
  4
BIGFONT.shx
  0
ENDTAB
  0
TABLE
  2
APPID
 70
    20
  0
APPID
  2
ACAD
 70
     0
  0
APPID
  2
ACADANNOTATIVE
 70
     0
  0
APPID
  2
AUTOCAD_POSTSCRIPT_FIGURE
 70
     0
  0
APPID
  2
ACAD_EXEMPT_FROM_CAD_STANDARDS
 70
     0
  0
APPID
  2
ACAD_PSEXT
 70
     0
  0
APPID
  2
ACAUTHENVIRON
 70
     0
  0
APPID
  2
GENIUS_GENOENT_13
 70
     0
  0
APPID
  2
GENIUS_GENCFG_13
 70
     0
  0
APPID
  2
GENIUS_GENCFG0_13
 70
     0
  0
APPID
  2
GENIUS_GENCFG1_13
 70
     0
  0
APPID
  2
GENIUS_GENCFG2_13
 70
     0
  0
APPID
  2
GENIUS_GENCFG3_13
 70
     0
  0
APPID
  2
GENIUS_GENCFG4_13
 70
     0
  0
APPID
  2
GENIUS_GEVCFG0_13
 70
     0
  0
APPID
  2
CONTENTBLOCKICON
 70
     0
  0
APPID
  2
CONTENTBLOCKDESCRIPTION
 70
     0
  0
APPID
  2
ACAD_NAV_VCDISPLAY
 70
     0
  0
APPID
  2
ACAD_MLEADERVER
 70
     0
  0
APPID
  2
ACDBDYNAMICBLOCKTRUENAME
 70
     0
  0
APPID
  2
ACDBDYNAMICBLOCKGUID
 70
     0
  0
ENDTAB
  0
TABLE
  2
DIMSTYLE
 70
     1
  0
DIMSTYLE
  2
STANDARD
 70
     0
  3

  4

  5

  6

  7

 40
1.0
 41
12.0
 42
20.0
 43
200.0
 44
20.0
 45
0.0
 46
0.0
 47
0.0
 48
0.0
140
64.0
141
0.09
142
0.0
143
25.399999999999999
144
1.0
145
0.0
146
1.0
147
25.0
 71
     0
 72
     0
 73
     0
 74
     0
 75
     0
 76
     0
 77
     1
 78
     8
170
     0
171
     2
172
     1
173
     0
174
     1
175
     0
176
     7
177
     7
178
     7
  0
ENDTAB
  0
TABLE
  2
VIEW
 70
     1
  0
VIEW
  2
ALL
 70
     0
 40
4282.6198079999986
 10
0.0
 20
41.309904000000003
 41
5940.0
 11
0.0
 21
0.0
 31
1.0
 12
0.0
 22
0.0
 32
0.0
 42
50.0
 43
0.0
 44
0.0
 50
0.0
 71
     0
  0
ENDTAB
  0
TABLE
  2
UCS
 70
     0
  0
ENDTAB
  0
TABLE
  2
VPORT
 70
     1
  0
VPORT
  2
*ACTIVE
 70
     0
 10
0.0
 20
0.0
 11
1.0
 21
1.0
 12
139.99855490081899
 22
194.7447915388444
 13
0.0
 23
0.0
 14
1.0
 24
1.0
 15
0.0
 25
0.0
 16
0.0
 26
0.0
 36
1.0
 17
0.0
 27
0.0
 37
0.0
 40
1301.612277632858
 41
1.767337807606264
 42
50.0
 43
0.0
 44
0.0
 50
0.0
 51
0.0
 71
     0
 72
  1000
 73
     1
 74
     3
 75
     0
 76
     0
 77
     0
 78
     0
  0
ENDTAB
  0
ENDSEC
  0
SECTION
  2
BLOCKS
  0
ENDSEC
  0
SECTION
  2
ENTITIES
  0
TEXT
  8
ETC
  6
CONTINUOUS
 62
    61
 10
615.49059564738309
 20
777.2170381988924
 30
0.0
 40
64.0
  1
AS-1508SB2_1
 41
0.9
  0
CIRCLE
  8
ARRANGE
  6
CONTINUOUS
 62
     1
 10
0.0
 20
0.0
 30
0.0
 40
40.0
  0
POINT
  8
ARRANGE
  6
CONTINUOUS
 62
     1
 10
0.0
 20
0.0
 30
0.0
  0
LINE
  8
BASIS
  6
DASHDOT
 62
     6
 10
0.0
 20
-224.5596528737058
 30
0.0
 11
0.0
 21
209.82475578062079
 31
0.0
  0
CIRCLE
  8
FIX
  6
CONTINUOUS
 62
    11
 10
-471.0
 20
-47.0
 30
0.0
 40
6.0
  0
CIRCLE
  8
FIX
  6
CONTINUOUS
 62
    11
 10
-471.0
 20
48.0
 30
0.0
 40
6.0
  0
LINE
  8
DETAIL
  6
CONTINUOUS
 62
     5
 10
-490.69999999999987
 20
29.5
 30
0.0
 11
-490.69999999999987
 21
-28.5
 31
0.0
  0
ARC
  8
DETAIL
  6
CONTINUOUS
 62
     5
 10
-471.0
 20
-47.0
 30
0.0
 40
6.0
 50
270.0
 51
90.0
  0
LINE
  8
NOTE
  6
CONTINUOUS
 62
     4
 10
-451.0
 20
-47.0
 30
0.0
 11
-491.0
 21
-47.0
 31
0.0
  0
LINE
  8
NOTE
  6
CONTINUOUS
 62
     4
 10
-471.0
 20
-27.0
 30
0.0
 11
-471.0
 21
-67.0
 31
0.0
  0
LINE
  8
DETAIL
  6
CONTINUOUS
 62
     5
 10
-435.0
 20
-65.5
 30
0.0
 11
-493.0
 21
-65.5
 31
0.0
  0
LINE
  8
DETAIL
  6
CONTINUOUS
 62
     5
 10
-471.0
 20
-53.0
 30
0.0
 11
-493.0
 21
-53.0
 31
0.0
  0
LINE
  8
DETAIL
  6
CONTINUOUS
 62
     5
 10
-493.0
 20
-65.5
 30
0.0
 11
-493.0
 21
-53.0
 31
0.0
  0
LINE
  8
DETAIL
  6
CONTINUOUS
 62
     5
 10
-471.0
 20
-41.0
 30
0.0
 11
-493.0
 21
-41.0
 31
0.0
  0
LINE
  8
DETAIL
  6
CONTINUOUS
 62
     5
 10
-471.0
 20
-41.0
 30
0.0
 11
-493.0
 21
-41.0
 31
0.0
  0
LINE
  8
DETAIL
  6
CONTINUOUS
 62
     5
 10
-493.0
 20
-41.0
 30
0.0
 11
-493.0
 21
-28.5
 31
0.0
  0
LINE
  8
DETAIL
  6
CONTINUOUS
 62
     5
 10
-490.69999999999987
 20
-28.5
 30
0.0
 11
-493.0
 21
-28.5
 31
0.0
  0
LINE
  8
NOTE
  6
CONTINUOUS
 62
     4
 10
-451.0
 20
48.0
 30
0.0
 11
-491.0
 21
48.0
 31
0.0
  0
LINE
  8
NOTE
  6
CONTINUOUS
 62
     4
 10
-471.0
 20
-16.48765057303444
 30
0.0
 11
-471.0
 21
68.0
 31
0.0
  0
ARC
  8
DETAIL
  6
CONTINUOUS
 62
     5
 10
-471.0
 20
48.0
 30
0.0
 40
6.0
 50
270.0
 51
90.0
  0
LINE
  8
DETAIL
  6
CONTINUOUS
 62
     5
 10
-435.0
 20
66.5
 30
0.0
 11
-493.0
 21
66.5
 31
0.0
  0
LINE
  8
DETAIL
  6
CONTINUOUS
 62
     5
 10
-471.0
 20
42.0
 30
0.0
 11
-493.0
 21
42.0
 31
0.0
  0
LINE
  8
DETAIL
  6
CONTINUOUS
 62
     5
 10
-490.69999999999987
 20
29.5
 30
0.0
 11
-493.0
 21
29.5
 31
0.0
  0
LINE
  8
DETAIL
  6
CONTINUOUS
 62
     5
 10
-493.0
 20
42.0
 30
0.0
 11
-493.0
 21
29.5
 31
0.0
  0
LINE
  8
DETAIL
  6
CONTINUOUS
 62
     5
 10
-471.0
 20
42.0
 30
0.0
 11
-493.0
 21
42.0
 31
0.0
  0
LINE
  8
DETAIL
  6
CONTINUOUS
 62
     5
 10
-471.0
 20
54.0
 30
0.0
 11
-493.0
 21
54.0
 31
0.0
  0
LINE
  8
DETAIL
  6
CONTINUOUS
 62
     5
 10
-493.0
 20
66.5
 30
0.0
 11
-493.0
 21
54.0
 31
0.0
  0
LINE
  8
DETAIL
  6
CONTINUOUS
 62
     5
 10
490.69999999999987
 20
29.5
 30
0.0
 11
490.69999999999987
 21
-28.5
 31
0.0
  0
CIRCLE
  8
FIX
  6
CONTINUOUS
 62
    11
 10
471.0
 20
-47.0
 30
0.0
 40
6.0
  0
LINE
  8
DETAIL
  6
CONTINUOUS
 62
     5
 10
435.0
 20
-65.5
 30
0.0
 11
493.0
 21
-65.5
 31
0.0
  0
LINE
  8
NOTE
  6
CONTINUOUS
 62
     4
 10
451.0
 20
-47.0
 30
0.0
 11
491.0
 21
-47.0
 31
0.0
  0
LINE
  8
NOTE
  6
CONTINUOUS
 62
     4
 10
471.0
 20
-27.0
 30
0.0
 11
471.0
 21
-67.0
 31
0.0
  0
LINE
  8
DETAIL
  6
CONTINUOUS
 62
     5
 10
490.69999999999987
 20
-28.5
 30
0.0
 11
493.0
 21
-28.5
 31
0.0
  0
LINE
  8
DETAIL
  6
CONTINUOUS
 62
     5
 10
493.0
 20
-41.0
 30
0.0
 11
493.0
 21
-28.5
 31
0.0
  0
LINE
  8
DETAIL
  6
CONTINUOUS
 62
     5
 10
471.0
 20
-41.0
 30
0.0
 11
493.0
 21
-41.0
 31
0.0
  0
LINE
  8
DETAIL
  6
CONTINUOUS
 62
     5
 10
471.0
 20
-41.0
 30
0.0
 11
493.0
 21
-41.0
 31
0.0
  0
LINE
  8
DETAIL
  6
CONTINUOUS
 62
     5
 10
493.0
 20
-65.5
 30
0.0
 11
493.0
 21
-53.0
 31
0.0
  0
LINE
  8
DETAIL
  6
CONTINUOUS
 62
     5
 10
471.0
 20
-53.0
 30
0.0
 11
493.0
 21
-53.0
 31
0.0
  0
ARC
  8
DETAIL
  6
CONTINUOUS
 62
     5
 10
471.0
 20
-47.0
 30
0.0
 40
6.0
 50
90.0
 51
270.0
  0
CIRCLE
  8
FIX
  6
CONTINUOUS
 62
    11
 10
471.0
 20
48.0
 30
0.0
 40
6.0
  0
LINE
  8
DETAIL
  6
CONTINUOUS
 62
     5
 10
435.0
 20
66.5
 30
0.0
 11
493.0
 21
66.5
 31
0.0
  0
LINE
  8
NOTE
  6
CONTINUOUS
 62
     4
 10
451.0
 20
48.0
 30
0.0
 11
491.0
 21
48.0
 31
0.0
  0
LINE
  8
NOTE
  6
CONTINUOUS
 62
     4
 10
471.0
 20
-12.347881367979429
 30
0.0
 11
471.0
 21
68.0
 31
0.0
  0
LINE
  8
DETAIL
  6
CONTINUOUS
 62
     5
 10
493.0
 20
66.5
 30
0.0
 11
493.0
 21
54.0
 31
0.0
  0
LINE
  8
DETAIL
  6
CONTINUOUS
 62
     5
 10
471.0
 20
54.0
 30
0.0
 11
493.0
 21
54.0
 31
0.0
  0
LINE
  8
DETAIL
  6
CONTINUOUS
 62
     5
 10
471.0
 20
42.0
 30
0.0
 11
493.0
 21
42.0
 31
0.0
  0
LINE
  8
DETAIL
  6
CONTINUOUS
 62
     5
 10
493.0
 20
42.0
 30
0.0
 11
493.0
 21
29.5
 31
0.0
  0
LINE
  8
DETAIL
  6
CONTINUOUS
 62
     5
 10
490.69999999999987
 20
29.5
 30
0.0
 11
493.0
 21
29.5
 31
0.0
  0
LINE
  8
DETAIL
  6
CONTINUOUS
 62
     5
 10
471.0
 20
42.0
 30
0.0
 11
493.0
 21
42.0
 31
0.0
  0
ARC
  8
DETAIL
  6
CONTINUOUS
 62
     5
 10
471.0
 20
48.0
 30
0.0
 40
6.0
 50
90.0
 51
270.0
  0
LINE
  8
DETAIL
  6
CONTINUOUS
 62
     5
 10
-435.0
 20
-125.0
 30
0.0
 11
435.0
 21
-125.0
 31
0.0
  0
LINE
  8
DETAIL
  6
CONTINUOUS
 62
     5
 10
435.0
 20
125.0
 30
0.0
 11
-435.0
 21
125.0
 31
0.0
  0
LINE
  8
DETAIL
  6
CONTINUOUS
 62
     5
 10
-435.0
 20
125.0
 30
0.0
 11
-435.0
 21
-125.0
 31
0.0
  0
LINE
  8
DETAIL
  6
CONTINUOUS
 62
     5
 10
435.0
 20
125.0
 30
0.0
 11
435.0
 21
-125.0
 31
0.0
  0
LINE
  8
SIZE
  6
CONTINUOUS
 62
    30
 10
-471.0
 20
86.5
 30
0.0
 11
-471.0
 21
413.95614445842278
 31
0.0
  0
LINE
  8
SIZE
  6
CONTINUOUS
 62
    30
 10
471.0
 20
88.0
 30
0.0
 11
471.0
 21
413.95614445842278
 31
0.0
  0
LINE
  8
SIZE
  6
CONTINUOUS
 62
    30
 10
-459.0
 20
393.95614445842278
 30
0.0
 11
459.0
 21
393.95614445842278
 31
0.0
  0
CIRCLE
  8
SIZE
  6
CONTINUOUS
 62
    30
 10
-471.0
 20
393.95614445842278
 30
0.0
 40
6.0
  0
LINE
  8
SIZE
  6
CONTINUOUS
 62
    30
 10
-471.0
 20
393.95614445842278
 30
0.0
 11
-459.0
 21
393.95614445842278
 31
0.0
  0
CIRCLE
  8
SIZE
  6
CONTINUOUS
 62
    30
 10
471.0
 20
393.95614445842278
 30
0.0
 40
6.0
  0
LINE
  8
SIZE
  6
CONTINUOUS
 62
    30
 10
471.0
 20
393.95614445842278
 30
0.0
 11
459.0
 21
393.95614445842278
 31
0.0
  0
TEXT
  8
SIZE
  6
CONTINUOUS
 62
    30
 10
-74.05714285714285
 20
418.95614445842278
 30
0.0
 40
64.0
  1
942
 41
0.9
 72
     1
 11
0.0
 21
418.95614445842278
 31
0.0
  0
LINE
  8
SIZE
  6
CONTINUOUS
 62
    30
 10
-513.0
 20
66.5
 30
0.0
 11
-853.46491441717421
 21
66.500000000000099
 31
0.0
  0
LINE
  8
SIZE
  6
CONTINUOUS
 62
    30
 10
-513.0
 20
-65.5
 30
0.0
 11
-853.46491441717421
 21
-65.499999999999901
 31
0.0
  0
LINE
  8
SIZE
  6
CONTINUOUS
 62
    30
 10
-833.46491441717421
 20
54.500000000000092
 30
0.0
 11
-833.46491441717421
 21
-53.499999999999908
 31
0.0
  0
CIRCLE
  8
SIZE
  6
CONTINUOUS
 62
    30
 10
-833.46491441717421
 20
66.500000000000099
 30
0.0
 40
6.0
  0
LINE
  8
SIZE
  6
CONTINUOUS
 62
    30
 10
-833.46491441717421
 20
66.500000000000099
 30
0.0
 11
-833.46491441717421
 21
54.500000000000092
 31
0.0
  0
CIRCLE
  8
SIZE
  6
CONTINUOUS
 62
    30
 10
-833.46491441717421
 20
-65.499999999999929
 30
0.0
 40
6.0
  0
LINE
  8
SIZE
  6
CONTINUOUS
 62
    30
 10
-833.46491441717421
 20
-65.499999999999929
 30
0.0
 11
-833.46491441717421
 21
-53.499999999999908
 31
0.0
  0
TEXT
  8
SIZE
  6
CONTINUOUS
 62
    30
 10
-858.46491441717421
 20
-68.071428571428626
 30
0.0
 40
64.0
  1
132
 50
90.0
 41
0.9
 72
     1
 11
-858.46491441717421
 21
0.4999999999999432
 31
0.0
  0
LINE
  8
SIZE
  6
CONTINUOUS
 62
    30
 10
-497.0
 20
48.0
 30
0.0
 11
-727.74840611664501
 21
48.000000000000057
 31
0.0
  0
LINE
  8
SIZE
  6
CONTINUOUS
 62
    30
 10
-497.0
 20
-47.0
 30
0.0
 11
-727.74840611664501
 21
-46.999999999999943
 31
0.0
  0
LINE
  8
SIZE
  6
CONTINUOUS
 62
    30
 10
-707.74840611664501
 20
36.00000000000005
 30
0.0
 11
-707.74840611664501
 21
-34.99999999999995
 31
0.0
  0
CIRCLE
  8
SIZE
  6
CONTINUOUS
 62
    30
 10
-707.74840611664501
 20
48.000000000000057
 30
0.0
 40
6.0
  0
LINE
  8
SIZE
  6
CONTINUOUS
 62
    30
 10
-707.74840611664501
 20
48.000000000000057
 30
0.0
 11
-707.74840611664501
 21
36.00000000000005
 31
0.0
  0
CIRCLE
  8
SIZE
  6
CONTINUOUS
 62
    30
 10
-707.74840611664501
 20
-46.999999999999943
 30
0.0
 40
6.0
  0
LINE
  8
SIZE
  6
CONTINUOUS
 62
    30
 10
-707.74840611664501
 20
-46.999999999999943
 30
0.0
 11
-707.74840611664501
 21
-34.99999999999995
 31
0.0
  0
TEXT
  8
SIZE
  6
CONTINUOUS
 62
    30
 10
-732.74840611664501
 20
-46.128571428571483
 30
0.0
 40
64.0
  1
95
 50
90.0
 41
0.9
 72
     1
 11
-732.74840611664501
 21
0.4999999999999432
 31
0.0
  0
LINE
  8
SIZE
  6
CONTINUOUS
 62
    30
 10
-513.0
 20
54.0
 30
0.0
 11
-670.85686809336039
 21
54.000000000000057
 31
0.0
  0
LINE
  8
SIZE
  6
CONTINUOUS
 62
    30
 10
-513.0
 20
42.0
 30
0.0
 11
-670.85686809336039
 21
42.00000000000005
 31
0.0
  0
LINE
  8
SIZE
  6
CONTINUOUS
 62
    30
 10
-650.85686809336039
 20
30.00000000000006
 30
0.0
 11
-650.85686809336039
 21
18.00000000000006
 31
0.0
  0
LINE
  8
SIZE
  6
CONTINUOUS
 62
    30
 10
-650.85686809336039
 20
66.000000000000071
 30
0.0
 11
-650.85686809336039
 21
251.3054000313804
 31
0.0
  0
LINE
  8
SIZE
  6
CONTINUOUS
 62
    30
 10
-650.85686809336039
 20
42.000000000000021
 30
0.0
 11
-650.85686809336039
 21
54.000000000000021
 31
0.0
  0
CIRCLE
  8
SIZE
  6
CONTINUOUS
 62
    30
 10
-650.85686809336039
 20
42.000000000000021
 30
0.0
 40
6.0
  0
LINE
  8
SIZE
  6
CONTINUOUS
 62
    30
 10
-650.85686809336039
 20
42.000000000000021
 30
0.0
 11
-650.85686809336039
 21
30.00000000000006
 31
0.0
  0
CIRCLE
  8
SIZE
  6
CONTINUOUS
 62
    30
 10
-650.85686809336039
 20
54.000000000000021
 30
0.0
 40
6.0
  0
LINE
  8
SIZE
  6
CONTINUOUS
 62
    30
 10
-650.85686809336039
 20
54.000000000000021
 30
0.0
 11
-650.85686809336039
 21
66.000000000000071
 31
0.0
  0
TEXT
  8
SIZE
  6
CONTINUOUS
 62
    30
 10
-675.85686809336039
 20
144.01968574566601
 30
0.0
 40
64.0
  1
12
 50
90.0
 41
0.9
 72
     1
 11
-675.85686809336039
 21
185.16254288852309
 31
0.0
  0
LINE
  8
SIZE
  6
CONTINUOUS
 62
    30
 10
-493.0
 20
74.0
 30
0.0
 11
-493.0
 21
307.42485857270492
 31
0.0
  0
LINE
  8
SIZE
  6
CONTINUOUS
 62
    30
 10
-435.0
 20
145.0
 30
0.0
 11
-435.0
 21
307.42485857270492
 31
0.0
  0
LINE
  8
SIZE
  6
CONTINUOUS
 62
    30
 10
-423.0
 20
287.42485857270492
 30
0.0
 11
-411.0
 21
287.42485857270492
 31
0.0
  0
LINE
  8
SIZE
  6
CONTINUOUS
 62
    30
 10
-505.0
 20
287.42485857270492
 30
0.0
 11
-660.25714285714287
 21
287.42485857270492
 31
0.0
  0
LINE
  8
SIZE
  6
CONTINUOUS
 62
    30
 10
-435.0
 20
287.42485857270492
 30
0.0
 11
-493.0
 21
287.42485857270492
 31
0.0
  0
CIRCLE
  8
SIZE
  6
CONTINUOUS
 62
    30
 10
-435.0
 20
287.42485857270492
 30
0.0
 40
6.0
  0
LINE
  8
SIZE
  6
CONTINUOUS
 62
    30
 10
-435.0
 20
287.42485857270492
 30
0.0
 11
-423.0
 21
287.42485857270492
 31
0.0
  0
CIRCLE
  8
SIZE
  6
CONTINUOUS
 62
    30
 10
-493.0
 20
287.42485857270492
 30
0.0
 40
6.0
  0
LINE
  8
SIZE
  6
CONTINUOUS
 62
    30
 10
-493.0
 20
287.42485857270492
 30
0.0
 11
-505.0
 21
287.42485857270492
 31
0.0
  0
TEXT
  8
SIZE
  6
CONTINUOUS
 62
    30
 10
-635.25714285714275
 20
312.42485857270492
 30
0.0
 40
64.0
  1
58
 41
0.9
 72
     1
 11
-588.62857142857138
 21
312.42485857270492
 31
0.0
  0
LINE
  8
SIZE
  6
CONTINUOUS
 62
    30
 10
521.5
 20
125.0
 30
0.0
 11
728.62470442970516
 21
124.9999999999999
 31
0.0
  0
LINE
  8
SIZE
  6
CONTINUOUS
 62
    30
 10
521.5
 20
-125.0
 30
0.0
 11
728.62470442970516
 21
-125.0000000000001
 31
0.0
  0
LINE
  8
SIZE
  6
CONTINUOUS
 62
    30
 10
708.62470442970516
 20
112.9999999999999
 30
0.0
 11
708.62470442970516
 21
-113.0000000000001
 31
0.0
  0
CIRCLE
  8
SIZE
  6
CONTINUOUS
 62
    30
 10
708.62470442970516
 20
124.9999999999999
 30
0.0
 40
6.0
  0
LINE
  8
SIZE
  6
CONTINUOUS
 62
    30
 10
708.62470442970516
 20
124.9999999999999
 30
0.0
 11
708.62470442970516
 21
112.9999999999999
 31
0.0
  0
CIRCLE
  8
SIZE
  6
CONTINUOUS
 62
    30
 10
708.62470442970516
 20
-125.0000000000001
 30
0.0
 40
6.0
  0
LINE
  8
SIZE
  6
CONTINUOUS
 62
    30
 10
708.62470442970516
 20
-125.0000000000001
 30
0.0
 11
708.62470442970516
 21
-113.0000000000001
 31
0.0
  0
TEXT
  8
SIZE
  6
CONTINUOUS
 62
    30
 10
683.62470442970528
 20
-74.057142857142736
 30
0.0
 40
64.0
  1
250
 50
90.0
 41
0.9
 72
     1
 11
683.62470442970528
 21
0.0000000000001137
 31
0.0
  0
LINE
  8
SERVICESPACE
  6
DASHDOT
 62
     2
 10
-508.0
 20
129.5
 30
0.0
 11
-508.0
 21
-129.5
 31
0.0
  0
LINE
  8
SERVICESPACE
  6
DASHDOT
 62
     2
 10
-508.0
 20
-129.5
 30
0.0
 11
508.0
 21
-129.5
 31
0.0
  0
LINE
  8
SERVICESPACE
  6
DASHDOT
 62
     2
 10
508.0
 20
-129.5
 30
0.0
 11
508.0
 21
129.5
 31
0.0
  0
LINE
  8
SERVICESPACE
  6
DASHDOT
 62
     2
 10
508.0
 20
129.5
 30
0.0
 11
-508.0
 21
129.5
 31
0.0
  0
LINE
  8
SIZE
  6
CONTINUOUS
 62
    30
 10
528.0
 20
129.5
 30
0.0
 11
882.66907075047322
 21
129.49999999999989
 31
0.0
  0
LINE
  8
SIZE
  6
CONTINUOUS
 62
    30
 10
528.0
 20
-129.5
 30
0.0
 11
882.66907075047322
 21
-129.50000000000011
 31
0.0
  0
LINE
  8
SIZE
  6
CONTINUOUS
 62
    30
 10
862.66907075047322
 20
117.4999999999999
 30
0.0
 11
862.66907075047322
 21
-117.5000000000001
 31
0.0
  0
CIRCLE
  8
SIZE
  6
CONTINUOUS
 62
    30
 10
862.66907075047322
 20
129.49999999999989
 30
0.0
 40
6.0
  0
LINE
  8
SIZE
  6
CONTINUOUS
 62
    30
 10
862.66907075047322
 20
129.49999999999989
 30
0.0
 11
862.66907075047322
 21
117.4999999999999
 31
0.0
  0
CIRCLE
  8
SIZE
  6
CONTINUOUS
 62
    30
 10
862.66907075047322
 20
-129.50000000000011
 30
0.0
 40
6.0
  0
LINE
  8
SIZE
  6
CONTINUOUS
 62
    30
 10
862.66907075047322
 20
-129.50000000000011
 30
0.0
 11
862.66907075047322
 21
-117.5000000000001
 31
0.0
  0
TEXT
  8
SIZE
  6
CONTINUOUS
 62
    30
 10
837.66907075047322
 20
-72.685714285714226
 30
0.0
 40
64.0
  1
259
 50
90.0
 41
0.9
 72
     1
 11
837.66907075047322
 21
0.0000000000000568
 31
0.0
  0
LINE
  8
SIZE
  6
CONTINUOUS
 62
    30
 10
-508.0
 20
-149.5
 30
0.0
 11
-508.0
 21
-386.87561995612572
 31
0.0
  0
LINE
  8
SIZE
  6
CONTINUOUS
 62
    30
 10
508.0
 20
-149.5
 30
0.0
 11
508.0
 21
-386.87561995612572
 31
0.0
  0
LINE
  8
SIZE
  6
CONTINUOUS
 62
    30
 10
-496.0
 20
-366.87561995612572
 30
0.0
 11
496.0
 21
-366.87561995612572
 31
0.0
  0
CIRCLE
  8
SIZE
  6
CONTINUOUS
 62
    30
 10
-508.0
 20
-366.87561995612572
 30
0.0
 40
6.0
  0
LINE
  8
SIZE
  6
CONTINUOUS
 62
    30
 10
-508.0
 20
-366.87561995612572
 30
0.0
 11
-496.0
 21
-366.87561995612572
 31
0.0
  0
CIRCLE
  8
SIZE
  6
CONTINUOUS
 62
    30
 10
508.0
 20
-366.87561995612572
 30
0.0
 40
6.0
  0
LINE
  8
SIZE
  6
CONTINUOUS
 62
    30
 10
508.0
 20
-366.87561995612572
 30
0.0
 11
496.0
 21
-366.87561995612572
 31
0.0
  0
TEXT
  8
SIZE
  6
CONTINUOUS
 62
    30
 10
-89.142857142857125
 20
-341.87561995612577
 30
0.0
 40
64.0
  1
1016
 41
0.9
 72
     1
 11
0.0
 21
-341.87561995612577
 31
0.0
  0
LINE
  8
NOTE
  6
CONTINUOUS
 62
     4
 10
-471.0
 20
-47.0
 30
0.0
 11
-546.96594300000015
 21
-307.31504699999999
 31
0.0
  0
TEXT
  8
NOTE
  6
CONTINUOUS
 62
     4
 10
-909.56857400000001
 20
-278.50639799999999
 30
0.0
 40
64.0
  1
AH-2×2
 41
0.9
  0
LINE
  8
NOTE
  6
CONTINUOUS
 62
     4
 10
-546.96594300000015
 20
-307.31504699999999
 30
0.0
 11
-913.76243199999999
 21
-307.31504699999999
 31
0.0
  0
LINE
  8
NOTE
  6
CONTINUOUS
 62
     4
 10
-472.00696900000003
 20
-86.987322999999805
 30
0.0
 11
-471.0
 21
-47.0
 31
0.0
  0
LINE
  8
NOTE
  6
CONTINUOUS
 62
     4
 10
-471.0
 20
-47.0
 30
0.0
 11
-491.86572299999989
 21
-81.126553000000072
 31
0.0
  0
TEXT
  8
NOTE
  6
CONTINUOUS
 62
     4
 10
-196.4347436617463
 20
-451.727455121204
 30
0.0
 40
64.0
  1
天井開口寸法
 41
0.9
  0
LINE
  8
BASIS
  6
DASHDOT
 62
     6
 10
-570.543912727102
 20
0.0
 30
0.0
 11
570.543912727102
 21
0.0
 31
0.0
  0
TEXT
  8
ETC
  6
CONTINUOUS
 62
    61
 10
640.98304994552063
 20
668.44908361674482
 30
0.0
 40
64.0
  1
産業扇
 41
0.9
  0
TEXT
  8
NOTE
  6
CONTINUOUS
 62
     4
 10
960.61109269480392
 20
-213.62839207921121
 30
0.0
 40
64.0
  1
天井開口寸法
 50
90.0
 41
0.9
  0
LINE
  8
NOTE
  6
CONTINUOUS
 62
     4
 10
-367.5
 20
-125.0
 30
0.0
 11
-407.5
 21
-125.0
 31
0.0
  0
LINE
  8
NOTE
  6
CONTINUOUS
 62
     4
 10
-387.5
 20
-105.0
 30
0.0
 11
-387.5
 21
-145.0
 31
0.0
  0
LINE
  8
NOTE
  6
CONTINUOUS
 62
     4
 10
-213.00882799999999
 20
-267.13052699999997
 30
0.0
 11
-103.1844499999997
 21
-267.13052699999997
 31
0.0
  0
TEXT
  8
NOTE
  6
CONTINUOUS
 62
     4
 10
-202.6161054285717
 20
-238.321878
 30
0.0
 40
64.0
  1
EL
 41
0.9
  0
LINE
  8
NOTE
  6
CONTINUOUS
 62
     4
 10
-322.5
 20
-125.0
 30
0.0
 11
-213.00882799999999
 21
-267.13052699999997
 31
0.0
  0
LINE
  8
NOTE
  6
CONTINUOUS
 62
     4
 10
-307.99080400000008
 20
-162.27577299999979
 30
0.0
 11
-322.5
 21
-125.0
 31
0.0
  0
LINE
  8
NOTE
  6
CONTINUOUS
 62
     4
 10
-322.5
 20
-125.0
 30
0.0
 11
-291.29678100000001
 21
-150.0271680000001
 31
0.0
  0
LINE
  8
NOTE
  6
CONTINUOUS
 62
     4
 10
-342.5
 20
-125.0
 30
0.0
 11
-302.5
 21
-125.0
 31
0.0
  0
LINE
  8
NOTE
  6
CONTINUOUS
 62
     4
 10
-322.5
 20
-105.0
 30
0.0
 11
-322.5
 21
-145.0
 31
0.0
  0
LINE
  8
NOTE
  6
CONTINUOUS
 62
     4
 10
-387.5
 20
-125.0
 30
0.0
 11
-213.00882799999999
 21
-267.13052699999997
 31
0.0
  0
LINE
  8
NOTE
  6
CONTINUOUS
 62
     4
 10
-365.00144919602099
 20
-158.07287760438621
 30
0.0
 11
-387.5
 21
-125.0
 31
0.0
  0
LINE
  8
NOTE
  6
CONTINUOUS
 62
     4
 10
-387.5
 20
-125.0
 30
0.0
 11
-351.4792445637413
 21
-142.39267638586529
 31
0.0
  0
LINE
  8
SIZE
  6
CONTINUOUS
 62
    30
 10
-493.0
 20
86.5
 30
0.0
 11
-493.0
 21
525.18256068809751
 31
0.0
  0
LINE
  8
SIZE
  6
CONTINUOUS
 62
    30
 10
493.0
 20
86.5
 30
0.0
 11
493.0
 21
525.18256068809751
 31
0.0
  0
LINE
  8
SIZE
  6
CONTINUOUS
 62
    30
 10
-481.0
 20
505.18256068809751
 30
0.0
 11
481.0
 21
505.18256068809751
 31
0.0
  0
CIRCLE
  8
SIZE
  6
CONTINUOUS
 62
    30
 10
-493.0
 20
505.18256068809751
 30
0.0
 40
6.0
  0
LINE
  8
SIZE
  6
CONTINUOUS
 62
    30
 10
-493.0
 20
505.18256068809751
 30
0.0
 11
-481.0
 21
505.18256068809751
 31
0.0
  0
CIRCLE
  8
SIZE
  6
CONTINUOUS
 62
    30
 10
493.0
 20
505.18256068809751
 30
0.0
 40
6.0
  0
LINE
  8
SIZE
  6
CONTINUOUS
 62
    30
 10
493.0
 20
505.18256068809751
 30
0.0
 11
481.0
 21
505.18256068809751
 31
0.0
  0
TEXT
  8
SIZE
  6
CONTINUOUS
 62
    30
 10
-72.685714285714283
 20
530.18256068809751
 30
0.0
 40
64.0
  1
986
 41
0.9
 72
     1
 11
0.0
 21
530.18256068809751
 31
0.0
  0
LINE
  8
SIZE
  6
CONTINUOUS
 62
    30
 10
435.0
 20
134.0
 30
0.0
 11
435.0
 21
307.42485857270492
 31
0.0
  0
LINE
  8
SIZE
  6
CONTINUOUS
 62
    30
 10
-435.0
 20
134.0
 30
0.0
 11
-435.0
 21
307.42485857270492
 31
0.0
  0
LINE
  8
SIZE
  6
CONTINUOUS
 62
    30
 10
423.0
 20
287.42485857270492
 30
0.0
 11
-423.0
 21
287.42485857270492
 31
0.0
  0
CIRCLE
  8
SIZE
  6
CONTINUOUS
 62
    30
 10
435.0
 20
287.42485857270492
 30
0.0
 40
6.0
  0
LINE
  8
SIZE
  6
CONTINUOUS
 62
    30
 10
435.0
 20
287.42485857270492
 30
0.0
 11
423.0
 21
287.42485857270492
 31
0.0
  0
CIRCLE
  8
SIZE
  6
CONTINUOUS
 62
    30
 10
-435.0
 20
287.42485857270492
 30
0.0
 40
6.0
  0
LINE
  8
SIZE
  6
CONTINUOUS
 62
    30
 10
-435.0
 20
287.42485857270492
 30
0.0
 11
-423.0
 21
287.42485857270492
 31
0.0
  0
TEXT
  8
SIZE
  6
CONTINUOUS
 62
    30
 10
-74.057142857142864
 20
312.42485857270492
 30
0.0
 40
64.0
  1
870
 41
0.9
 72
     1
 11
0.0
 21
312.42485857270492
 31
0.0
  0
TEXT
  8
ETC
  6
CONTINUOUS
 62
    61
 10
646.8339630043065
 20
581.03373808350761
 30
0.0
 40
40.0
  1
AS-1508SB2
 41
0.9
  0
ENDSEC
  0
EOF
