  0
SECTION
  2
HEADER
  9
$ACADVER
  1
AC1009
  9
$DWGCODEPAGE
  3
dos932
  9
$INSBASE
 10
0.0
 20
0.0
 30
0.0
  9
$EXTMIN
 10
-604.23973161453262
 20
-361.02070071036309
 30
0.0
  9
$EXTMAX
 10
906.87835079267597
 20
655.12112868292888
 30
150.0
  9
$LIMMIN
 10
-2970.0
 20
-2100.0
  9
$LIMMAX
 10
2970.0
 20
2100.0
  9
$ORTHOMODE
 70
     0
  9
$REGENMODE
 70
     1
  9
$FILLMODE
 70
     1
  9
$QTEXTMODE
 70
     0
  9
$MIRRTEXT
 70
     0
  9
$LTSCALE
 40
20.0
  9
$ATTMODE
 70
     1
  9
$TEXTSIZE
 40
64.0
  9
$TRACEWID
 40
0.05
  9
$TEXTSTYLE
  7
STANDARD
  9
$CLAYER
  8
SIZE
  9
$CELTYPE
  6
CONTINUOUS
  9
$CECOLOR
 62
     7
  9
$DIMSCALE
 40
1.0
  9
$DIMASZ
 40
12.0
  9
$DIMEXO
 40
20.0
  9
$DIMDLI
 40
200.0
  9
$DIMRND
 40
0.0
  9
$DIMDLE
 40
0.0
  9
$DIMEXE
 40
20.0
  9
$DIMTP
 40
0.0
  9
$DIMTM
 40
0.0
  9
$DIMTXT
 40
64.0
  9
$DIMCEN
 40
0.09
  9
$DIMTSZ
 40
0.0
  9
$DIMTOL
 70
     0
  9
$DIMLIM
 70
     0
  9
$DIMTIH
 70
     0
  9
$DIMTOH
 70
     0
  9
$DIMSE1
 70
     0
  9
$DIMSE2
 70
     0
  9
$DIMTAD
 70
     1
  9
$DIMZIN
 70
     8
  9
$DIMBLK
  1

  9
$DIMASO
 70
     1
  9
$DIMSHO
 70
     0
  9
$DIMPOST
  1

  9
$DIMAPOST
  1

  9
$DIMALT
 70
     0
  9
$DIMALTD
 70
     2
  9
$DIMALTF
 40
25.399999999999999
  9
$DIMLFAC
 40
1.0
  9
$DIMTOFL
 70
     1
  9
$DIMTVP
 40
0.0
  9
$DIMTIX
 70
     1
  9
$DIMSOXD
 70
     0
  9
$DIMSAH
 70
     0
  9
$DIMBLK1
  1

  9
$DIMBLK2
  1

  9
$DIMSTYLE
  2
STANDARD
  9
$DIMCLRD
 70
     7
  9
$DIMCLRE
 70
     7
  9
$DIMCLRT
 70
     7
  9
$DIMTFAC
 40
1.0
  9
$DIMGAP
 40
25.0
  9
$LUNITS
 70
     2
  9
$LUPREC
 70
     4
  9
$SKETCHINC
 40
0.1
  9
$FILLETRAD
 40
3.0
  9
$AUNITS
 70
     1
  9
$AUPREC
 70
     3
  9
$MENU
  1
ACAD
  9
$ELEVATION
 40
0.0
  9
$PELEVATION
 40
0.0
  9
$THICKNESS
 40
0.0
  9
$LIMCHECK
 70
     0
  9
$CHAMFERA
 40
0.0
  9
$CHAMFERB
 40
0.0
  9
$SKPOLY
 70
     0
  9
$TDCREATE
 40
2453019.623009259
  9
$TDUPDATE
 40
2459291.629243229
  9
$TDINDWG
 40
1.7275854282
  9
$TDUSRTIMER
 40
1.7275854282
  9
$USRTIMER
 70
     1
  9
$ANGBASE
 50
0.0
  9
$ANGDIR
 70
     0
  9
$PDMODE
 70
     3
  9
$PDSIZE
 40
-2.0
  9
$PLINEWID
 40
0.0
  9
$SPLFRAME
 70
     0
  9
$SPLINETYPE
 70
     6
  9
$SPLINESEGS
 70
     8
  9
$SURFTAB1
 70
     6
  9
$SURFTAB2
 70
     6
  9
$SURFTYPE
 70
     6
  9
$SURFU
 70
     6
  9
$SURFV
 70
     6
  9
$UCSNAME
  2

  9
$UCSORG
 10
0.0
 20
0.0
 30
0.0
  9
$UCSXDIR
 10
1.0
 20
0.0
 30
0.0
  9
$UCSYDIR
 10
0.0
 20
1.0
 30
0.0
  9
$PUCSNAME
  2

  9
$PUCSORG
 10
0.0
 20
0.0
 30
0.0
  9
$PUCSXDIR
 10
1.0
 20
0.0
 30
0.0
  9
$PUCSYDIR
 10
0.0
 20
1.0
 30
0.0
  9
$USERI1
 70
     0
  9
$USERI2
 70
     0
  9
$USERI3
 70
     0
  9
$USERI4
 70
     0
  9
$USERI5
 70
     0
  9
$USERR1
 40
20.0
  9
$USERR2
 40
0.0
  9
$USERR3
 40
0.0
  9
$USERR4
 40
0.0
  9
$USERR5
 40
0.0
  9
$WORLDVIEW
 70
     1
  9
$SHADEDGE
 70
     3
  9
$SHADEDIF
 70
    70
  9
$TILEMODE
 70
     1
  9
$MAXACTVP
 70
    48
  9
$PINSBASE
 10
0.0
 20
0.0
 30
0.0
  9
$PLIMCHECK
 70
     0
  9
$PEXTMIN
 10
-100000000000000000000.0
 20
-100000000000000000000.0
 30
-100000000000000000000.0
  9
$PEXTMAX
 10
100000000000000000000.0
 20
100000000000000000000.0
 30
100000000000000000000.0
  9
$PLIMMIN
 10
0.0
 20
0.0
  9
$PLIMMAX
 10
12.0
 20
9.0
  9
$UNITMODE
 70
     0
  9
$VISRETAIN
 70
     0
  9
$PLINEGEN
 70
     0
  9
$PSLTSCALE
 70
     0
  9
$TREEDEPTH
 70
  3020
  9
$ATTDIA
 70
     0
  9
$ATTREQ
 70
     1
  9
$BLIPMODE
 70
     1
  9
$COORDS
 70
     1
  9
$DRAGMODE
 70
     2
  9
$OSMODE
 70
     0
  9
$HANDLING
 70
     0
  9
$HANDSEED
  5
2B9
  0
ENDSEC
  0
SECTION
  2
TABLES
  0
TABLE
  2
LTYPE
 70
     2
  0
LTYPE
  2
CONTINUOUS
 70
     0
  3
実線
 72
    65
 73
     0
 40
0.0
  0
LTYPE
  2
DASHDOT
 70
     0
  3
____ _ ____ _ ____ _ ____ _ ____ _ ____ _ ____
 72
    65
 73
     4
 40
5.5
 49
4.0
 49
-0.6
 49
0.3
 49
-0.6
  0
ENDTAB
  0
TABLE
  2
LAYER
 70
    12
  0
LAYER
  2
SIZE
 70
     0
 62
    30
  6
CONTINUOUS
  0
LAYER
  2
BASIS
 70
     0
 62
     6
  6
DASHDOT
  0
LAYER
  2
OUTLINE
 70
     0
 62
     3
  6
CONTINUOUS
  0
LAYER
  2
DETAIL
 70
     0
 62
     5
  6
CONTINUOUS
  0
LAYER
  2
ARRANGE
 70
     0
 62
     1
  6
CONTINUOUS
  0
LAYER
  2
ETC
 70
     0
 62
    61
  6
CONTINUOUS
  0
LAYER
  2
FIX
 70
     0
 62
    11
  6
CONTINUOUS
  0
LAYER
  2
NOTE
 70
     0
 62
     4
  6
CONTINUOUS
  0
LAYER
  2
0
 70
    64
 62
     7
  6
CONTINUOUS
  0
LAYER
  2
DEFPOINTS
 70
    64
 62
     7
  6
CONTINUOUS
  0
LAYER
  2
SERVICESPACE
 70
    64
 62
     2
  6
DASHDOT
  0
LAYER
  2
SYMBOLLINE
 70
    64
 62
    15
  6
CONTINUOUS
  0
ENDTAB
  0
TABLE
  2
STYLE
 70
     1
  0
STYLE
  2
STANDARD
 70
     0
 40
64.0
 41
0.9
 50
0.0
 71
     0
 42
64.0
  3
SIMPLEX.shx
  4
BIGFONT.shx
  0
ENDTAB
  0
TABLE
  2
APPID
 70
    20
  0
APPID
  2
ACAD
 70
     0
  0
APPID
  2
ACADANNOTATIVE
 70
     0
  0
APPID
  2
AUTOCAD_POSTSCRIPT_FIGURE
 70
     0
  0
APPID
  2
ACAD_EXEMPT_FROM_CAD_STANDARDS
 70
     0
  0
APPID
  2
ACAD_PSEXT
 70
     0
  0
APPID
  2
ACAUTHENVIRON
 70
     0
  0
APPID
  2
GENIUS_GENOENT_13
 70
     0
  0
APPID
  2
GENIUS_GENCFG_13
 70
     0
  0
APPID
  2
GENIUS_GENCFG0_13
 70
     0
  0
APPID
  2
GENIUS_GENCFG1_13
 70
     0
  0
APPID
  2
GENIUS_GENCFG2_13
 70
     0
  0
APPID
  2
GENIUS_GENCFG3_13
 70
     0
  0
APPID
  2
GENIUS_GENCFG4_13
 70
     0
  0
APPID
  2
GENIUS_GEVCFG0_13
 70
     0
  0
APPID
  2
CONTENTBLOCKICON
 70
     0
  0
APPID
  2
CONTENTBLOCKDESCRIPTION
 70
     0
  0
APPID
  2
ACAD_NAV_VCDISPLAY
 70
     0
  0
APPID
  2
ACAD_MLEADERVER
 70
     0
  0
APPID
  2
ACDBDYNAMICBLOCKTRUENAME
 70
     0
  0
APPID
  2
ACDBDYNAMICBLOCKGUID
 70
     0
  0
ENDTAB
  0
TABLE
  2
DIMSTYLE
 70
     1
  0
DIMSTYLE
  2
STANDARD
 70
     0
  3

  4

  5

  6

  7

 40
1.0
 41
12.0
 42
20.0
 43
200.0
 44
20.0
 45
0.0
 46
0.0
 47
0.0
 48
0.0
140
64.0
141
0.09
142
0.0
143
25.399999999999999
144
1.0
145
0.0
146
1.0
147
25.0
 71
     0
 72
     0
 73
     0
 74
     0
 75
     0
 76
     0
 77
     1
 78
     8
170
     0
171
     2
172
     1
173
     0
174
     1
175
     0
176
     7
177
     7
178
     7
  0
ENDTAB
  0
TABLE
  2
VIEW
 70
     1
  0
VIEW
  2
ALL
 70
     0
 40
4282.6198079999986
 10
0.0
 20
41.309904000000003
 41
5940.0
 11
0.0
 21
0.0
 31
1.0
 12
0.0
 22
0.0
 32
0.0
 42
50.0
 43
0.0
 44
0.0
 50
0.0
 71
     0
  0
ENDTAB
  0
TABLE
  2
UCS
 70
     0
  0
ENDTAB
  0
TABLE
  2
VPORT
 70
     1
  0
VPORT
  2
*ACTIVE
 70
     0
 10
0.0
 20
0.0
 11
1.0
 21
1.0
 12
151.3641497485377
 22
147.0794777235478
 13
0.0
 23
0.0
 14
1.0
 24
1.0
 15
0.0
 25
0.0
 16
0.0
 26
0.0
 36
1.0
 17
0.0
 27
0.0
 37
0.0
 40
1023.232431783119
 41
1.767337807606264
 42
50.0
 43
0.0
 44
0.0
 50
0.0
 51
0.0
 71
     0
 72
  1000
 73
     1
 74
     3
 75
     0
 76
     0
 77
     0
 78
     0
  0
ENDTAB
  0
ENDSEC
  0
SECTION
  2
BLOCKS
  0
ENDSEC
  0
SECTION
  2
ENTITIES
  0
CIRCLE
  8
ARRANGE
  6
CONTINUOUS
 62
     1
 10
0.0
 20
0.0
 30
0.0
 40
40.0
  0
POINT
  8
ARRANGE
  6
CONTINUOUS
 62
     1
 10
0.0
 20
0.0
 30
0.0
 50
180.0
  0
LINE
  8
DETAIL
  6
CONTINUOUS
 62
     5
 10
75.199999999799743
 20
44.450000000100097
 30
0.0
 11
75.199999999799743
 21
48.350000000100181
 31
0.0
  0
LINE
  8
DETAIL
  6
CONTINUOUS
 62
     5
 10
75.0
 20
136.40000000010011
 30
0.0
 11
75.0
 21
0.999999999900183
 31
0.0
  0
LINE
  8
DETAIL
  6
CONTINUOUS
 62
     5
 10
73.399999999800457
 20
0.0
 30
0.0
 11
73.399999999800457
 21
136.40000000010011
 31
0.0
  0
LINE
  8
DETAIL
  6
CONTINUOUS
 62
     5
 10
66.0
 20
65.90000000010015
 30
0.0
 11
66.0
 21
100.8999999999
 31
0.0
  0
LINE
  8
DETAIL
  6
CONTINUOUS
 62
     5
 10
53.499999999899963
 20
93.900000000000077
 30
0.0
 11
53.499999999899963
 21
100.8999999999
 31
0.0
  0
LINE
  8
DETAIL
  6
CONTINUOUS
 62
     5
 10
28.11628314239988
 20
98.600000000100195
 30
0.0
 11
28.999999999799911
 21
97.716283142400002
 31
0.0
  0
LINE
  8
DETAIL
  6
CONTINUOUS
 62
     5
 10
32.816283142499749
 20
93.900000000000077
 30
0.0
 11
36.172094380800438
 21
90.54418876170007
 31
0.0
  0
LINE
  8
DETAIL
  6
CONTINUOUS
 62
     5
 10
73.848999599631838
 20
0.0
 30
0.0
 11
-73.848999599630943
 21
0.0
 31
0.0
  0
LINE
  8
DETAIL
  6
CONTINUOUS
 62
     5
 10
-77.200000000199907
 20
0.2000000001000899
 30
0.0
 11
-73.984366420199876
 21
0.2000000001000899
 31
0.0
  0
LINE
  8
DETAIL
  6
CONTINUOUS
 62
     5
 10
-74.200000000199907
 20
0.999999999900183
 30
0.0
 11
-11.948421668399529
 21
0.999999999900183
 31
0.0
  0
LINE
  8
DETAIL
  6
CONTINUOUS
 62
     5
 10
-1.667061736799951
 20
0.999999999900183
 30
0.0
 11
1.6670617364998179
 21
0.999999999900183
 31
0.0
  0
LINE
  8
DETAIL
  6
CONTINUOUS
 62
     5
 10
11.948518853099809
 20
0.999999999900183
 30
0.0
 11
75.0
 21
0.999999999900183
 31
0.0
  0
LINE
  8
DETAIL
  6
CONTINUOUS
 62
     5
 10
41.499999999899963
 20
93.900000000000077
 30
0.0
 11
41.499999999899963
 21
100.8999999999
 31
0.0
  0
LINE
  8
DETAIL
  6
CONTINUOUS
 62
     5
 10
60.375762117901097
 20
49.722363298200086
 30
0.0
 11
63.204189242400389
 21
46.8939361734001
 31
0.0
  0
LINE
  8
DETAIL
  6
CONTINUOUS
 62
     5
 10
-77.200000000199907
 20
2.1999999999001152
 30
0.0
 11
-74.200000000199907
 21
2.1999999999001152
 31
0.0
  0
LINE
  8
DETAIL
  6
CONTINUOUS
 62
     5
 10
-77.200000000199907
 20
3.200000000100089
 30
0.0
 11
-74.200000000199907
 21
3.200000000100089
 31
0.0
  0
LINE
  8
DETAIL
  6
CONTINUOUS
 62
     5
 10
-77.200000000199907
 20
6.7752607776002378
 30
0.0
 11
-74.200000000199907
 21
6.7752607776002378
 31
0.0
  0
LINE
  8
DETAIL
  6
CONTINUOUS
 62
     5
 10
6.0
 20
7.4315324610001889
 30
0.0
 11
0.0
 21
3.950000000100089
 31
0.0
  0
LINE
  8
DETAIL
  6
CONTINUOUS
 62
     5
 10
38.827905618900317
 20
90.54418876170007
 30
0.0
 11
38.827905618900317
 21
93.900000000000077
 31
0.0
  0
LINE
  8
DETAIL
  6
CONTINUOUS
 62
     5
 10
36.172094380800438
 20
90.54418876170007
 30
0.0
 11
36.172094380800438
 21
93.900000000000077
 31
0.0
  0
LINE
  8
DETAIL
  6
CONTINUOUS
 62
     5
 10
44.198125416000039
 20
21.701874584099979
 30
0.0
 11
45.23340159630061
 21
17.838171278699971
 31
0.0
  0
LINE
  8
DETAIL
  6
CONTINUOUS
 62
     5
 10
28.999999999799911
 20
93.900000000000077
 30
0.0
 11
28.999999999799911
 21
100.8999999999
 31
0.0
  0
LINE
  8
DETAIL
  6
CONTINUOUS
 62
     5
 10
-6.0
 20
14.36846753910004
 30
0.0
 11
0.0
 21
17.85000000000014
 31
0.0
  0
LINE
  8
DETAIL
  6
CONTINUOUS
 62
     5
 10
16.177636701900159
 20
5.5242378822000564
 30
0.0
 11
15.142360521300359
 21
1.6605345768000459
 31
0.0
  0
LINE
  8
DETAIL
  6
CONTINUOUS
 62
     5
 10
48.061828721100028
 20
20.666598403500188
 30
0.0
 11
44.198125416000039
 21
21.701874584099979
 31
0.0
  0
LINE
  8
DETAIL
  6
CONTINUOUS
 62
     5
 10
-60.37576211790018
 20
49.722363298200086
 30
0.0
 11
-64.239465423299407
 21
50.757639478500103
 31
0.0
  0
LINE
  8
DETAIL
  6
CONTINUOUS
 62
     5
 10
64.239465423000183
 20
50.757639478500103
 30
0.0
 11
60.375762117901097
 21
49.722363298200086
 31
0.0
  0
LINE
  8
DETAIL
  6
CONTINUOUS
 62
     5
 10
-44.198125416000039
 20
21.701874584099979
 30
0.0
 11
-48.061828721400147
 21
20.666598403500188
 31
0.0
  0
LINE
  8
DETAIL
  6
CONTINUOUS
 62
     5
 10
-16.177636701900159
 20
5.5242378822000564
 30
0.0
 11
-19.00606382669957
 21
2.6958107574001819
 31
0.0
  0
LINE
  8
DETAIL
  6
CONTINUOUS
 62
     5
 10
6.0
 20
14.36846753910004
 30
0.0
 11
6.0
 21
7.4315324610001889
 31
0.0
  0
LINE
  8
DETAIL
  6
CONTINUOUS
 62
     5
 10
3.752776749600343
 20
72.399999999900032
 30
0.0
 11
7.5055534991997774
 21
65.90000000010015
 31
0.0
  0
LINE
  8
DETAIL
  6
CONTINUOUS
 62
     5
 10
75.0
 20
44.450000000100097
 30
0.0
 11
75.199999999799743
 21
44.450000000100097
 31
0.0
  0
LINE
  8
DETAIL
  6
CONTINUOUS
 62
     5
 10
0.0
 20
70.899999999900047
 30
0.0
 11
0.0
 21
69.900000000000034
 31
0.0
  0
LINE
  8
DETAIL
  6
CONTINUOUS
 62
     5
 10
0.0
 20
60.900000000000098
 30
0.0
 11
0.0
 21
61.899999999900047
 31
0.0
  0
LINE
  8
DETAIL
  6
CONTINUOUS
 62
     5
 10
-3.7527767498995672
 20
59.400000000000098
 30
0.0
 11
-7.5055534994990012
 21
65.90000000010015
 31
0.0
  0
LINE
  8
DETAIL
  6
CONTINUOUS
 62
     5
 10
-46.883716857600113
 20
98.600000000100195
 30
0.0
 11
-38.827905619199562
 21
90.54418876170007
 31
0.0
  0
LINE
  8
DETAIL
  6
CONTINUOUS
 62
     5
 10
75.0
 20
48.350000000100181
 30
0.0
 11
75.199999999799743
 21
48.350000000100181
 31
0.0
  0
LINE
  8
DETAIL
  6
CONTINUOUS
 62
     5
 10
46.883716857300897
 20
98.600000000100195
 30
0.0
 11
38.827905618900317
 21
90.54418876170007
 31
0.0
  0
LINE
  8
DETAIL
  6
CONTINUOUS
 62
     5
 10
7.5055534991997774
 20
65.90000000010015
 30
0.0
 11
3.752776749600343
 21
59.400000000000098
 31
0.0
  0
LINE
  8
DETAIL
  6
CONTINUOUS
 62
     5
 10
-6.0
 20
7.4315324610001889
 30
0.0
 11
-6.0
 21
14.36846753910004
 31
0.0
  0
LINE
  8
DETAIL
  6
CONTINUOUS
 62
     5
 10
3.752776749600343
 20
59.400000000000098
 30
0.0
 11
-3.7527767498995672
 21
59.400000000000098
 31
0.0
  0
LINE
  8
DETAIL
  6
CONTINUOUS
 62
     5
 10
-5.0000000001000444
 20
65.90000000010015
 30
0.0
 11
-3.9986221868994112
 21
65.90000000010015
 31
0.0
  0
LINE
  8
DETAIL
  6
CONTINUOUS
 62
     5
 10
4.9999999997999112
 20
65.90000000010015
 30
0.0
 11
3.998622186600187
 21
65.90000000010015
 31
0.0
  0
LINE
  8
DETAIL
  6
CONTINUOUS
 62
     5
 10
-7.5055534994990012
 20
65.90000000010015
 30
0.0
 11
-3.7527767498995672
 21
72.399999999900032
 31
0.0
  0
LINE
  8
DETAIL
  6
CONTINUOUS
 62
     5
 10
-29.000000000100041
 20
93.900000000000077
 30
0.0
 11
-29.000000000100041
 21
100.8999999999
 31
0.0
  0
LINE
  8
DETAIL
  6
CONTINUOUS
 62
     5
 10
-15.14236052159958
 20
1.6605345768000459
 30
0.0
 11
-16.177636701900159
 21
5.5242378822000564
 31
0.0
  0
LINE
  8
DETAIL
  6
CONTINUOUS
 62
     5
 10
19.00606382640035
 20
2.6958107574001819
 30
0.0
 11
16.177636701900159
 21
5.5242378822000564
 31
0.0
  0
LINE
  8
DETAIL
  6
CONTINUOUS
 62
     5
 10
-3.7527767498995672
 20
72.399999999900032
 30
0.0
 11
3.752776749600343
 21
72.399999999900032
 31
0.0
  0
LINE
  8
DETAIL
  6
CONTINUOUS
 62
     5
 10
-36.172094381099683
 20
90.54418876170007
 30
0.0
 11
-36.172094381099683
 21
93.900000000000077
 31
0.0
  0
LINE
  8
DETAIL
  6
CONTINUOUS
 62
     5
 10
0.0
 20
17.85000000000014
 30
0.0
 11
6.0
 21
14.36846753910004
 31
0.0
  0
LINE
  8
DETAIL
  6
CONTINUOUS
 62
     5
 10
-45.233401596599833
 20
17.838171278699971
 30
0.0
 11
-44.198125416000039
 21
21.701874584099979
 31
0.0
  0
LINE
  8
DETAIL
  6
CONTINUOUS
 62
     5
 10
-38.827905619199562
 20
90.54418876170007
 30
0.0
 11
-38.827905619199562
 21
93.900000000000077
 31
0.0
  0
LINE
  8
DETAIL
  6
CONTINUOUS
 62
     5
 10
-41.500000000200103
 20
93.900000000000077
 30
0.0
 11
-41.500000000200103
 21
100.8999999999
 31
0.0
  0
LINE
  8
DETAIL
  6
CONTINUOUS
 62
     5
 10
0.0
 20
3.950000000100089
 30
0.0
 11
-6.0
 21
7.4315324610001889
 31
0.0
  0
LINE
  8
DETAIL
  6
CONTINUOUS
 62
     5
 10
66.0
 20
93.900000000000077
 30
0.0
 11
53.499999999899963
 21
93.900000000000077
 31
0.0
  0
LINE
  8
DETAIL
  6
CONTINUOUS
 62
     5
 10
41.499999999899963
 20
93.900000000000077
 30
0.0
 11
28.999999999799911
 21
93.900000000000077
 31
0.0
  0
LINE
  8
DETAIL
  6
CONTINUOUS
 62
     5
 10
-29.000000000100041
 20
93.900000000000077
 30
0.0
 11
-41.500000000200103
 21
93.900000000000077
 31
0.0
  0
LINE
  8
DETAIL
  6
CONTINUOUS
 62
     5
 10
-53.500000000200089
 20
93.900000000000077
 30
0.0
 11
-66.0
 21
93.900000000000077
 31
0.0
  0
LINE
  8
DETAIL
  6
CONTINUOUS
 62
     5
 10
-63.204189242699613
 20
46.8939361734001
 30
0.0
 11
-60.37576211790018
 21
49.722363298200086
 31
0.0
  0
LINE
  8
DETAIL
  6
CONTINUOUS
 62
     5
 10
-53.500000000200089
 20
93.900000000000077
 30
0.0
 11
-53.500000000200089
 21
100.8999999999
 31
0.0
  0
LINE
  8
DETAIL
  6
CONTINUOUS
 62
     5
 10
66.0
 20
98.600000000100195
 30
0.0
 11
-66.0
 21
98.600000000100195
 31
0.0
  0
LINE
  8
DETAIL
  6
CONTINUOUS
 62
     5
 10
66.0
 20
100.8999999999
 30
0.0
 11
-66.0
 21
100.8999999999
 31
0.0
  0
LINE
  8
DETAIL
  6
CONTINUOUS
 62
     5
 10
-28.1162831426991
 20
98.600000000100195
 30
0.0
 11
-29.000000000100041
 21
97.716283142400002
 31
0.0
  0
LINE
  8
DETAIL
  6
CONTINUOUS
 62
     5
 10
-32.816283142799882
 20
93.900000000000077
 30
0.0
 11
-36.172094381099683
 21
90.54418876170007
 31
0.0
  0
LINE
  8
DETAIL
  6
CONTINUOUS
 62
     5
 10
-66.0
 20
65.90000000010015
 30
0.0
 11
-66.0
 21
100.8999999999
 31
0.0
  0
LINE
  8
DETAIL
  6
CONTINUOUS
 62
     5
 10
-72.599999999999454
 20
0.0
 30
0.0
 11
-72.599999999999454
 21
136.40000000010011
 31
0.0
  0
LINE
  8
DETAIL
  6
CONTINUOUS
 62
     5
 10
-74.200000000199907
 20
0.2000000001000899
 30
0.0
 11
-74.200000000199907
 21
136.40000000010011
 31
0.0
  0
LINE
  8
DETAIL
  6
CONTINUOUS
 62
     5
 10
-75.0
 20
16.089785753100049
 30
0.0
 11
-75.0
 21
136.40000000010011
 31
0.0
  0
LINE
  8
DETAIL
  6
CONTINUOUS
 62
     5
 10
-77.200000000199907
 20
0.2000000001000899
 30
0.0
 11
-77.200000000199907
 21
13.19999999999993
 31
0.0
  0
LINE
  8
DETAIL
  6
CONTINUOUS
 62
     5
 10
75.0
 20
136.40000000010011
 30
0.0
 11
-75.0
 21
136.40000000010011
 31
0.0
  0
ARC
  8
DETAIL
  6
CONTINUOUS
 62
     5
 10
72.60000000000035
 20
0.999999999900183
 30
0.0
 40
1.5999999999000001
 50
321.28684863439167
 51
0.0
  0
ARC
  8
DETAIL
  6
CONTINUOUS
 62
     5
 10
49.846928286900052
 20
42.65599560420015
 30
0.0
 40
3.9999999999
 50
125.2831000671155
 51
184.7168999329003
  0
ARC
  8
DETAIL
  6
CONTINUOUS
 62
     5
 10
47.631397208099777
 20
38.400000000000098
 30
0.0
 40
3.9999999999
 50
120.2831000670984
 51
179.71689993290161
  0
ARC
  8
DETAIL
  6
CONTINUOUS
 62
     5
 10
45.053362435799507
 20
34.353296000700077
 30
0.0
 40
3.9999999999
 50
115.2831000670872
 51
174.71689993290309
  0
ARC
  8
DETAIL
  6
CONTINUOUS
 62
     5
 10
45.053362435799507
 20
34.353296000700077
 30
0.0
 40
3.9999999999
 50
290.28310006709847
 51
359.71689993290158
  0
ARC
  8
DETAIL
  6
CONTINUOUS
 62
     5
 10
47.631397208099777
 20
38.400000000000098
 30
0.0
 40
3.9999999999
 50
295.28310006711632
 51
4.7168999329002599
  0
ARC
  8
DETAIL
  6
CONTINUOUS
 62
     5
 10
49.846928286900052
 20
42.65599560420015
 30
0.0
 40
3.9999999999
 50
300.2831000670983
 51
9.7168999328978156
  0
ARC
  8
DETAIL
  6
CONTINUOUS
 62
     5
 10
57.15767664960002
 20
32.900000000100142
 30
0.0
 40
2.0000000001
 50
60.868151090297097
 51
239.13184890979679
  0
ARC
  8
DETAIL
  6
CONTINUOUS
 62
     5
 10
45.362168999699861
 20
42.28594947720012
 30
0.0
 40
0.5000000001
 50
300.2831000670983
 51
4.7168999329002599
  0
ARC
  8
DETAIL
  6
CONTINUOUS
 62
     5
 10
46.613327923500037
 20
30.132335484600048
 30
0.0
 40
0.5000000001
 50
110.2831000670986
 51
174.71689993290309
  0
ARC
  8
DETAIL
  6
CONTINUOUS
 62
     5
 10
49.553307504899749
 20
34.33106146380009
 30
0.0
 40
0.5000000001
 50
115.2831000670872
 51
179.71689993290161
  0
ARC
  8
DETAIL
  6
CONTINUOUS
 62
     5
 10
52.11615649529994
 20
38.7700461270001
 30
0.0
 40
0.5000000001
 50
120.2831000670984
 51
184.7168999329003
  0
ARC
  8
DETAIL
  6
CONTINUOUS
 62
     5
 10
54.282370065900068
 20
43.415506120800053
 30
0.0
 40
0.5000000001
 50
125.2831000671155
 51
189.7168999328978
  0
ARC
  8
DETAIL
  6
CONTINUOUS
 62
     5
 10
31.546703999099918
 20
20.84663756399992
 30
0.0
 40
3.9999999999
 50
95.283100067103405
 51
154.71689993289101
  0
ARC
  8
DETAIL
  6
CONTINUOUS
 62
     5
 10
27.499999999799911
 20
18.268602791700001
 30
0.0
 40
3.9999999999
 50
90.283100067104911
 51
149.71689993290531
  0
ARC
  8
DETAIL
  6
CONTINUOUS
 62
     5
 10
27.499999999799911
 20
18.268602791700001
 30
0.0
 40
3.9999999999
 50
265.28310006710632
 51
334.71689993289101
  0
ARC
  8
DETAIL
  6
CONTINUOUS
 62
     5
 10
31.546703999099918
 20
20.84663756399992
 30
0.0
 40
3.9999999999
 50
270.28310006710501
 51
339.7168999329117
  0
ARC
  8
DETAIL
  6
CONTINUOUS
 62
     5
 10
33.0
 20
8.7423233502000812
 30
0.0
 40
2.0000000001
 50
30.868151090288691
 51
209.13184890979539
  0
ARC
  8
DETAIL
  6
CONTINUOUS
 62
     5
 10
27.47776546319983
 20
22.76854786110005
 30
0.0
 40
0.5000000001
 50
270.28310006710501
 51
334.71689993289101
  0
ARC
  8
DETAIL
  6
CONTINUOUS
 62
     5
 10
27.129953872799891
 20
13.78384350450006
 30
0.0
 40
0.5000000001
 50
85.283100067106218
 51
149.71689993290531
  0
ARC
  8
DETAIL
  6
CONTINUOUS
 62
     5
 10
31.568938536000129
 20
16.346692494900029
 30
0.0
 40
0.5000000001
 50
90.283100067104911
 51
154.71689993289101
  0
ARC
  8
DETAIL
  6
CONTINUOUS
 62
     5
 10
35.767664515200522
 20
19.286672076300079
 30
0.0
 40
0.5000000001
 50
95.283100067103405
 51
159.7168999329117
  0
ARC
  8
DETAIL
  6
CONTINUOUS
 62
     5
 10
39.694176970200722
 20
22.581407229300108
 30
0.0
 40
0.5000000001
 50
100.2831000671064
 51
164.71689993290741
  0
ARC
  8
DETAIL
  6
CONTINUOUS
 62
     5
 10
42.132444371400197
 20
30.546681467099919
 30
0.0
 40
3.9999999999
 50
110.2831000670986
 51
169.71689993289709
  0
ARC
  8
DETAIL
  6
CONTINUOUS
 62
     5
 10
38.890872965100243
 20
27.00912703469999
 30
0.0
 40
3.9999999999
 50
105.2831000671127
 51
164.71689993290741
  0
ARC
  8
DETAIL
  6
CONTINUOUS
 62
     5
 10
35.353318532699632
 20
23.767555628400029
 30
0.0
 40
3.9999999999
 50
100.2831000671064
 51
159.7168999329117
  0
ARC
  8
DETAIL
  6
CONTINUOUS
 62
     5
 10
35.353318532699632
 20
23.767555628400029
 30
0.0
 40
3.9999999999
 50
275.28310006710342
 51
344.71689993290738
  0
ARC
  8
DETAIL
  6
CONTINUOUS
 62
     5
 10
38.890872965100243
 20
27.00912703469999
 30
0.0
 40
3.9999999999
 50
280.28310006710632
 51
349.71689993289698
  0
ARC
  8
DETAIL
  6
CONTINUOUS
 62
     5
 10
42.132444371400197
 20
30.546681467099919
 30
0.0
 40
3.9999999999
 50
285.28310006711268
 51
354.71689993290312
  0
ARC
  8
DETAIL
  6
CONTINUOUS
 62
     5
 10
43.131452138999521
 20
38.422234536900078
 30
0.0
 40
0.5000000001
 50
295.28310006711632
 51
359.71689993290158
  0
ARC
  8
DETAIL
  6
CONTINUOUS
 62
     5
 10
40.572478883700569
 20
34.767641983199951
 30
0.0
 40
0.5000000001
 50
290.28310006709847
 51
354.71689993290312
  0
ARC
  8
DETAIL
  6
CONTINUOUS
 62
     5
 10
37.70472456600055
 20
31.34998547220016
 30
0.0
 40
0.5000000001
 50
285.28310006711268
 51
349.71689993289698
  0
ARC
  8
DETAIL
  6
CONTINUOUS
 62
     5
 10
34.550014527600069
 20
28.19527543379991
 30
0.0
 40
0.5000000001
 50
280.28310006710632
 51
344.71689993290738
  0
ARC
  8
DETAIL
  6
CONTINUOUS
 62
     5
 10
31.132358016599941
 20
25.327521116100002
 30
0.0
 40
0.5000000001
 50
275.28310006710342
 51
339.7168999329117
  0
ARC
  8
DETAIL
  6
CONTINUOUS
 62
     5
 10
43.31859277049989
 20
26.205823029599969
 30
0.0
 40
0.5000000001
 50
105.2831000671127
 51
169.71689993289709
  0
ARC
  8
DETAIL
  6
CONTINUOUS
 62
     5
 10
23.24400439560031
 20
16.05307171289996
 30
0.0
 40
3.9999999999
 50
85.283100067106218
 51
144.71689993291159
  0
ARC
  8
DETAIL
  6
CONTINUOUS
 62
     5
 10
18.811107882900611
 20
14.216905856700009
 30
0.0
 40
3.9999999999
 50
80.283100067089066
 51
139.7168999328853
  0
ARC
  8
DETAIL
  6
CONTINUOUS
 62
     5
 10
14.235047480400681
 20
12.77407955400008
 30
0.0
 40
3.9999999999
 50
75.2831000671098
 51
134.71689993290781
  0
ARC
  8
DETAIL
  6
CONTINUOUS
 62
     5
 10
9.5506497716996819
 20
11.73557358419998
 30
0.0
 40
3.9999999999
 50
70.28310006708783
 51
129.71689993289519
  0
ARC
  8
DETAIL
  6
CONTINUOUS
 62
     5
 10
4.7935658510996291
 20
11.10929160480009
 30
0.0
 40
3.9999999999
 50
65.283100067092406
 51
90.975837867815187
  0
ARC
  8
DETAIL
  6
CONTINUOUS
 62
     5
 10
4.7935658510996291
 20
11.10929160480009
 30
0.0
 40
3.9999999999
 50
281.44462024869222
 51
309.71689993289522
  0
ARC
  8
DETAIL
  6
CONTINUOUS
 62
     5
 10
9.5506497716996819
 20
11.73557358419998
 30
0.0
 40
3.9999999999
 50
245.28310006709239
 51
314.71689993290772
  0
ARC
  8
DETAIL
  6
CONTINUOUS
 62
     5
 10
14.235047480400681
 20
12.77407955400008
 30
0.0
 40
3.9999999999
 50
250.28310006708779
 51
319.71689993288533
  0
ARC
  8
DETAIL
  6
CONTINUOUS
 62
     5
 10
18.811107882900611
 20
14.216905856700009
 30
0.0
 40
3.9999999999
 50
255.28310006710981
 51
324.7168999329125
  0
ARC
  8
DETAIL
  6
CONTINUOUS
 62
     5
 10
23.24400439560031
 20
16.05307171289996
 30
0.0
 40
3.9999999999
 50
260.28310006708909
 51
329.71689993290892
  0
ARC
  8
DETAIL
  6
CONTINUOUS
 62
     5
 10
23.614050522899561
 20
20.537831000100031
 30
0.0
 40
0.5000000001
 50
265.28310006710632
 51
329.71689993290892
  0
ARC
  8
DETAIL
  6
CONTINUOUS
 62
     5
 10
19.570618399500741
 20
18.652347635699929
 30
0.0
 40
0.5000000001
 50
260.28310006708909
 51
324.7168999329125
  0
ARC
  8
DETAIL
  6
CONTINUOUS
 62
     5
 10
15.37824205290053
 20
17.12644743479996
 30
0.0
 40
0.5000000001
 50
255.28310006710981
 51
319.71689993288533
  0
ARC
  8
DETAIL
  6
CONTINUOUS
 62
     5
 10
11.06882799900086
 20
15.971743419299971
 30
0.0
 40
0.5000000001
 50
250.28310006708779
 51
314.71689993290772
  0
ARC
  8
DETAIL
  6
CONTINUOUS
 62
     5
 10
6.6751734801000566
 20
15.1970235837
 30
0.0
 40
0.5000000001
 50
245.28310006709239
 51
309.71689993289522
  0
ARC
  8
DETAIL
  6
CONTINUOUS
 62
     5
 10
7.669042142400941
 20
7.6478416055999778
 30
0.0
 40
0.5000000001
 50
65.283100067092406
 51
129.71689993289519
  0
ARC
  8
DETAIL
  6
CONTINUOUS
 62
     5
 10
12.716869253100411
 20
8.5379097192000017
 30
0.0
 40
0.5000000001
 50
70.28310006708783
 51
134.71689993290781
  0
ARC
  8
DETAIL
  6
CONTINUOUS
 62
     5
 10
17.66791331040076
 20
9.8645379759000189
 30
0.0
 40
0.5000000001
 50
75.2831000671098
 51
139.7168999328853
  0
ARC
  8
DETAIL
  6
CONTINUOUS
 62
     5
 10
22.48449387900018
 20
11.61762993390016
 30
0.0
 40
0.5000000001
 50
80.283100067089066
 51
144.71689993291159
  0
ARC
  8
DETAIL
  6
CONTINUOUS
 62
     5
 10
51.683094143099879
 20
47.08889211690007
 30
0.0
 40
3.9999999999
 50
305.28310006711553
 51
14.716899932904051
  0
ARC
  8
DETAIL
  6
CONTINUOUS
 62
     5
 10
53.125920445800148
 20
51.664952519400003
 30
0.0
 40
3.9999999999
 50
310.28310006711013
 51
19.716899932901871
  0
ARC
  8
DETAIL
  6
CONTINUOUS
 62
     5
 10
54.164426415600261
 20
56.349350228399999
 30
0.0
 40
3.9999999999
 50
315.28310006709108
 51
24.71689993289452
  0
ARC
  8
DETAIL
  6
CONTINUOUS
 62
     5
 10
54.790708395000372
 20
61.106434148700153
 30
0.0
 40
3.9999999999
 50
320.28310006709683
 51
29.716899932888129
  0
ARC
  8
DETAIL
  6
CONTINUOUS
 62
     5
 10
54.999999999899963
 20
65.90000000010015
 30
0.0
 40
3.9999999999
 50
325.2831000670908
 51
209.5200483600384
  0
ARC
  8
DETAIL
  6
CONTINUOUS
 62
     5
 10
54.790708395000372
 20
61.106434148700153
 30
0.0
 40
3.9999999999
 50
145.2831000670908
 51
204.71689993289451
  0
ARC
  8
DETAIL
  6
CONTINUOUS
 62
     5
 10
54.164426415600261
 20
56.349350228399999
 30
0.0
 40
3.9999999999
 50
140.28310006709671
 51
199.71689993290201
  0
ARC
  8
DETAIL
  6
CONTINUOUS
 62
     5
 10
53.125920445800148
 20
51.664952519400003
 30
0.0
 40
3.9999999999
 50
135.28310006709111
 51
194.716899932904
  0
ARC
  8
DETAIL
  6
CONTINUOUS
 62
     5
 10
51.683094143099879
 20
47.08889211690007
 30
0.0
 40
3.9999999999
 50
130.28310006711021
 51
189.7168999328978
  0
ARC
  8
DETAIL
  6
CONTINUOUS
 62
     5
 10
56.035462023900443
 20
48.232086689400148
 30
0.0
 40
0.5000000001
 50
130.28310006711021
 51
194.716899932904
  0
ARC
  8
DETAIL
  6
CONTINUOUS
 62
     5
 10
57.362090280600569
 20
53.183130746700037
 30
0.0
 40
0.5000000001
 50
135.28310006709111
 51
199.71689993290201
  0
ARC
  8
DETAIL
  6
CONTINUOUS
 62
     5
 10
58.252158394199803
 20
58.230957857400092
 30
0.0
 40
0.5000000001
 50
140.28310006709671
 51
204.71689993289451
  0
ARC
  8
DETAIL
  6
CONTINUOUS
 62
     5
 10
58.69889240880002
 20
63.337151009700158
 30
0.0
 40
0.5000000001
 50
145.2831000670908
 51
209.71689993288811
  0
ARC
  8
DETAIL
  6
CONTINUOUS
 62
     5
 10
51.091815986099377
 20
63.669283139100003
 30
0.0
 40
0.5000000001
 50
325.2831000670908
 51
29.716899932888129
  0
ARC
  8
DETAIL
  6
CONTINUOUS
 62
     5
 10
50.70297641609978
 20
59.224826519700173
 30
0.0
 40
0.5000000001
 50
320.28310006709683
 51
24.71689993289452
  0
ARC
  8
DETAIL
  6
CONTINUOUS
 62
     5
 10
49.928256580799832
 20
54.831172000800038
 30
0.0
 40
0.5000000001
 50
315.28310006709108
 51
19.716899932901871
  0
ARC
  8
DETAIL
  6
CONTINUOUS
 62
     5
 10
48.773552565000493
 20
50.521757946900053
 30
0.0
 40
0.5000000001
 50
310.28310006711013
 51
14.716899932904051
  0
ARC
  8
DETAIL
  6
CONTINUOUS
 62
     5
 10
47.247652364099856
 20
46.329381600300167
 30
0.0
 40
0.5000000001
 50
305.28310006711553
 51
9.7168999328978156
  0
ARC
  8
DETAIL
  6
CONTINUOUS
 62
     5
 10
0.0
 20
-0.0999999998999783
 30
0.0
 40
2.0000000001
 50
2.881245407102353
 51
177.1187545928976
  0
ARC
  8
DETAIL
  6
CONTINUOUS
 62
     5
 10
-4.7935658510996291
 20
11.10929160480009
 30
0.0
 40
3.9999999999
 50
89.024162132184813
 51
114.71689993290759
  0
ARC
  8
DETAIL
  6
CONTINUOUS
 62
     5
 10
-9.5506497716996819
 20
11.73557358419998
 30
0.0
 40
3.9999999999
 50
50.28310006710479
 51
109.7168999329122
  0
ARC
  8
DETAIL
  6
CONTINUOUS
 62
     5
 10
-14.235047480699
 20
12.77407955400008
 30
0.0
 40
3.9999999999
 50
45.283100067092249
 51
104.7168999328902
  0
ARC
  8
DETAIL
  6
CONTINUOUS
 62
     5
 10
-18.811107882900611
 20
14.216905856700009
 30
0.0
 40
3.9999999999
 50
40.283100067114738
 51
99.71689993291092
  0
ARC
  8
DETAIL
  6
CONTINUOUS
 62
     5
 10
-23.244004395899541
 20
16.05307171289996
 30
0.0
 40
3.9999999999
 50
35.283100067088448
 51
94.716899932893767
  0
ARC
  8
DETAIL
  6
CONTINUOUS
 62
     5
 10
-23.244004395899541
 20
16.05307171289996
 30
0.0
 40
3.9999999999
 50
210.28310006709469
 51
279.71689993291091
  0
ARC
  8
DETAIL
  6
CONTINUOUS
 62
     5
 10
-18.811107882900611
 20
14.216905856700009
 30
0.0
 40
3.9999999999
 50
215.2831000670875
 51
284.71689993289021
  0
ARC
  8
DETAIL
  6
CONTINUOUS
 62
     5
 10
-14.235047480699
 20
12.77407955400008
 30
0.0
 40
3.9999999999
 50
220.2831000671147
 51
289.71689993291221
  0
ARC
  8
DETAIL
  6
CONTINUOUS
 62
     5
 10
-9.5506497716996819
 20
11.73557358419998
 30
0.0
 40
3.9999999999
 50
225.28310006709219
 51
294.71689993290772
  0
ARC
  8
DETAIL
  6
CONTINUOUS
 62
     5
 10
-4.7935658510996291
 20
11.10929160480009
 30
0.0
 40
3.9999999999
 50
230.28310006710481
 51
258.55537975130778
  0
ARC
  8
DETAIL
  6
CONTINUOUS
 62
     5
 10
-6.6751734804001899
 20
15.1970235837
 30
0.0
 40
0.5000000001
 50
230.28310006710481
 51
294.71689993290772
  0
ARC
  8
DETAIL
  6
CONTINUOUS
 62
     5
 10
-11.06882799930008
 20
15.971743419299971
 30
0.0
 40
0.5000000001
 50
225.28310006709219
 51
289.71689993291221
  0
ARC
  8
DETAIL
  6
CONTINUOUS
 62
     5
 10
-15.378242053199759
 20
17.12644743479996
 30
0.0
 40
0.5000000001
 50
220.2831000671147
 51
284.71689993289021
  0
ARC
  8
DETAIL
  6
CONTINUOUS
 62
     5
 10
-19.570618399799969
 20
18.652347635699929
 30
0.0
 40
0.5000000001
 50
215.2831000670875
 51
279.71689993291091
  0
ARC
  8
DETAIL
  6
CONTINUOUS
 62
     5
 10
-22.484493879299411
 20
11.61762993390016
 30
0.0
 40
0.5000000001
 50
35.283100067088448
 51
99.71689993291092
  0
ARC
  8
DETAIL
  6
CONTINUOUS
 62
     5
 10
-17.667913310699991
 20
9.8645379759000189
 30
0.0
 40
0.5000000001
 50
40.283100067114738
 51
104.7168999328902
  0
ARC
  8
DETAIL
  6
CONTINUOUS
 62
     5
 10
-12.71686925339964
 20
8.5379097192000017
 30
0.0
 40
0.5000000001
 50
45.283100067092249
 51
109.7168999329122
  0
ARC
  8
DETAIL
  6
CONTINUOUS
 62
     5
 10
-7.6690421427001629
 20
7.6478416055999778
 30
0.0
 40
0.5000000001
 50
50.28310006710479
 51
114.71689993290759
  0
ARC
  8
DETAIL
  6
CONTINUOUS
 62
     5
 10
-27.500000000100041
 20
18.268602791700001
 30
0.0
 40
3.9999999999
 50
30.283100067094701
 51
89.716899932895089
  0
ARC
  8
DETAIL
  6
CONTINUOUS
 62
     5
 10
-31.546703999400052
 20
20.84663756399992
 30
0.0
 40
3.9999999999
 50
25.28310006710905
 51
84.716899932896567
  0
ARC
  8
DETAIL
  6
CONTINUOUS
 62
     5
 10
-31.546703999400052
 20
20.84663756399992
 30
0.0
 40
3.9999999999
 50
200.2831000670883
 51
269.71689993289499
  0
ARC
  8
DETAIL
  6
CONTINUOUS
 62
     5
 10
-27.500000000100041
 20
18.268602791700001
 30
0.0
 40
3.9999999999
 50
205.28310006710899
 51
274.71689993289368
  0
ARC
  8
DETAIL
  6
CONTINUOUS
 62
     5
 10
-33.0
 20
8.7423233502000812
 30
0.0
 40
2.0000000001
 50
330.86815109020461
 51
149.13184890971129
  0
ARC
  8
DETAIL
  6
CONTINUOUS
 62
     5
 10
-23.614050522899561
 20
20.537831000100031
 30
0.0
 40
0.5000000001
 50
210.28310006709469
 51
274.71689993289368
  0
ARC
  8
DETAIL
  6
CONTINUOUS
 62
     5
 10
-35.76766451549976
 20
19.286672076300079
 30
0.0
 40
0.5000000001
 50
20.283100067088291
 51
84.716899932896567
  0
ARC
  8
DETAIL
  6
CONTINUOUS
 62
     5
 10
-31.568938536300269
 20
16.346692494900029
 30
0.0
 40
0.5000000001
 50
25.28310006710905
 51
89.716899932895089
  0
ARC
  8
DETAIL
  6
CONTINUOUS
 62
     5
 10
-27.129953873100021
 20
13.78384350450006
 30
0.0
 40
0.5000000001
 50
30.283100067094701
 51
94.716899932893767
  0
ARC
  8
DETAIL
  6
CONTINUOUS
 62
     5
 10
-35.353318532999772
 20
23.767555628400029
 30
0.0
 40
3.9999999999
 50
20.283100067088291
 51
79.716899932893583
  0
ARC
  8
DETAIL
  6
CONTINUOUS
 62
     5
 10
-38.890872965399467
 20
27.00912703469999
 30
0.0
 40
3.9999999999
 50
15.283100067092571
 51
74.716899932887273
  0
ARC
  8
DETAIL
  6
CONTINUOUS
 62
     5
 10
-42.132444371700331
 20
30.546681467099919
 30
0.0
 40
3.9999999999
 50
10.28310006710292
 51
69.716899932901427
  0
ARC
  8
DETAIL
  6
CONTINUOUS
 62
     5
 10
-42.132444371700331
 20
30.546681467099919
 30
0.0
 40
3.9999999999
 50
185.28310006709691
 51
254.71689993288729
  0
ARC
  8
DETAIL
  6
CONTINUOUS
 62
     5
 10
-38.890872965399467
 20
27.00912703469999
 30
0.0
 40
3.9999999999
 50
190.28310006710291
 51
259.71689993289368
  0
ARC
  8
DETAIL
  6
CONTINUOUS
 62
     5
 10
-35.353318532999772
 20
23.767555628400029
 30
0.0
 40
3.9999999999
 50
195.28310006709259
 51
264.71689993289658
  0
ARC
  8
DETAIL
  6
CONTINUOUS
 62
     5
 10
-27.47776546319983
 20
22.76854786110005
 30
0.0
 40
0.5000000001
 50
205.28310006710899
 51
269.71689993289499
  0
ARC
  8
DETAIL
  6
CONTINUOUS
 62
     5
 10
-31.132358016900071
 20
25.327521116100002
 30
0.0
 40
0.5000000001
 50
200.2831000670883
 51
264.71689993289658
  0
ARC
  8
DETAIL
  6
CONTINUOUS
 62
     5
 10
-34.550014527899293
 20
28.19527543379991
 30
0.0
 40
0.5000000001
 50
195.28310006709259
 51
259.71689993289368
  0
ARC
  8
DETAIL
  6
CONTINUOUS
 62
     5
 10
-37.704724566299767
 20
31.34998547220016
 30
0.0
 40
0.5000000001
 50
190.28310006710291
 51
254.71689993288729
  0
ARC
  8
DETAIL
  6
CONTINUOUS
 62
     5
 10
-40.572478883999793
 20
34.767641983199951
 30
0.0
 40
0.5000000001
 50
185.28310006709691
 51
249.71689993290141
  0
ARC
  8
DETAIL
  6
CONTINUOUS
 62
     5
 10
-39.694176970499932
 20
22.581407229300108
 30
0.0
 40
0.5000000001
 50
15.283100067092571
 51
79.716899932893583
  0
ARC
  8
DETAIL
  6
CONTINUOUS
 62
     5
 10
-72.599999999999454
 20
0.999999999900183
 30
0.0
 40
1.5999999999000001
 50
180.0
 51
218.6821874517789
  0
ARC
  8
DETAIL
  6
CONTINUOUS
 62
     5
 10
-72.599999999999454
 20
0.999999999900183
 30
0.0
 40
0.8000000001000001
 50
180.0
 51
270.0
  0
ARC
  8
DETAIL
  6
CONTINUOUS
 62
     5
 10
-45.053362436099633
 20
34.353296000700077
 30
0.0
 40
3.9999999999
 50
5.2831000670969424
 51
64.716899932912824
  0
ARC
  8
DETAIL
  6
CONTINUOUS
 62
     5
 10
-47.631397208399903
 20
38.400000000000098
 30
0.0
 40
3.9999999999
 50
0.2831000670984117
 51
59.716899932901683
  0
ARC
  8
DETAIL
  6
CONTINUOUS
 62
     5
 10
-49.846928287200171
 20
42.65599560420015
 30
0.0
 40
3.9999999999
 50
355.28310006709978
 51
54.716899932884488
  0
ARC
  8
DETAIL
  6
CONTINUOUS
 62
     5
 10
-49.846928287200171
 20
42.65599560420015
 30
0.0
 40
3.9999999999
 50
170.2831000671022
 51
239.71689993290161
  0
ARC
  8
DETAIL
  6
CONTINUOUS
 62
     5
 10
-47.631397208399903
 20
38.400000000000098
 30
0.0
 40
3.9999999999
 50
175.28310006709981
 51
244.7168999329129
  0
ARC
  8
DETAIL
  6
CONTINUOUS
 62
     5
 10
-45.053362436099633
 20
34.353296000700077
 30
0.0
 40
3.9999999999
 50
180.28310006709839
 51
249.71689993290141
  0
ARC
  8
DETAIL
  6
CONTINUOUS
 62
     5
 10
-74.200000000199907
 20
13.19999999999993
 30
0.0
 40
3.0
 50
90.0
 51
180.0
  0
ARC
  8
DETAIL
  6
CONTINUOUS
 62
     5
 10
-57.157676649900168
 20
32.900000000100142
 30
0.0
 40
2.0000000001
 50
300.86815109029459
 51
119.1318489097918
  0
ARC
  8
DETAIL
  6
CONTINUOUS
 62
     5
 10
-43.131452138999521
 20
38.422234536900078
 30
0.0
 40
0.5000000001
 50
180.28310006709839
 51
244.7168999329129
  0
ARC
  8
DETAIL
  6
CONTINUOUS
 62
     5
 10
-45.362168999999987
 20
42.28594947720012
 30
0.0
 40
0.5000000001
 50
175.28310006709981
 51
239.71689993290161
  0
ARC
  8
DETAIL
  6
CONTINUOUS
 62
     5
 10
-54.282370066199292
 20
43.415506120800053
 30
0.0
 40
0.5000000001
 50
350.28310006710228
 51
54.716899932884488
  0
ARC
  8
DETAIL
  6
CONTINUOUS
 62
     5
 10
-52.11615649529994
 20
38.7700461270001
 30
0.0
 40
0.5000000001
 50
355.28310006709978
 51
59.716899932901683
  0
ARC
  8
DETAIL
  6
CONTINUOUS
 62
     5
 10
-49.553307505198973
 20
34.33106146380009
 30
0.0
 40
0.5000000001
 50
0.2831000670984117
 51
64.716899932912824
  0
ARC
  8
DETAIL
  6
CONTINUOUS
 62
     5
 10
-46.613327923800171
 20
30.132335484600048
 30
0.0
 40
0.5000000001
 50
5.2831000670969424
 51
69.716899932901427
  0
ARC
  8
DETAIL
  6
CONTINUOUS
 62
     5
 10
-43.318592770800016
 20
26.205823029599969
 30
0.0
 40
0.5000000001
 50
10.28310006710292
 51
74.716899932887273
  0
ARC
  8
DETAIL
  6
CONTINUOUS
 62
     5
 10
0.0
 20
65.90000000010015
 30
0.0
 40
66.0
 50
316.73650157591248
 51
328.26369781951189
  0
ARC
  8
DETAIL
  6
CONTINUOUS
 62
     5
 10
0.0
 20
65.90000000010015
 30
0.0
 40
66.0
 50
301.73630218048811
 51
313.26349842409212
  0
ARC
  8
DETAIL
  6
CONTINUOUS
 62
     5
 10
0.0
 20
65.90000000010015
 30
0.0
 40
66.0
 50
286.73650157591362
 51
298.26369781950473
  0
ARC
  8
DETAIL
  6
CONTINUOUS
 62
     5
 10
0.0
 20
65.90000000010015
 30
0.0
 40
66.0
 50
273.02203420100489
 51
283.26349842409252
  0
ARC
  8
DETAIL
  6
CONTINUOUS
 62
     5
 10
0.0
 20
65.90000000010015
 30
0.0
 40
66.0
 50
256.73650157590748
 51
266.97806004609532
  0
ARC
  8
DETAIL
  6
CONTINUOUS
 62
     5
 10
0.0
 20
65.90000000010015
 30
0.0
 40
66.0
 50
241.73630218049519
 51
253.26349842408641
  0
ARC
  8
DETAIL
  6
CONTINUOUS
 62
     5
 10
0.0
 20
65.90000000010015
 30
0.0
 40
66.0
 50
226.73650157590791
 51
238.263697819512
  0
ARC
  8
DETAIL
  6
CONTINUOUS
 62
     5
 10
0.0
 20
65.90000000010015
 30
0.0
 40
66.0
 50
211.73630218048811
 51
223.26349842408629
  0
ARC
  8
DETAIL
  6
CONTINUOUS
 62
     5
 10
0.0
 20
65.90000000010015
 30
0.0
 40
66.0
 50
196.7365015758987
 51
208.26369781949671
  0
ARC
  8
DETAIL
  6
CONTINUOUS
 62
     5
 10
0.0
 20
65.90000000010015
 30
0.0
 40
66.0
 50
180.0
 51
193.26349842409911
  0
ARC
  8
DETAIL
  6
CONTINUOUS
 62
     5
 10
0.0
 20
65.90000000010015
 30
0.0
 40
66.0
 50
346.73650157590077
 51
0.0
  0
ARC
  8
DETAIL
  6
CONTINUOUS
 62
     5
 10
0.0
 20
65.90000000010015
 30
0.0
 40
66.0
 50
331.73630218050329
 51
343.26349842410127
  0
CIRCLE
  8
DETAIL
  6
CONTINUOUS
 62
     5
 10
0.0
 20
65.90000000010015
 30
0.0
 40
11.0000000001
  0
CIRCLE
  8
DETAIL
  6
CONTINUOUS
 62
     5
 10
0.0
 20
65.90000000010015
 30
0.0
 40
6.5000000001
  0
CIRCLE
  8
DETAIL
  6
CONTINUOUS
 62
     5
 10
0.0
 20
65.90000000010015
 30
0.0
 40
5.0000000001
  0
CIRCLE
  8
DETAIL
  6
CONTINUOUS
 62
     5
 10
0.0
 20
65.90000000010015
 30
0.0
 40
3.9999999999
  0
ARC
  8
DETAIL
  6
CONTINUOUS
 62
     5
 10
-51.683094143400012
 20
47.08889211690007
 30
0.0
 40
3.9999999999
 50
350.28310006710228
 51
49.716899932889859
  0
ARC
  8
DETAIL
  6
CONTINUOUS
 62
     5
 10
-53.125920446100281
 20
51.664952519400003
 30
0.0
 40
3.9999999999
 50
345.28310006709597
 51
44.716899932908909
  0
ARC
  8
DETAIL
  6
CONTINUOUS
 62
     5
 10
-54.16442641589947
 20
56.349350228399999
 30
0.0
 40
3.9999999999
 50
340.28310006709802
 51
39.716899932903353
  0
ARC
  8
DETAIL
  6
CONTINUOUS
 62
     5
 10
-54.790708395299603
 20
61.106434148700153
 30
0.0
 40
3.9999999999
 50
335.28310006710842
 51
34.716899932909193
  0
ARC
  8
DETAIL
  6
CONTINUOUS
 62
     5
 10
-55.000000000200089
 20
65.90000000010015
 30
0.0
 40
3.9999999999
 50
330.28310006711189
 51
214.6766685162157
  0
ARC
  8
DETAIL
  6
CONTINUOUS
 62
     5
 10
-54.790708395299603
 20
61.106434148700153
 30
0.0
 40
3.9999999999
 50
150.28310006711189
 51
219.71689993290329
  0
ARC
  8
DETAIL
  6
CONTINUOUS
 62
     5
 10
-54.16442641589947
 20
56.349350228399999
 30
0.0
 40
3.9999999999
 50
155.28310006710331
 51
224.71689993290889
  0
ARC
  8
DETAIL
  6
CONTINUOUS
 62
     5
 10
-53.125920446100281
 20
51.664952519400003
 30
0.0
 40
3.9999999999
 50
160.2831000670981
 51
229.71689993288979
  0
ARC
  8
DETAIL
  6
CONTINUOUS
 62
     5
 10
-51.683094143400012
 20
47.08889211690007
 30
0.0
 40
3.9999999999
 50
165.283100067096
 51
234.7168999328845
  0
ARC
  8
DETAIL
  6
CONTINUOUS
 62
     5
 10
-47.247652364399983
 20
46.329381600300167
 30
0.0
 40
0.5000000001
 50
170.2831000671022
 51
234.7168999328845
  0
ARC
  8
DETAIL
  6
CONTINUOUS
 62
     5
 10
-48.773552565300633
 20
50.521757946900053
 30
0.0
 40
0.5000000001
 50
165.283100067096
 51
229.71689993288979
  0
ARC
  8
DETAIL
  6
CONTINUOUS
 62
     5
 10
-49.928256580798923
 20
54.831172000800038
 30
0.0
 40
0.5000000001
 50
160.2831000670981
 51
224.71689993290889
  0
ARC
  8
DETAIL
  6
CONTINUOUS
 62
     5
 10
-50.702976416399913
 20
59.224826519700173
 30
0.0
 40
0.5000000001
 50
155.28310006710331
 51
219.71689993290329
  0
ARC
  8
DETAIL
  6
CONTINUOUS
 62
     5
 10
-51.091815986099377
 20
63.669283139100003
 30
0.0
 40
0.5000000001
 50
150.28310006711189
 51
214.7168999329092
  0
ARC
  8
DETAIL
  6
CONTINUOUS
 62
     5
 10
-58.698892409100146
 20
63.337151009700158
 30
0.0
 40
0.5000000001
 50
330.28310006720523
 51
34.716899932909193
  0
ARC
  8
DETAIL
  6
CONTINUOUS
 62
     5
 10
-58.252158394499929
 20
58.230957857400092
 30
0.0
 40
0.5000000001
 50
335.28310006710842
 51
39.716899932903353
  0
ARC
  8
DETAIL
  6
CONTINUOUS
 62
     5
 10
-57.362090280899793
 20
53.183130746700037
 30
0.0
 40
0.5000000001
 50
340.28310006709802
 51
44.716899932908909
  0
ARC
  8
DETAIL
  6
CONTINUOUS
 62
     5
 10
-56.03546202419966
 20
48.232086689400148
 30
0.0
 40
0.5000000001
 50
345.28310006709597
 51
49.716899932889859
  0
ARC
  8
DETAIL
  6
CONTINUOUS
 62
     5
 10
-37.18928023545908
 20
92.175621465063216
 30
0.0
 40
2.3122858415575771
 50
224.8739748456693
 51
234.60463928544411
  0
ARC
  8
DETAIL
  6
CONTINUOUS
 62
     5
 10
-37.478499260063899
 20
91.723905633473649
 30
0.0
 40
1.77672692519692
 50
233.77014180355621
 51
269.30662855036002
  0
ARC
  8
DETAIL
  6
CONTINUOUS
 62
     5
 10
-37.521500739936087
 20
91.723905633473649
 30
0.0
 40
1.7767269251969191
 50
270.69337144963998
 51
306.22985819644367
  0
ARC
  8
DETAIL
  6
CONTINUOUS
 62
     5
 10
-37.062896726982963
 20
91.292591446457962
 30
0.0
 40
1.1634583783556229
 50
300.55649867495828
 51
319.96488719523762
  0
ARC
  8
DETAIL
  6
CONTINUOUS
 62
     5
 10
37.81071976454092
 20
92.175621465063216
 30
0.0
 40
2.3122858415575771
 50
224.8739748456693
 51
234.60463928544411
  0
ARC
  8
DETAIL
  6
CONTINUOUS
 62
     5
 10
37.521500739936087
 20
91.723905633473649
 30
0.0
 40
1.77672692519692
 50
233.77014180355621
 51
269.30662855036002
  0
ARC
  8
DETAIL
  6
CONTINUOUS
 62
     5
 10
37.478499260063899
 20
91.723905633473649
 30
0.0
 40
1.7767269251969191
 50
270.69337144963998
 51
306.22985819644367
  0
ARC
  8
DETAIL
  6
CONTINUOUS
 62
     5
 10
37.937103273017037
 20
91.292591446457962
 30
0.0
 40
1.1634583783556229
 50
300.55649867495828
 51
319.96488719523762
  0
LINE
  8
BASIS
  6
DASHDOT
 62
     6
 10
0.0
 20
179.56055252652411
 30
0.0
 11
0.0
 21
-63.648136088258298
 31
0.0
  0
LINE
  8
NOTE
  6
DASHDOT
 62
     4
 10
47.5
 20
115.0068081101479
 30
0.0
 11
47.5
 21
85.885260033361874
 31
0.0
  0
CIRCLE
  8
FIX
  6
CONTINUOUS
 62
    11
 10
47.5
 20
100.8999999999
 30
0.0
 40
5.0
  0
LINE
  8
NOTE
  6
DASHDOT
 62
     4
 10
-47.5
 20
115.0068081101479
 30
0.0
 11
-47.5
 21
85.885260033361874
 31
0.0
  0
CIRCLE
  8
FIX
  6
CONTINUOUS
 62
    11
 10
-47.5
 20
100.8999999999
 30
0.0
 40
5.0
  0
LINE
  8
SIZE
  6
CONTINUOUS
 62
    30
 10
-41.500000000200103
 20
120.8999999999
 30
0.0
 11
-41.500000000200103
 21
220.2310136258734
 31
0.0
  0
LINE
  8
SIZE
  6
CONTINUOUS
 62
    30
 10
-53.500000000200089
 20
120.8999999999
 30
0.0
 11
-53.500000000200089
 21
220.2310136258734
 31
0.0
  0
LINE
  8
SIZE
  6
CONTINUOUS
 62
    30
 10
-29.500000000200089
 20
200.2310136258734
 30
0.0
 11
-17.500000000200089
 21
200.2310136258734
 31
0.0
  0
LINE
  8
SIZE
  6
CONTINUOUS
 62
    30
 10
-65.500000000200089
 20
200.2310136258734
 30
0.0
 11
-209.78571428591439
 21
200.2310136258734
 31
0.0
  0
LINE
  8
SIZE
  6
CONTINUOUS
 62
    30
 10
-41.500000000200103
 20
200.2310136258734
 30
0.0
 11
-53.500000000200089
 21
200.2310136258734
 31
0.0
  0
CIRCLE
  8
SIZE
  6
CONTINUOUS
 62
    30
 10
-41.500000000200103
 20
200.2310136258734
 30
0.0
 40
6.0
  0
LINE
  8
SIZE
  6
CONTINUOUS
 62
    30
 10
-41.500000000200103
 20
200.2310136258734
 30
0.0
 11
-29.500000000200089
 21
200.2310136258734
 31
0.0
  0
CIRCLE
  8
SIZE
  6
CONTINUOUS
 62
    30
 10
-53.500000000200089
 20
200.2310136258734
 30
0.0
 40
6.0
  0
LINE
  8
SIZE
  6
CONTINUOUS
 62
    30
 10
-53.500000000200089
 20
200.2310136258734
 30
0.0
 11
-65.500000000200089
 21
200.2310136258734
 31
0.0
  0
TEXT
  8
SIZE
  6
CONTINUOUS
 62
    30
 10
-184.78571428591431
 20
225.23101362587349
 30
0.0
 40
64.0
  1
12
 41
0.9
 72
     1
 11
-143.6428571430572
 21
225.23101362587349
 31
0.0
  0
LINE
  8
SIZE
  6
CONTINUOUS
 62
    30
 10
47.5
 20
135.00680811014789
 30
0.0
 11
47.5
 21
316.89673345200441
 31
0.0
  0
LINE
  8
SIZE
  6
CONTINUOUS
 62
    30
 10
-47.5
 20
135.00680811014789
 30
0.0
 11
-47.5
 21
316.89673345200441
 31
0.0
  0
LINE
  8
SIZE
  6
CONTINUOUS
 62
    30
 10
59.5
 20
296.89673345200441
 30
0.0
 11
71.5
 21
296.89673345200441
 31
0.0
  0
LINE
  8
SIZE
  6
CONTINUOUS
 62
    30
 10
-59.5
 20
296.89673345200441
 30
0.0
 11
-71.5
 21
296.89673345200441
 31
0.0
  0
LINE
  8
SIZE
  6
CONTINUOUS
 62
    30
 10
47.5
 20
296.89673345200441
 30
0.0
 11
-47.5
 21
296.89673345200441
 31
0.0
  0
CIRCLE
  8
SIZE
  6
CONTINUOUS
 62
    30
 10
47.5
 20
296.89673345200441
 30
0.0
 40
6.0
  0
LINE
  8
SIZE
  6
CONTINUOUS
 62
    30
 10
47.5
 20
296.89673345200441
 30
0.0
 11
59.5
 21
296.89673345200441
 31
0.0
  0
CIRCLE
  8
SIZE
  6
CONTINUOUS
 62
    30
 10
-47.5
 20
296.89673345200441
 30
0.0
 40
6.0
  0
LINE
  8
SIZE
  6
CONTINUOUS
 62
    30
 10
-47.5
 20
296.89673345200441
 30
0.0
 11
-59.5
 21
296.89673345200441
 31
0.0
  0
TEXT
  8
SIZE
  6
CONTINUOUS
 62
    30
 10
-46.628571428571433
 20
321.89673345200441
 30
0.0
 40
64.0
  1
95
 41
0.9
 72
     1
 11
0.0
 21
321.89673345200441
 31
0.0
  0
LINE
  8
SIZE
  6
CONTINUOUS
 62
    30
 10
66.0
 20
120.8999999999
 30
0.0
 11
66.0
 21
440.05980020911602
 31
0.0
  0
LINE
  8
SIZE
  6
CONTINUOUS
 62
    30
 10
-66.0
 20
120.8999999999
 30
0.0
 11
-66.0
 21
440.05980020911602
 31
0.0
  0
LINE
  8
SIZE
  6
CONTINUOUS
 62
    30
 10
78.0
 20
420.05980020911602
 30
0.0
 11
90.0
 21
420.05980020911602
 31
0.0
  0
LINE
  8
SIZE
  6
CONTINUOUS
 62
    30
 10
-78.0
 20
420.05980020911602
 30
0.0
 11
-90.0
 21
420.05980020911602
 31
0.0
  0
LINE
  8
SIZE
  6
CONTINUOUS
 62
    30
 10
66.0
 20
420.05980020911602
 30
0.0
 11
-66.0
 21
420.05980020911602
 31
0.0
  0
CIRCLE
  8
SIZE
  6
CONTINUOUS
 62
    30
 10
66.0
 20
420.05980020911602
 30
0.0
 40
6.0
  0
LINE
  8
SIZE
  6
CONTINUOUS
 62
    30
 10
66.0
 20
420.05980020911602
 30
0.0
 11
78.0
 21
420.05980020911602
 31
0.0
  0
CIRCLE
  8
SIZE
  6
CONTINUOUS
 62
    30
 10
-66.0
 20
420.05980020911602
 30
0.0
 40
6.0
  0
LINE
  8
SIZE
  6
CONTINUOUS
 62
    30
 10
-66.0
 20
420.05980020911602
 30
0.0
 11
-78.0
 21
420.05980020911602
 31
0.0
  0
TEXT
  8
SIZE
  6
CONTINUOUS
 62
    30
 10
-68.571428571428569
 20
445.05980020911602
 30
0.0
 40
64.0
  1
132
 41
0.9
 72
     1
 11
0.0
 21
445.05980020911602
 31
0.0
  0
LINE
  8
SIZE
  6
CONTINUOUS
 62
    30
 10
75.0
 20
156.40000000010011
 30
0.0
 11
75.000000000000028
 21
561.50772733263568
 31
0.0
  0
LINE
  8
SIZE
  6
CONTINUOUS
 62
    30
 10
-75.0
 20
156.40000000010011
 30
0.0
 11
-75.0
 21
561.50772733263568
 31
0.0
  0
LINE
  8
SIZE
  6
CONTINUOUS
 62
    30
 10
87.000000000000043
 20
541.50772733263568
 30
0.0
 11
99.000000000000043
 21
541.50772733263568
 31
0.0
  0
LINE
  8
SIZE
  6
CONTINUOUS
 62
    30
 10
-86.999999999999943
 20
541.50772733263568
 30
0.0
 11
-98.999999999999943
 21
541.50772733263568
 31
0.0
  0
LINE
  8
SIZE
  6
CONTINUOUS
 62
    30
 10
75.000000000000028
 20
541.50772733263568
 30
0.0
 11
-75.0
 21
541.50772733263568
 31
0.0
  0
CIRCLE
  8
SIZE
  6
CONTINUOUS
 62
    30
 10
75.000000000000028
 20
541.50772733263568
 30
0.0
 40
6.0
  0
LINE
  8
SIZE
  6
CONTINUOUS
 62
    30
 10
75.000000000000028
 20
541.50772733263568
 30
0.0
 11
87.000000000000043
 21
541.50772733263568
 31
0.0
  0
CIRCLE
  8
SIZE
  6
CONTINUOUS
 62
    30
 10
-75.0
 20
541.50772733263568
 30
0.0
 40
6.0
  0
LINE
  8
SIZE
  6
CONTINUOUS
 62
    30
 10
-75.0
 20
541.50772733263568
 30
0.0
 11
-86.999999999999943
 21
541.50772733263568
 31
0.0
  0
TEXT
  8
SIZE
  6
CONTINUOUS
 62
    30
 10
-68.571428571428541
 20
566.50772733263568
 30
0.0
 40
64.0
  1
150
 41
0.9
 72
     1
 11
0.0000000000000284
 21
566.50772733263568
 31
0.0
  0
LINE
  8
SIZE
  6
CONTINUOUS
 62
    30
 10
-86.0
 20
100.8999999999
 30
0.0
 11
-370.35186615446412
 21
100.8999999999002
 31
0.0
  0
LINE
  8
SIZE
  6
CONTINUOUS
 62
    30
 10
-95.0
 20
136.40000000010019
 30
0.0
 11
-370.35186615446412
 21
136.40000000010031
 31
0.0
  0
LINE
  8
SIZE
  6
CONTINUOUS
 62
    30
 10
-350.35186615446412
 20
88.899999999900146
 30
0.0
 11
-350.35186615446412
 21
76.89999999990016
 31
0.0
  0
LINE
  8
SIZE
  6
CONTINUOUS
 62
    30
 10
-350.35186615446389
 20
148.40000000010031
 30
0.0
 11
-350.35186615446389
 21
418.92714021696253
 31
0.0
  0
LINE
  8
SIZE
  6
CONTINUOUS
 62
    30
 10
-350.35186615446389
 20
100.8999999999002
 30
0.0
 11
-350.35186615446389
 21
136.40000000010031
 31
0.0
  0
CIRCLE
  8
SIZE
  6
CONTINUOUS
 62
    30
 10
-350.35186615446389
 20
100.8999999999002
 30
0.0
 40
6.0
  0
LINE
  8
SIZE
  6
CONTINUOUS
 62
    30
 10
-350.35186615446389
 20
100.8999999999002
 30
0.0
 11
-350.35186615446389
 21
88.899999999900146
 31
0.0
  0
CIRCLE
  8
SIZE
  6
CONTINUOUS
 62
    30
 10
-350.35186615446389
 20
136.40000000010031
 30
0.0
 40
6.0
  0
LINE
  8
SIZE
  6
CONTINUOUS
 62
    30
 10
-350.35186615446389
 20
136.40000000010031
 30
0.0
 11
-350.35186615446389
 21
148.40000000010031
 31
0.0
  0
TEXT
  8
SIZE
  6
CONTINUOUS
 62
    30
 10
-375.35186615446412
 20
218.38428307410521
 30
0.0
 40
64.0
  1
35.5
 50
90.0
 41
0.9
 72
     1
 11
-375.35186615446412
 21
306.15571164553381
 31
0.0
  0
LINE
  8
SIZE
  6
CONTINUOUS
 62
    30
 10
-95.0
 20
-0.5999999999999091
 30
0.0
 11
-535.2397316145325
 21
-0.5999999999997954
 31
0.0
  0
LINE
  8
SIZE
  6
CONTINUOUS
 62
    30
 10
-95.0
 20
136.40000000010011
 30
0.0
 11
-535.2397316145325
 21
136.40000000010019
 31
0.0
  0
LINE
  8
SIZE
  6
CONTINUOUS
 62
    30
 10
-515.2397316145325
 20
-12.599999999999801
 30
0.0
 11
-515.2397316145325
 21
-24.599999999999799
 31
0.0
  0
LINE
  8
SIZE
  6
CONTINUOUS
 62
    30
 10
-515.2397316145325
 20
148.40000000010019
 30
0.0
 11
-515.2397316145325
 21
160.40000000010019
 31
0.0
  0
LINE
  8
SIZE
  6
CONTINUOUS
 62
    30
 10
-515.2397316145325
 20
-0.5999999999997954
 30
0.0
 11
-515.2397316145325
 21
136.40000000010019
 31
0.0
  0
CIRCLE
  8
SIZE
  6
CONTINUOUS
 62
    30
 10
-515.2397316145325
 20
-0.5999999999997954
 30
0.0
 40
6.0
  0
LINE
  8
SIZE
  6
CONTINUOUS
 62
    30
 10
-515.2397316145325
 20
-0.5999999999997954
 30
0.0
 11
-515.2397316145325
 21
-12.599999999999801
 31
0.0
  0
CIRCLE
  8
SIZE
  6
CONTINUOUS
 62
    30
 10
-515.2397316145325
 20
136.40000000010019
 30
0.0
 40
6.0
  0
LINE
  8
SIZE
  6
CONTINUOUS
 62
    30
 10
-515.2397316145325
 20
136.40000000010019
 30
0.0
 11
-515.2397316145325
 21
148.40000000010019
 31
0.0
  0
TEXT
  8
SIZE
  6
CONTINUOUS
 62
    30
 10
-540.2397316145325
 20
-0.6714285713784705
 30
0.0
 40
64.0
  1
137
 50
90.0
 41
0.9
 72
     1
 11
-540.2397316145325
 21
67.900000000050099
 31
0.0
  0
LINE
  8
SIZE
  6
CONTINUOUS
 62
    30
 10
-95.0
 20
-0.5999999999999091
 30
0.0
 11
-535.2397316145325
 21
-0.5999999999997954
 31
0.0
  0
LINE
  8
SIZE
  6
CONTINUOUS
 62
    30
 10
-104.94736478880711
 20
-40.599999999899978
 30
0.0
 11
-535.2397316145325
 21
-40.59999999989985
 31
0.0
  0
LINE
  8
SIZE
  6
CONTINUOUS
 62
    30
 10
-515.2397316145325
 20
11.400000000000199
 30
0.0
 11
-515.2397316145325
 21
23.400000000000201
 31
0.0
  0
LINE
  8
SIZE
  6
CONTINUOUS
 62
    30
 10
-515.2397316145325
 20
-52.599999999899858
 30
0.0
 11
-515.2397316145325
 21
-207.85714285704279
 31
0.0
  0
LINE
  8
SIZE
  6
CONTINUOUS
 62
    30
 10
-515.2397316145325
 20
-0.5999999999997954
 30
0.0
 11
-515.2397316145325
 21
-40.59999999989985
 31
0.0
  0
CIRCLE
  8
SIZE
  6
CONTINUOUS
 62
    30
 10
-515.2397316145325
 20
-0.5999999999997954
 30
0.0
 40
6.0
  0
LINE
  8
SIZE
  6
CONTINUOUS
 62
    30
 10
-515.2397316145325
 20
-0.5999999999997954
 30
0.0
 11
-515.2397316145325
 21
11.400000000000199
 31
0.0
  0
CIRCLE
  8
SIZE
  6
CONTINUOUS
 62
    30
 10
-515.2397316145325
 20
-40.59999999989985
 30
0.0
 40
6.0
  0
LINE
  8
SIZE
  6
CONTINUOUS
 62
    30
 10
-515.2397316145325
 20
-40.59999999989985
 30
0.0
 11
-515.2397316145325
 21
-52.599999999899858
 31
0.0
  0
TEXT
  8
SIZE
  6
CONTINUOUS
 62
    30
 10
-540.2397316145325
 20
-182.8571428570429
 30
0.0
 40
64.0
  1
40
 50
90.0
 41
0.9
 72
     1
 11
-540.2397316145325
 21
-136.2285714284715
 31
0.0
  0
LINE
  8
SIZE
  6
CONTINUOUS
 62
    30
 10
-107.0
 20
-35.600000000099953
 30
0.0
 11
-235.24634703150329
 21
-35.600000000099897
 31
0.0
  0
LINE
  8
SIZE
  6
CONTINUOUS
 62
    30
 10
-104.94736478880711
 20
-40.599999999899978
 30
0.0
 11
-235.24634703150329
 21
-40.599999999899921
 31
0.0
  0
LINE
  8
SIZE
  6
CONTINUOUS
 62
    30
 10
-215.24634703150329
 20
-23.600000000099929
 30
0.0
 11
-215.24634703150329
 21
-11.60000000009993
 31
0.0
  0
LINE
  8
SIZE
  6
CONTINUOUS
 62
    30
 10
-215.24634703150329
 20
-52.59999999989995
 30
0.0
 11
-215.24634703150329
 21
-152.99999999990001
 31
0.0
  0
LINE
  8
SIZE
  6
CONTINUOUS
 62
    30
 10
-215.24634703150329
 20
-35.600000000099932
 30
0.0
 11
-215.24634703150329
 21
-40.599999999899957
 31
0.0
  0
CIRCLE
  8
SIZE
  6
CONTINUOUS
 62
    30
 10
-215.24634703150329
 20
-35.600000000099932
 30
0.0
 40
6.0
  0
LINE
  8
SIZE
  6
CONTINUOUS
 62
    30
 10
-215.24634703150329
 20
-35.600000000099932
 30
0.0
 11
-215.24634703150329
 21
-23.600000000099929
 31
0.0
  0
CIRCLE
  8
SIZE
  6
CONTINUOUS
 62
    30
 10
-215.24634703150329
 20
-40.599999999899957
 30
0.0
 40
6.0
  0
LINE
  8
SIZE
  6
CONTINUOUS
 62
    30
 10
-215.24634703150329
 20
-40.599999999899957
 30
0.0
 11
-215.24634703150329
 21
-52.59999999989995
 31
0.0
  0
TEXT
  8
SIZE
  6
CONTINUOUS
 62
    30
 10
-240.24634703150329
 20
-127.9999999999
 30
0.0
 40
64.0
  1
5
 50
90.0
 41
0.9
 72
     1
 11
-240.24634703150329
 21
-108.7999999999
 31
0.0
  0
LINE
  8
SIZE
  6
CONTINUOUS
 62
    30
 10
74.991248948999782
 20
-55.600000000099953
 30
0.0
 11
74.991248948999782
 21
-227.66226941550079
 31
0.0
  0
LINE
  8
SIZE
  6
CONTINUOUS
 62
    30
 10
-74.991248949299901
 20
-55.600000000099953
 30
0.0
 11
-74.991248949299901
 21
-227.66226941550079
 31
0.0
  0
LINE
  8
SIZE
  6
CONTINUOUS
 62
    30
 10
86.991248948999782
 20
-207.66226941550079
 30
0.0
 11
98.991248948999782
 21
-207.66226941550079
 31
0.0
  0
LINE
  8
SIZE
  6
CONTINUOUS
 62
    30
 10
-86.991248949299901
 20
-207.66226941550079
 30
0.0
 11
-98.99124894929993
 21
-207.66226941550079
 31
0.0
  0
LINE
  8
SIZE
  6
CONTINUOUS
 62
    30
 10
74.991248948999782
 20
-207.66226941550079
 30
0.0
 11
-74.991248949299901
 21
-207.66226941550079
 31
0.0
  0
CIRCLE
  8
SIZE
  6
CONTINUOUS
 62
    30
 10
74.991248948999782
 20
-207.66226941550079
 30
0.0
 40
6.0
  0
LINE
  8
SIZE
  6
CONTINUOUS
 62
    30
 10
74.991248948999782
 20
-207.66226941550079
 30
0.0
 11
86.991248948999782
 21
-207.66226941550079
 31
0.0
  0
CIRCLE
  8
SIZE
  6
CONTINUOUS
 62
    30
 10
-74.991248949299901
 20
-207.66226941550079
 30
0.0
 40
6.0
  0
LINE
  8
SIZE
  6
CONTINUOUS
 62
    30
 10
-74.991248949299901
 20
-207.66226941550079
 30
0.0
 11
-86.991248949299901
 21
-207.66226941550079
 31
0.0
  0
TEXT
  8
SIZE
  6
CONTINUOUS
 62
    30
 10
-68.571428571578636
 20
-182.66226941550079
 30
0.0
 40
64.0
  1
150
 41
0.9
 72
     1
 11
-0.0000000001500666
 21
-182.66226941550079
 31
0.0
  0
LINE
  8
SIZE
  6
CONTINUOUS
 62
    30
 10
87.0
 20
-55.600000000099953
 30
0.0
 11
87.0
 21
-361.02070071036309
 31
0.0
  0
LINE
  8
SIZE
  6
CONTINUOUS
 62
    30
 10
-87.0
 20
-55.600000000099953
 30
0.0
 11
-87.0
 21
-361.02070071036309
 31
0.0
  0
LINE
  8
SIZE
  6
CONTINUOUS
 62
    30
 10
99.0
 20
-341.02070071036297
 30
0.0
 11
111.0
 21
-341.02070071036297
 31
0.0
  0
LINE
  8
SIZE
  6
CONTINUOUS
 62
    30
 10
-99.0
 20
-341.02070071036297
 30
0.0
 11
-111.0
 21
-341.02070071036297
 31
0.0
  0
LINE
  8
SIZE
  6
CONTINUOUS
 62
    30
 10
87.0
 20
-341.02070071036297
 30
0.0
 11
-87.0
 21
-341.02070071036297
 31
0.0
  0
CIRCLE
  8
SIZE
  6
CONTINUOUS
 62
    30
 10
87.0
 20
-341.02070071036297
 30
0.0
 40
6.0
  0
LINE
  8
SIZE
  6
CONTINUOUS
 62
    30
 10
87.0
 20
-341.02070071036297
 30
0.0
 11
99.0
 21
-341.02070071036297
 31
0.0
  0
CIRCLE
  8
SIZE
  6
CONTINUOUS
 62
    30
 10
-87.0
 20
-341.02070071036297
 30
0.0
 40
6.0
  0
LINE
  8
SIZE
  6
CONTINUOUS
 62
    30
 10
-87.0
 20
-341.02070071036297
 30
0.0
 11
-99.0
 21
-341.02070071036297
 31
0.0
  0
TEXT
  8
SIZE
  6
CONTINUOUS
 62
    30
 10
-69.942857142857136
 20
-316.02070071036297
 30
0.0
 40
64.0
  1
174
 41
0.9
 72
     1
 11
0.0
 21
-316.02070071036297
 31
0.0
  0
LINE
  8
NOTE
  6
CONTINUOUS
 62
     4
 10
47.5
 20
100.8999999999
 30
0.0
 11
237.93508890271281
 21
-159.41504700009969
 31
0.0
  0
TEXT
  8
NOTE
  6
CONTINUOUS
 62
     4
 10
267.44558771892122
 20
-130.60639800009989
 30
0.0
 40
64.0
  1
AH 4-(12×22)
 41
0.9
  0
LINE
  8
NOTE
  6
CONTINUOUS
 62
     4
 10
237.93508890271281
 20
-159.41504700009969
 30
0.0
 11
906.87835079267597
 21
-159.41504700009969
 31
0.0
  0
LINE
  8
NOTE
  6
CONTINUOUS
 62
     4
 10
62.070129422371792
 20
63.648002524749359
 30
0.0
 11
47.5
 21
100.8999999999
 31
0.0
  0
LINE
  8
NOTE
  6
CONTINUOUS
 62
     4
 10
47.5
 20
100.8999999999
 30
0.0
 11
78.744101657049683
 21
75.923888861083981
 31
0.0
  0
LINE
  8
NOTE
  6
DASHDOT
 62
     4
 10
57.814292590710473
 20
6.4000000001000217
 30
0.0
 11
91.910098748227043
 21
6.4000000001000217
 31
0.0
  0
LINE
  8
NOTE
  6
CONTINUOUS
 62
     4
 10
75.0
 20
6.4000000001000217
 30
0.0
 11
316.67933005759193
 21
-323.96330922707023
 31
0.0
  0
TEXT
  8
NOTE
  6
CONTINUOUS
 62
     4
 10
334.15919878797598
 20
-295.15466022707022
 30
0.0
 40
64.0
  1
EL
 41
0.9
  0
LINE
  8
NOTE
  6
CONTINUOUS
 62
     4
 10
316.67933005759193
 20
-323.96330922707023
 30
0.0
 11
455.91074689009452
 21
-323.96330922707023
 31
0.0
  0
LINE
  8
NOTE
  6
CONTINUOUS
 62
     4
 10
89.570129422371792
 20
-30.85199747505067
 30
0.0
 11
75.0
 21
6.4000000001000217
 31
0.0
  0
LINE
  8
NOTE
  6
CONTINUOUS
 62
     4
 10
75.0
 20
6.4000000001000217
 30
0.0
 11
106.2441016570497
 21
-18.576111138716101
 31
0.0
  0
LINE
  8
OUTLINE
  6
CONTINUOUS
 62
     3
 10
75.0
 20
136.40000000009999
 30
0.0
 11
75.0
 21
0.9999999999000692
 31
0.0
  0
LINE
  8
OUTLINE
  6
CONTINUOUS
 62
     3
 10
-77.200000000199907
 20
0.2000000000999762
 30
0.0
 11
-73.984366420199876
 21
0.2000000000999762
 31
0.0
  0
LINE
  8
OUTLINE
  6
CONTINUOUS
 62
     3
 10
-75.0
 20
16.089785753099932
 30
0.0
 11
-75.0
 21
136.40000000010011
 31
0.0
  0
LINE
  8
OUTLINE
  6
CONTINUOUS
 62
     3
 10
-77.200000000199907
 20
0.2000000000999762
 30
0.0
 11
-77.200000000199907
 21
13.19999999999982
 31
0.0
  0
LINE
  8
OUTLINE
  6
CONTINUOUS
 62
     3
 10
75.0
 20
136.40000000009999
 30
0.0
 11
-75.0
 21
136.40000000010011
 31
0.0
  0
LINE
  8
OUTLINE
  6
CONTINUOUS
 62
     3
 10
74.199999999900214
 20
0.9999999999000692
 30
0.0
 11
75.0
 21
0.9999999999000692
 31
0.0
  0
LINE
  8
OUTLINE
  6
CONTINUOUS
 62
     3
 10
-73.848999599631043
 20
-0.0000000000001137
 30
0.0
 11
73.848999599631838
 21
-0.0000000000001137
 31
0.0
  0
ARC
  8
OUTLINE
  6
CONTINUOUS
 62
     3
 10
-74.200000000199907
 20
13.199999999999701
 30
0.0
 40
3.0
 50
105.46600994945921
 51
180.0
  0
ARC
  8
OUTLINE
  6
CONTINUOUS
 62
     3
 10
72.60000000000035
 20
0.9999999999000692
 30
0.0
 40
1.5999999999000001
 50
321.31781254822118
 51
0.0
  0
ARC
  8
OUTLINE
  6
CONTINUOUS
 62
     3
 10
-72.59999999998773
 20
0.9999999999073452
 30
0.0
 40
1.5999999999137571
 50
209.9999999938174
 51
218.68218745171649
  0
TEXT
  8
ETC
  6
CONTINUOUS
 62
    61
 10
289.90237196507042
 20
591.1211286829282
 30
0.0
 40
64.0
  1
AS-407SB2_5
 41
0.9
  0
TEXT
  8
ETC
  6
CONTINUOUS
 62
    61
 10
285.71637796507002
 20
473.1658186680969
 30
0.0
 40
64.0
  1
産業扇
 41
0.9
  0
TEXT
  8
ETC
  6
CONTINUOUS
 62
    61
 10
336.41777621362593
 20
365.01704578187162
 30
0.0
 40
40.0
  1
AS-407SB2
 41
0.9
  0
ENDSEC
  0
EOF
