  0
SECTION
  2
HEADER
  9
$ACADVER
  1
AC1009
  9
$DWGCODEPAGE
  3
dos932
  9
$INSBASE
 10
0.0
 20
0.0
 30
0.0
  9
$EXTMIN
 10
-1083.441001482126
 20
-499.08694690236013
 30
0.0
  9
$EXTMAX
 10
1204.729194743295
 20
933.02895307276651
 30
50.0
  9
$LIMMIN
 10
-2970.0
 20
-2100.0
  9
$LIMMAX
 10
2970.0
 20
2100.0
  9
$ORTHOMODE
 70
     1
  9
$REGENMODE
 70
     1
  9
$FILLMODE
 70
     1
  9
$QTEXTMODE
 70
     0
  9
$MIRRTEXT
 70
     0
  9
$LTSCALE
 40
20.0
  9
$ATTMODE
 70
     1
  9
$TEXTSIZE
 40
64.0
  9
$TRACEWID
 40
0.05
  9
$TEXTSTYLE
  7
STANDARD
  9
$CLAYER
  8
SIZE
  9
$CELTYPE
  6
CONTINUOUS
  9
$CECOLOR
 62
     7
  9
$DIMSCALE
 40
1.0
  9
$DIMASZ
 40
12.0
  9
$DIMEXO
 40
20.0
  9
$DIMDLI
 40
200.0
  9
$DIMRND
 40
0.0
  9
$DIMDLE
 40
0.0
  9
$DIMEXE
 40
20.0
  9
$DIMTP
 40
0.0
  9
$DIMTM
 40
0.0
  9
$DIMTXT
 40
64.0
  9
$DIMCEN
 40
0.09
  9
$DIMTSZ
 40
0.0
  9
$DIMTOL
 70
     0
  9
$DIMLIM
 70
     0
  9
$DIMTIH
 70
     0
  9
$DIMTOH
 70
     0
  9
$DIMSE1
 70
     0
  9
$DIMSE2
 70
     0
  9
$DIMTAD
 70
     1
  9
$DIMZIN
 70
     8
  9
$DIMBLK
  1

  9
$DIMASO
 70
     1
  9
$DIMSHO
 70
     0
  9
$DIMPOST
  1

  9
$DIMAPOST
  1

  9
$DIMALT
 70
     0
  9
$DIMALTD
 70
     2
  9
$DIMALTF
 40
25.399999999999999
  9
$DIMLFAC
 40
1.0
  9
$DIMTOFL
 70
     1
  9
$DIMTVP
 40
0.0
  9
$DIMTIX
 70
     1
  9
$DIMSOXD
 70
     0
  9
$DIMSAH
 70
     0
  9
$DIMBLK1
  1

  9
$DIMBLK2
  1

  9
$DIMSTYLE
  2
STANDARD
  9
$DIMCLRD
 70
     7
  9
$DIMCLRE
 70
     7
  9
$DIMCLRT
 70
     7
  9
$DIMTFAC
 40
1.0
  9
$DIMGAP
 40
25.0
  9
$LUNITS
 70
     2
  9
$LUPREC
 70
     4
  9
$SKETCHINC
 40
0.1
  9
$FILLETRAD
 40
3.0
  9
$AUNITS
 70
     1
  9
$AUPREC
 70
     3
  9
$MENU
  1
ACAD
  9
$ELEVATION
 40
0.0
  9
$PELEVATION
 40
0.0
  9
$THICKNESS
 40
0.0
  9
$LIMCHECK
 70
     0
  9
$CHAMFERA
 40
0.0
  9
$CHAMFERB
 40
0.0
  9
$SKPOLY
 70
     0
  9
$TDCREATE
 40
2453019.623009259
  9
$TDUPDATE
 40
2459291.629317789
  9
$TDINDWG
 40
1.7284650579
  9
$TDUSRTIMER
 40
1.7284650579
  9
$USRTIMER
 70
     1
  9
$ANGBASE
 50
0.0
  9
$ANGDIR
 70
     0
  9
$PDMODE
 70
     3
  9
$PDSIZE
 40
-2.0
  9
$PLINEWID
 40
0.0
  9
$SPLFRAME
 70
     0
  9
$SPLINETYPE
 70
     6
  9
$SPLINESEGS
 70
     8
  9
$SURFTAB1
 70
     6
  9
$SURFTAB2
 70
     6
  9
$SURFTYPE
 70
     6
  9
$SURFU
 70
     6
  9
$SURFV
 70
     6
  9
$UCSNAME
  2

  9
$UCSORG
 10
0.0
 20
0.0
 30
0.0
  9
$UCSXDIR
 10
1.0
 20
0.0
 30
0.0
  9
$UCSYDIR
 10
0.0
 20
1.0
 30
0.0
  9
$PUCSNAME
  2

  9
$PUCSORG
 10
0.0
 20
0.0
 30
0.0
  9
$PUCSXDIR
 10
1.0
 20
0.0
 30
0.0
  9
$PUCSYDIR
 10
0.0
 20
1.0
 30
0.0
  9
$USERI1
 70
     0
  9
$USERI2
 70
     0
  9
$USERI3
 70
     0
  9
$USERI4
 70
     0
  9
$USERI5
 70
     0
  9
$USERR1
 40
20.0
  9
$USERR2
 40
0.0
  9
$USERR3
 40
0.0
  9
$USERR4
 40
0.0
  9
$USERR5
 40
0.0
  9
$WORLDVIEW
 70
     1
  9
$SHADEDGE
 70
     3
  9
$SHADEDIF
 70
    70
  9
$TILEMODE
 70
     1
  9
$MAXACTVP
 70
    48
  9
$PINSBASE
 10
0.0
 20
0.0
 30
0.0
  9
$PLIMCHECK
 70
     0
  9
$PEXTMIN
 10
-100000000000000000000.0
 20
-100000000000000000000.0
 30
-100000000000000000000.0
  9
$PEXTMAX
 10
100000000000000000000.0
 20
100000000000000000000.0
 30
100000000000000000000.0
  9
$PLIMMIN
 10
0.0
 20
0.0
  9
$PLIMMAX
 10
12.0
 20
9.0
  9
$UNITMODE
 70
     0
  9
$VISRETAIN
 70
     0
  9
$PLINEGEN
 70
     0
  9
$PSLTSCALE
 70
     0
  9
$TREEDEPTH
 70
  3020
  9
$ATTDIA
 70
     0
  9
$ATTREQ
 70
     1
  9
$BLIPMODE
 70
     1
  9
$COORDS
 70
     1
  9
$DRAGMODE
 70
     2
  9
$OSMODE
 70
     0
  9
$HANDLING
 70
     0
  9
$HANDSEED
  5
284
  0
ENDSEC
  0
SECTION
  2
TABLES
  0
TABLE
  2
LTYPE
 70
     2
  0
LTYPE
  2
CONTINUOUS
 70
     0
  3
実線
 72
    65
 73
     0
 40
0.0
  0
LTYPE
  2
DASHDOT
 70
     0
  3
____ _ ____ _ ____ _ ____ _ ____ _ ____ _ ____
 72
    65
 73
     4
 40
5.5
 49
4.0
 49
-0.6
 49
0.3
 49
-0.6
  0
ENDTAB
  0
TABLE
  2
LAYER
 70
    12
  0
LAYER
  2
SIZE
 70
     0
 62
    30
  6
CONTINUOUS
  0
LAYER
  2
BASIS
 70
     0
 62
     6
  6
DASHDOT
  0
LAYER
  2
OUTLINE
 70
     0
 62
     3
  6
CONTINUOUS
  0
LAYER
  2
DETAIL
 70
     0
 62
     5
  6
CONTINUOUS
  0
LAYER
  2
ARRANGE
 70
     0
 62
     1
  6
CONTINUOUS
  0
LAYER
  2
ETC
 70
     0
 62
    61
  6
CONTINUOUS
  0
LAYER
  2
FIX
 70
     0
 62
    11
  6
CONTINUOUS
  0
LAYER
  2
NOTE
 70
     0
 62
     4
  6
CONTINUOUS
  0
LAYER
  2
SERVICESPACE
 70
     0
 62
     2
  6
DASHDOT
  0
LAYER
  2
0
 70
    64
 62
     7
  6
CONTINUOUS
  0
LAYER
  2
DEFPOINTS
 70
    64
 62
     7
  6
CONTINUOUS
  0
LAYER
  2
SYMBOLLINE
 70
    64
 62
    15
  6
CONTINUOUS
  0
ENDTAB
  0
TABLE
  2
STYLE
 70
     1
  0
STYLE
  2
STANDARD
 70
     0
 40
64.0
 41
0.9
 50
0.0
 71
     0
 42
64.0
  3
SIMPLEX.shx
  4
BIGFONT.shx
  0
ENDTAB
  0
TABLE
  2
APPID
 70
    20
  0
APPID
  2
ACAD
 70
     0
  0
APPID
  2
ACADANNOTATIVE
 70
     0
  0
APPID
  2
AUTOCAD_POSTSCRIPT_FIGURE
 70
     0
  0
APPID
  2
ACAD_EXEMPT_FROM_CAD_STANDARDS
 70
     0
  0
APPID
  2
ACAD_PSEXT
 70
     0
  0
APPID
  2
ACAUTHENVIRON
 70
     0
  0
APPID
  2
GENIUS_GENOENT_13
 70
     0
  0
APPID
  2
GENIUS_GENCFG_13
 70
     0
  0
APPID
  2
GENIUS_GENCFG0_13
 70
     0
  0
APPID
  2
GENIUS_GENCFG1_13
 70
     0
  0
APPID
  2
GENIUS_GENCFG2_13
 70
     0
  0
APPID
  2
GENIUS_GENCFG3_13
 70
     0
  0
APPID
  2
GENIUS_GENCFG4_13
 70
     0
  0
APPID
  2
GENIUS_GEVCFG0_13
 70
     0
  0
APPID
  2
CONTENTBLOCKICON
 70
     0
  0
APPID
  2
CONTENTBLOCKDESCRIPTION
 70
     0
  0
APPID
  2
ACAD_NAV_VCDISPLAY
 70
     0
  0
APPID
  2
ACAD_MLEADERVER
 70
     0
  0
APPID
  2
ACDBDYNAMICBLOCKTRUENAME
 70
     0
  0
APPID
  2
ACDBDYNAMICBLOCKGUID
 70
     0
  0
ENDTAB
  0
TABLE
  2
DIMSTYLE
 70
     1
  0
DIMSTYLE
  2
STANDARD
 70
     0
  3

  4

  5

  6

  7

 40
1.0
 41
12.0
 42
20.0
 43
200.0
 44
20.0
 45
0.0
 46
0.0
 47
0.0
 48
0.0
140
64.0
141
0.09
142
0.0
143
25.399999999999999
144
1.0
145
0.0
146
1.0
147
25.0
 71
     0
 72
     0
 73
     0
 74
     0
 75
     0
 76
     0
 77
     1
 78
     8
170
     0
171
     2
172
     1
173
     0
174
     1
175
     0
176
     7
177
     7
178
     7
  0
ENDTAB
  0
TABLE
  2
VIEW
 70
     1
  0
VIEW
  2
ALL
 70
     0
 40
4282.6198079999986
 10
0.0
 20
41.309904000000003
 41
5940.0
 11
0.0
 21
0.0
 31
1.0
 12
0.0
 22
0.0
 32
0.0
 42
50.0
 43
0.0
 44
0.0
 50
0.0
 71
     0
  0
ENDTAB
  0
TABLE
  2
UCS
 70
     0
  0
ENDTAB
  0
TABLE
  2
VPORT
 70
     1
  0
VPORT
  2
*ACTIVE
 70
     0
 10
0.0
 20
0.0
 11
1.0
 21
1.0
 12
60.644096630584727
 22
216.97100308520331
 13
0.0
 23
0.0
 14
1.0
 24
1.0
 15
0.0
 25
0.0
 16
0.0
 26
0.0
 36
1.0
 17
0.0
 27
0.0
 37
0.0
 40
1441.7166769582
 41
1.767337807606264
 42
50.0
 43
0.0
 44
0.0
 50
0.0
 51
0.0
 71
     0
 72
  1000
 73
     1
 74
     3
 75
     0
 76
     0
 77
     0
 78
     0
  0
ENDTAB
  0
ENDSEC
  0
SECTION
  2
BLOCKS
  0
ENDSEC
  0
SECTION
  2
ENTITIES
  0
TEXT
  8
ETC
  6
CONTINUOUS
 62
    61
 10
639.70062331472309
 20
869.02895307276583
 30
0.0
 40
64.0
  1
AS-407SB2_6
 41
0.9
  0
TEXT
  8
ETC
  6
CONTINUOUS
 62
    61
 10
635.5146293147227
 20
751.07364305793499
 30
0.0
 40
64.0
  1
産業扇
 41
0.9
  0
TEXT
  8
ETC
  6
CONTINUOUS
 62
    61
 10
686.21602756327866
 20
642.9248701717097
 30
0.0
 40
40.0
  1
AS-407SB2
 41
0.9
  0
LINE
  8
DETAIL
  6
CONTINUOUS
 62
     5
 10
-368.5
 20
66.000000000024102
 30
0.0
 11
-368.5
 21
53.499999999924277
 31
0.0
  0
LINE
  8
DETAIL
  6
CONTINUOUS
 62
     5
 10
-368.5
 20
41.499999999924277
 30
0.0
 11
-368.5
 21
29.00000000012415
 31
0.0
  0
LINE
  8
DETAIL
  6
CONTINUOUS
 62
     5
 10
-368.5
 20
-29.000000000075719
 30
0.0
 11
-368.5
 21
-41.499999999875847
 31
0.0
  0
LINE
  8
DETAIL
  6
CONTINUOUS
 62
     5
 10
-368.5
 20
-53.499999999875847
 30
0.0
 11
-368.5
 21
-65.999999999975898
 31
0.0
  0
LINE
  8
DETAIL
  6
CONTINUOUS
 62
     5
 10
-366.200000000199
 20
66.000000000024102
 30
0.0
 11
-366.200000000199
 21
53.499999999924277
 31
0.0
  0
LINE
  8
DETAIL
  6
CONTINUOUS
 62
     5
 10
-366.200000000199
 20
-53.499999999875847
 30
0.0
 11
-366.200000000199
 21
-65.999999999975898
 31
0.0
  0
LINE
  8
DETAIL
  6
CONTINUOUS
 62
     5
 10
-366.200000000199
 20
-41.499999999875847
 30
0.0
 11
-366.200000000199
 21
41.499999999924277
 31
0.0
  0
LINE
  8
DETAIL
  6
CONTINUOUS
 62
     5
 10
-312.80000000019942
 20
66.000000000024102
 30
0.0
 11
-312.80000000019942
 21
45.200000000124177
 31
0.0
  0
LINE
  8
DETAIL
  6
CONTINUOUS
 62
     5
 10
-312.80000000019942
 20
29.799999999924239
 30
0.0
 11
-312.80000000019942
 21
-29.799999999875581
 31
0.0
  0
LINE
  8
DETAIL
  6
CONTINUOUS
 62
     5
 10
-312.80000000019942
 20
-45.200000000075761
 30
0.0
 11
-312.80000000019942
 21
-65.999999999975898
 31
0.0
  0
LINE
  8
DETAIL
  6
CONTINUOUS
 62
     5
 10
-310.700000000199
 20
18.000000000024102
 30
0.0
 11
-310.700000000199
 21
14.00000000012415
 31
0.0
  0
LINE
  8
DETAIL
  6
CONTINUOUS
 62
     5
 10
-310.700000000199
 20
-38.000000000075723
 30
0.0
 11
-310.700000000199
 21
-41.999999999975898
 31
0.0
  0
LINE
  8
DETAIL
  6
CONTINUOUS
 62
     5
 10
-310.50000000009908
 20
-72.599999999975822
 30
0.0
 11
-310.50000000009908
 21
73.40000000012401
 31
0.0
  0
LINE
  8
DETAIL
  6
CONTINUOUS
 62
     5
 10
-309.69999999999891
 20
-72.599999999975822
 30
0.0
 11
-309.69999999999891
 21
73.40000000012401
 31
0.0
  0
LINE
  8
DETAIL
  6
CONTINUOUS
 62
     5
 10
-309.200000000199
 20
-69.399999999875931
 30
0.0
 11
-309.200000000199
 21
69.399999999924148
 31
0.0
  0
LINE
  8
DETAIL
  6
CONTINUOUS
 62
     5
 10
-308.90000000019882
 20
-74.199999999875658
 30
0.0
 11
-308.90000000019882
 21
-73.400000000075821
 31
0.0
  0
LINE
  8
DETAIL
  6
CONTINUOUS
 62
     5
 10
-308.90000000019882
 20
-72.599999999975822
 30
0.0
 11
-308.90000000019882
 21
-69.699999999875672
 31
0.0
  0
LINE
  8
DETAIL
  6
CONTINUOUS
 62
     5
 10
-308.90000000019882
 20
69.699999999924103
 30
0.0
 11
-308.90000000019882
 21
75.000000000024087
 31
0.0
  0
LINE
  8
DETAIL
  6
CONTINUOUS
 62
     5
 10
-307.20000000009992
 20
-71.399999999975762
 30
0.0
 11
-307.20000000009992
 21
-73.400000000075821
 31
0.0
  0
LINE
  8
DETAIL
  6
CONTINUOUS
 62
     5
 10
-307.20000000009992
 20
71.400000000024178
 30
0.0
 11
-307.20000000009992
 21
73.40000000012401
 31
0.0
  0
LINE
  8
DETAIL
  6
CONTINUOUS
 62
     5
 10
-306.90000000009968
 20
73.40000000012401
 30
0.0
 11
-306.90000000009968
 21
74.199999999924103
 31
0.0
  0
LINE
  8
DETAIL
  6
CONTINUOUS
 62
     5
 10
-297.50000000019918
 20
74.199999999924103
 30
0.0
 11
-297.50000000019918
 21
75.000000000024087
 31
0.0
  0
LINE
  8
DETAIL
  6
CONTINUOUS
 62
     5
 10
-295.50000000009908
 20
74.199999999924103
 30
0.0
 11
-295.50000000009908
 21
75.000000000024087
 31
0.0
  0
LINE
  8
DETAIL
  6
CONTINUOUS
 62
     5
 10
-307.20000000009992
 20
71.400000000024178
 30
0.0
 11
-309.200000000199
 21
69.399999999924148
 31
0.0
  0
LINE
  8
DETAIL
  6
CONTINUOUS
 62
     5
 10
-309.200000000199
 20
-69.399999999875931
 30
0.0
 11
-307.20000000009992
 21
-71.399999999975762
 31
0.0
  0
LINE
  8
DETAIL
  6
CONTINUOUS
 62
     5
 10
-312.80000000019942
 20
45.200000000124177
 30
0.0
 11
-320.5
 21
37.500000000024087
 31
0.0
  0
LINE
  8
DETAIL
  6
CONTINUOUS
 62
     5
 10
-312.80000000019942
 20
-45.200000000075761
 30
0.0
 11
-320.5
 21
-37.499999999975898
 31
0.0
  0
LINE
  8
DETAIL
  6
CONTINUOUS
 62
     5
 10
-312.80000000019942
 20
-29.799999999875581
 30
0.0
 11
-320.5
 21
-37.499999999975898
 31
0.0
  0
LINE
  8
DETAIL
  6
CONTINUOUS
 62
     5
 10
-312.80000000019942
 20
29.799999999924239
 30
0.0
 11
-320.5
 21
37.500000000024087
 31
0.0
  0
LINE
  8
DETAIL
  6
CONTINUOUS
 62
     5
 10
295.49999999990092
 20
-74.999999999975913
 30
0.0
 11
308.90000000000151
 21
-74.999999999975913
 31
0.0
  0
LINE
  8
DETAIL
  6
CONTINUOUS
 62
     5
 10
-308.90000000019882
 20
-74.199999999875658
 30
0.0
 11
308.90000000000151
 21
-74.199999999875658
 31
0.0
  0
LINE
  8
DETAIL
  6
CONTINUOUS
 62
     5
 10
-308.90000000019882
 20
-73.400000000075821
 30
0.0
 11
310.49999999990092
 21
-73.400000000075821
 31
0.0
  0
LINE
  8
DETAIL
  6
CONTINUOUS
 62
     5
 10
-309.64136041209889
 20
-72.899999999975762
 30
0.0
 11
-307.20000000009992
 21
-72.899999999975762
 31
0.0
  0
LINE
  8
DETAIL
  6
CONTINUOUS
 62
     5
 10
-310.50000000009908
 20
-72.599999999975822
 30
0.0
 11
-307.20000000009992
 21
-72.599999999975822
 31
0.0
  0
LINE
  8
DETAIL
  6
CONTINUOUS
 62
     5
 10
-307.20000000009992
 20
-71.399999999975762
 30
0.0
 11
307.19999999990068
 21
-71.399999999975762
 31
0.0
  0
LINE
  8
DETAIL
  6
CONTINUOUS
 62
     5
 10
-368.5
 20
-65.999999999975898
 30
0.0
 11
-310.50000000009908
 21
-65.999999999975898
 31
0.0
  0
LINE
  8
DETAIL
  6
CONTINUOUS
 62
     5
 10
310.49999999990092
 20
-65.999999999975898
 30
0.0
 11
368.49999999980082
 21
-65.999999999975898
 31
0.0
  0
LINE
  8
DETAIL
  6
CONTINUOUS
 62
     5
 10
368.49999999980082
 20
-53.499999999875847
 30
0.0
 11
346.49999999990092
 21
-53.499999999875847
 31
0.0
  0
LINE
  8
DETAIL
  6
CONTINUOUS
 62
     5
 10
-368.5
 20
-53.499999999875847
 30
0.0
 11
-346.50000000009902
 21
-53.499999999875847
 31
0.0
  0
LINE
  8
DETAIL
  6
CONTINUOUS
 62
     5
 10
-309.200000000199
 20
-50.000000000075723
 30
0.0
 11
-309.69999999999891
 21
-50.000000000075723
 31
0.0
  0
LINE
  8
DETAIL
  6
CONTINUOUS
 62
     5
 10
309.20000000000078
 20
-50.000000000075723
 30
0.0
 11
309.69999999980058
 21
-50.000000000075723
 31
0.0
  0
LINE
  8
DETAIL
  6
CONTINUOUS
 62
     5
 10
310.70000000000078
 20
-41.999999999975898
 30
0.0
 11
310.49999999990092
 21
-41.999999999975898
 31
0.0
  0
LINE
  8
DETAIL
  6
CONTINUOUS
 62
     5
 10
-310.700000000199
 20
-41.999999999975898
 30
0.0
 11
-310.50000000009908
 21
-41.999999999975898
 31
0.0
  0
LINE
  8
DETAIL
  6
CONTINUOUS
 62
     5
 10
368.49999999980082
 20
-41.499999999875847
 30
0.0
 11
346.49999999990092
 21
-41.499999999875847
 31
0.0
  0
LINE
  8
DETAIL
  6
CONTINUOUS
 62
     5
 10
-368.5
 20
-41.499999999875847
 30
0.0
 11
-346.50000000009902
 21
-41.499999999875847
 31
0.0
  0
LINE
  8
DETAIL
  6
CONTINUOUS
 62
     5
 10
310.70000000000078
 20
-38.000000000075723
 30
0.0
 11
310.49999999990092
 21
-38.000000000075723
 31
0.0
  0
LINE
  8
DETAIL
  6
CONTINUOUS
 62
     5
 10
-310.700000000199
 20
-38.000000000075723
 30
0.0
 11
-310.50000000009908
 21
-38.000000000075723
 31
0.0
  0
LINE
  8
DETAIL
  6
CONTINUOUS
 62
     5
 10
-310.50000000009908
 20
-37.499999999975898
 30
0.0
 11
-320.5
 21
-37.499999999975898
 31
0.0
  0
LINE
  8
DETAIL
  6
CONTINUOUS
 62
     5
 10
310.49999999990092
 20
-37.499999999975898
 30
0.0
 11
320.49999999980082
 21
-37.499999999975898
 31
0.0
  0
LINE
  8
DETAIL
  6
CONTINUOUS
 62
     5
 10
368.49999999980082
 20
-29.000000000075719
 30
0.0
 11
366.20000000000078
 21
-29.000000000075719
 31
0.0
  0
LINE
  8
DETAIL
  6
CONTINUOUS
 62
     5
 10
-368.5
 20
-29.000000000075719
 30
0.0
 11
-366.200000000199
 21
-29.000000000075719
 31
0.0
  0
LINE
  8
DETAIL
  6
CONTINUOUS
 62
     5
 10
310.70000000000078
 20
14.00000000012415
 30
0.0
 11
310.49999999990092
 21
14.00000000012415
 31
0.0
  0
LINE
  8
DETAIL
  6
CONTINUOUS
 62
     5
 10
-310.700000000199
 20
14.00000000012415
 30
0.0
 11
-310.50000000009908
 21
14.00000000012415
 31
0.0
  0
LINE
  8
DETAIL
  6
CONTINUOUS
 62
     5
 10
310.70000000000078
 20
18.000000000024102
 30
0.0
 11
310.49999999990092
 21
18.000000000024102
 31
0.0
  0
LINE
  8
DETAIL
  6
CONTINUOUS
 62
     5
 10
-310.700000000199
 20
18.000000000024102
 30
0.0
 11
-310.50000000009908
 21
18.000000000024102
 31
0.0
  0
LINE
  8
DETAIL
  6
CONTINUOUS
 62
     5
 10
-309.200000000199
 20
26.00000000012415
 30
0.0
 11
-309.69999999999891
 21
26.00000000012415
 31
0.0
  0
LINE
  8
DETAIL
  6
CONTINUOUS
 62
     5
 10
309.20000000000078
 20
26.00000000012415
 30
0.0
 11
309.69999999980058
 21
26.00000000012415
 31
0.0
  0
LINE
  8
DETAIL
  6
CONTINUOUS
 62
     5
 10
368.49999999980082
 20
29.00000000012415
 30
0.0
 11
366.20000000000078
 21
29.00000000012415
 31
0.0
  0
LINE
  8
DETAIL
  6
CONTINUOUS
 62
     5
 10
-368.5
 20
29.00000000012415
 30
0.0
 11
-366.200000000199
 21
29.00000000012415
 31
0.0
  0
LINE
  8
DETAIL
  6
CONTINUOUS
 62
     5
 10
-310.50000000009908
 20
37.500000000024087
 30
0.0
 11
-320.5
 21
37.500000000024087
 31
0.0
  0
LINE
  8
DETAIL
  6
CONTINUOUS
 62
     5
 10
310.49999999990092
 20
37.500000000024087
 30
0.0
 11
320.49999999980082
 21
37.500000000024087
 31
0.0
  0
LINE
  8
DETAIL
  6
CONTINUOUS
 62
     5
 10
368.49999999980082
 20
41.499999999924277
 30
0.0
 11
346.49999999990092
 21
41.499999999924277
 31
0.0
  0
LINE
  8
DETAIL
  6
CONTINUOUS
 62
     5
 10
-368.5
 20
41.499999999924277
 30
0.0
 11
-346.50000000009902
 21
41.499999999924277
 31
0.0
  0
LINE
  8
DETAIL
  6
CONTINUOUS
 62
     5
 10
368.49999999980082
 20
53.499999999924277
 30
0.0
 11
346.49999999990092
 21
53.499999999924277
 31
0.0
  0
LINE
  8
DETAIL
  6
CONTINUOUS
 62
     5
 10
-368.5
 20
53.499999999924277
 30
0.0
 11
-346.50000000009902
 21
53.499999999924277
 31
0.0
  0
LINE
  8
DETAIL
  6
CONTINUOUS
 62
     5
 10
-368.5
 20
66.000000000024102
 30
0.0
 11
-310.50000000009908
 21
66.000000000024102
 31
0.0
  0
LINE
  8
DETAIL
  6
CONTINUOUS
 62
     5
 10
310.49999999990092
 20
66.000000000024102
 30
0.0
 11
368.49999999980082
 21
66.000000000024102
 31
0.0
  0
LINE
  8
DETAIL
  6
CONTINUOUS
 62
     5
 10
307.19999999990068
 20
71.400000000024178
 30
0.0
 11
-307.20000000009992
 21
71.400000000024178
 31
0.0
  0
LINE
  8
DETAIL
  6
CONTINUOUS
 62
     5
 10
307.19999999990068
 20
72.600000000024224
 30
0.0
 11
310.49999999990092
 21
72.600000000024224
 31
0.0
  0
LINE
  8
DETAIL
  6
CONTINUOUS
 62
     5
 10
309.64136041220081
 20
72.900000000024178
 30
0.0
 11
307.19999999990068
 21
72.900000000024178
 31
0.0
  0
LINE
  8
DETAIL
  6
CONTINUOUS
 62
     5
 10
-310.50000000009908
 20
73.40000000012401
 30
0.0
 11
308.90000000000151
 21
73.40000000012401
 31
0.0
  0
LINE
  8
DETAIL
  6
CONTINUOUS
 62
     5
 10
308.90000000000151
 20
74.199999999924103
 30
0.0
 11
-308.90000000019882
 21
74.199999999924103
 31
0.0
  0
LINE
  8
DETAIL
  6
CONTINUOUS
 62
     5
 10
-308.90000000019882
 20
75.000000000024087
 30
0.0
 11
-295.50000000009908
 21
75.000000000024087
 31
0.0
  0
LINE
  8
DETAIL
  6
CONTINUOUS
 62
     5
 10
312.80000000000109
 20
29.799999999924239
 30
0.0
 11
320.49999999980082
 21
37.500000000024087
 31
0.0
  0
LINE
  8
DETAIL
  6
CONTINUOUS
 62
     5
 10
312.80000000000109
 20
-29.799999999875581
 30
0.0
 11
320.49999999980082
 21
-37.499999999975898
 31
0.0
  0
LINE
  8
DETAIL
  6
CONTINUOUS
 62
     5
 10
312.80000000000109
 20
-45.200000000075761
 30
0.0
 11
320.49999999980082
 21
-37.499999999975898
 31
0.0
  0
LINE
  8
DETAIL
  6
CONTINUOUS
 62
     5
 10
307.19999999990068
 20
-71.399999999975762
 30
0.0
 11
309.20000000000078
 21
-69.399999999875931
 31
0.0
  0
LINE
  8
DETAIL
  6
CONTINUOUS
 62
     5
 10
312.80000000000109
 20
45.200000000124177
 30
0.0
 11
320.49999999980082
 21
37.500000000024087
 31
0.0
  0
LINE
  8
DETAIL
  6
CONTINUOUS
 62
     5
 10
309.20000000000078
 20
69.399999999924148
 30
0.0
 11
307.19999999990068
 21
71.400000000024178
 31
0.0
  0
LINE
  8
DETAIL
  6
CONTINUOUS
 62
     5
 10
295.49999999990092
 20
-74.199999999875658
 30
0.0
 11
295.49999999990092
 21
-74.999999999975913
 31
0.0
  0
LINE
  8
DETAIL
  6
CONTINUOUS
 62
     5
 10
297.5
 20
-74.199999999875658
 30
0.0
 11
297.5
 21
-74.999999999975913
 31
0.0
  0
LINE
  8
DETAIL
  6
CONTINUOUS
 62
     5
 10
306.8999999999005
 20
-73.400000000075821
 30
0.0
 11
306.8999999999005
 21
-74.199999999875658
 31
0.0
  0
LINE
  8
DETAIL
  6
CONTINUOUS
 62
     5
 10
307.19999999990068
 20
-71.399999999975762
 30
0.0
 11
307.19999999990068
 21
-73.400000000075821
 31
0.0
  0
LINE
  8
DETAIL
  6
CONTINUOUS
 62
     5
 10
307.19999999990068
 20
71.400000000024178
 30
0.0
 11
307.19999999990068
 21
73.40000000012401
 31
0.0
  0
LINE
  8
DETAIL
  6
CONTINUOUS
 62
     5
 10
308.90000000000151
 20
74.199999999924103
 30
0.0
 11
308.90000000000151
 21
73.40000000012401
 31
0.0
  0
LINE
  8
DETAIL
  6
CONTINUOUS
 62
     5
 10
308.90000000000151
 20
72.600000000024224
 30
0.0
 11
308.90000000000151
 21
69.699999999924103
 31
0.0
  0
LINE
  8
DETAIL
  6
CONTINUOUS
 62
     5
 10
308.90000000000151
 20
-74.999999999975913
 30
0.0
 11
308.90000000000151
 21
-69.699999999875672
 31
0.0
  0
LINE
  8
DETAIL
  6
CONTINUOUS
 62
     5
 10
309.20000000000078
 20
69.399999999924148
 30
0.0
 11
309.20000000000078
 21
-69.399999999875931
 31
0.0
  0
LINE
  8
DETAIL
  6
CONTINUOUS
 62
     5
 10
309.69999999980058
 20
72.600000000024224
 30
0.0
 11
309.69999999980058
 21
-73.400000000075821
 31
0.0
  0
LINE
  8
DETAIL
  6
CONTINUOUS
 62
     5
 10
310.49999999990092
 20
72.600000000024224
 30
0.0
 11
310.49999999990092
 21
-73.400000000075821
 31
0.0
  0
LINE
  8
DETAIL
  6
CONTINUOUS
 62
     5
 10
310.70000000000078
 20
-41.999999999975898
 30
0.0
 11
310.70000000000078
 21
-38.000000000075723
 31
0.0
  0
LINE
  8
DETAIL
  6
CONTINUOUS
 62
     5
 10
310.70000000000078
 20
14.00000000012415
 30
0.0
 11
310.70000000000078
 21
18.000000000024102
 31
0.0
  0
LINE
  8
DETAIL
  6
CONTINUOUS
 62
     5
 10
312.80000000000109
 20
-65.999999999975898
 30
0.0
 11
312.80000000000109
 21
-45.200000000075761
 31
0.0
  0
LINE
  8
DETAIL
  6
CONTINUOUS
 62
     5
 10
312.80000000000109
 20
-29.799999999875581
 30
0.0
 11
312.80000000000109
 21
29.799999999924239
 31
0.0
  0
LINE
  8
DETAIL
  6
CONTINUOUS
 62
     5
 10
312.80000000000109
 20
45.200000000124177
 30
0.0
 11
312.80000000000109
 21
66.000000000024102
 31
0.0
  0
LINE
  8
DETAIL
  6
CONTINUOUS
 62
     5
 10
366.20000000000078
 20
-65.999999999975898
 30
0.0
 11
366.20000000000078
 21
-53.499999999875847
 31
0.0
  0
LINE
  8
DETAIL
  6
CONTINUOUS
 62
     5
 10
366.20000000000078
 20
-41.499999999875847
 30
0.0
 11
366.20000000000078
 21
41.499999999924277
 31
0.0
  0
LINE
  8
DETAIL
  6
CONTINUOUS
 62
     5
 10
366.20000000000078
 20
53.499999999924277
 30
0.0
 11
366.20000000000078
 21
66.000000000024102
 31
0.0
  0
LINE
  8
DETAIL
  6
CONTINUOUS
 62
     5
 10
368.49999999980082
 20
-65.999999999975898
 30
0.0
 11
368.49999999980082
 21
-53.499999999875847
 31
0.0
  0
LINE
  8
DETAIL
  6
CONTINUOUS
 62
     5
 10
368.49999999980082
 20
-41.499999999875847
 30
0.0
 11
368.49999999980082
 21
-29.000000000075719
 31
0.0
  0
LINE
  8
DETAIL
  6
CONTINUOUS
 62
     5
 10
368.49999999980082
 20
29.00000000012415
 30
0.0
 11
368.49999999980082
 21
41.499999999924277
 31
0.0
  0
LINE
  8
DETAIL
  6
CONTINUOUS
 62
     5
 10
368.49999999980082
 20
53.499999999924277
 30
0.0
 11
368.49999999980082
 21
66.000000000024102
 31
0.0
  0
ARC
  8
DETAIL
  6
CONTINUOUS
 62
     5
 10
-346.50000000009902
 20
-47.499999999875847
 30
0.0
 40
6.0
 50
270.0
 51
90.0
  0
ARC
  8
DETAIL
  6
CONTINUOUS
 62
     5
 10
-308.90000000019882
 20
-72.599999999975822
 30
0.0
 40
1.5999999999000001
 50
180.0
 51
270.0
  0
ARC
  8
DETAIL
  6
CONTINUOUS
 62
     5
 10
-308.90000000019882
 20
-72.599999999975822
 30
0.0
 40
0.8000000001000001
 50
180.0
 51
270.0
  0
ARC
  8
DETAIL
  6
CONTINUOUS
 62
     5
 10
-346.50000000009902
 20
47.499999999924277
 30
0.0
 40
6.0
 50
270.0
 51
90.0
  0
ARC
  8
DETAIL
  6
CONTINUOUS
 62
     5
 10
-308.90000000019882
 20
73.40000000012401
 30
0.0
 40
1.5999999999000001
 50
90.0
 51
180.0
  0
ARC
  8
DETAIL
  6
CONTINUOUS
 62
     5
 10
-308.90000000019882
 20
73.40000000012401
 30
0.0
 40
0.8000000001000001
 50
90.0
 51
180.0
  0
ARC
  8
DETAIL
  6
CONTINUOUS
 62
     5
 10
308.90000000000151
 20
-73.400000000075821
 30
0.0
 40
1.5999999999000001
 50
270.0
 51
0.0
  0
ARC
  8
DETAIL
  6
CONTINUOUS
 62
     5
 10
308.90000000000151
 20
-73.400000000075821
 30
0.0
 40
0.8000000001000001
 50
270.0
 51
0.0
  0
ARC
  8
DETAIL
  6
CONTINUOUS
 62
     5
 10
346.49999999990092
 20
-47.499999999875847
 30
0.0
 40
6.0
 50
90.0
 51
270.0
  0
ARC
  8
DETAIL
  6
CONTINUOUS
 62
     5
 10
346.49999999990092
 20
47.499999999924277
 30
0.0
 40
6.0
 50
90.0
 51
270.0
  0
ARC
  8
DETAIL
  6
CONTINUOUS
 62
     5
 10
308.90000000000151
 20
72.600000000024224
 30
0.0
 40
1.5999999999000001
 50
0.0
 51
90.0
  0
ARC
  8
DETAIL
  6
CONTINUOUS
 62
     5
 10
308.90000000000151
 20
72.600000000024224
 30
0.0
 40
0.8000000001000001
 50
0.0
 51
90.0
  0
ARC
  8
DETAIL
  6
CONTINUOUS
 62
     5
 10
312.50518655526372
 20
-45.204377193063813
 30
0.0
 40
2.005191332795325
 50
179.87492719890011
 51
185.5198942529284
  0
ARC
  8
DETAIL
  6
CONTINUOUS
 62
     5
 10
311.36506247335137
 20
-45.387136796928303
 30
0.0
 40
0.8558287605605011
 50
180.67769366510939
 51
232.45240871891889
  0
ARC
  8
DETAIL
  6
CONTINUOUS
 62
     5
 10
311.21716079174462
 20
-45.295728530704253
 30
0.0
 40
0.8558287605610321
 50
244.11264245968849
 51
295.88735751346422
  0
ARC
  8
DETAIL
  6
CONTINUOUS
 62
     5
 10
310.51254503680138
 20
-43.444507227798447
 30
0.0
 40
2.8342921410363
 50
292.36083726448828
 51
308.3615495383093
  0
ARC
  8
DETAIL
  6
CONTINUOUS
 62
     5
 10
309.85122984467159
 20
-42.395135020653022
 30
0.0
 40
4.0697067440023993
 50
306.49271689760587
 51
316.43273607322851
  0
ARC
  8
DETAIL
  6
CONTINUOUS
 62
     5
 10
309.00062894800772
 20
-33.567555626764488
 30
0.0
 40
5.3506724617519534
 50
44.759099178152432
 51
52.315447850676307
  0
ARC
  8
DETAIL
  6
CONTINUOUS
 62
     5
 10
310.51254503680138
 20
-31.5554927721534
 30
0.0
 40
2.8342921410366131
 50
51.638450461690638
 51
67.639162735511718
  0
ARC
  8
DETAIL
  6
CONTINUOUS
 62
     5
 10
311.21716079174462
 20
-29.70427146924737
 30
0.0
 40
0.8558287605610799
 50
64.112642486535648
 51
115.8873575403114
  0
ARC
  8
DETAIL
  6
CONTINUOUS
 62
     5
 10
311.36506247335183
 20
-29.61286320302349
 30
0.0
 40
0.8558287605609434
 50
127.54759128109539
 51
179.3223063348776
  0
ARC
  8
DETAIL
  6
CONTINUOUS
 62
     5
 10
311.20640153393651
 20
-29.73443248434489
 30
0.0
 40
0.7094379650315222
 50
169.30223313681839
 51
185.3029454107124
  0
ARC
  8
DETAIL
  6
CONTINUOUS
 62
     5
 10
312.50518655526372
 20
29.795622806936191
 30
0.0
 40
2.005191332795325
 50
179.87492719890011
 51
185.5198942529284
  0
ARC
  8
DETAIL
  6
CONTINUOUS
 62
     5
 10
311.36506247335171
 20
29.612863203071921
 30
0.0
 40
0.8558287605609426
 50
180.6776936651224
 51
232.45240871890451
  0
ARC
  8
DETAIL
  6
CONTINUOUS
 62
     5
 10
311.21716079174462
 20
29.704271469295801
 30
0.0
 40
0.8558287605610798
 50
244.11264245968849
 51
295.88735751346422
  0
ARC
  8
DETAIL
  6
CONTINUOUS
 62
     5
 10
310.51254503680138
 20
31.555492772201891
 30
0.0
 40
2.8342921410366109
 50
292.36083726448828
 51
308.3615495383093
  0
ARC
  8
DETAIL
  6
CONTINUOUS
 62
     5
 10
309.85122984467159
 20
32.604864979346978
 30
0.0
 40
4.0697067440023993
 50
306.49271689760587
 51
316.43273607322851
  0
ARC
  8
DETAIL
  6
CONTINUOUS
 62
     5
 10
309.00062894800772
 20
41.432444373235498
 30
0.0
 40
5.3506724617519534
 50
44.759099178152432
 51
52.315447850676307
  0
ARC
  8
DETAIL
  6
CONTINUOUS
 62
     5
 10
310.51254503680138
 20
43.444507227846877
 30
0.0
 40
2.8342921410363018
 50
51.638450461690638
 51
67.639162735511718
  0
ARC
  8
DETAIL
  6
CONTINUOUS
 62
     5
 10
311.21716079174462
 20
45.295728530752747
 30
0.0
 40
0.8558287605610323
 50
64.112642486535648
 51
115.8873575403114
  0
ARC
  8
DETAIL
  6
CONTINUOUS
 62
     5
 10
311.36506247335137
 20
45.387136796976733
 30
0.0
 40
0.8558287605605012
 50
127.54759128107909
 51
179.32230633489061
  0
ARC
  8
DETAIL
  6
CONTINUOUS
 62
     5
 10
311.20640153393651
 20
45.265567515655107
 30
0.0
 40
0.7094379650314884
 50
169.30223313681529
 51
185.3029454107124
  0
ARC
  8
DETAIL
  6
CONTINUOUS
 62
     5
 10
-312.50518655545568
 20
45.204377193113032
 30
0.0
 40
2.0051913327890771
 50
359.87492719954821
 51
5.51989425292129
  0
ARC
  8
DETAIL
  6
CONTINUOUS
 62
     5
 10
-311.3650624735501
 20
45.387136796976513
 30
0.0
 40
0.8558287605609568
 50
0.6776936651223967
 51
52.452408718904572
  0
ARC
  8
DETAIL
  6
CONTINUOUS
 62
     5
 10
-311.217160791943
 20
45.295728530752747
 30
0.0
 40
0.8558287605610321
 50
64.112642459688573
 51
115.88735751346429
  0
ARC
  8
DETAIL
  6
CONTINUOUS
 62
     5
 10
-310.51254503699988
 20
43.444507227846877
 30
0.0
 40
2.8342921410363
 50
112.3608372644883
 51
128.36154953830939
  0
ARC
  8
DETAIL
  6
CONTINUOUS
 62
     5
 10
-309.85122984475061
 20
42.39513502055911
 30
0.0
 40
4.0697067441878536
 50
126.4927168977668
 51
136.43273607340819
  0
ARC
  8
DETAIL
  6
CONTINUOUS
 62
     5
 10
-309.00062894818518
 20
33.567555626838043
 30
0.0
 40
5.350672461784618
 50
224.7590991778369
 51
232.31544785066001
  0
ARC
  8
DETAIL
  6
CONTINUOUS
 62
     5
 10
-310.51254503699971
 20
31.555492772201891
 30
0.0
 40
2.8342921410366131
 50
231.63845046169061
 51
247.63916273551169
  0
ARC
  8
DETAIL
  6
CONTINUOUS
 62
     5
 10
-311.217160791943
 20
29.704271469295801
 30
0.0
 40
0.8558287605610802
 50
244.11264248653561
 51
295.88735754031143
  0
ARC
  8
DETAIL
  6
CONTINUOUS
 62
     5
 10
-311.3650624735501
 20
29.612863203071921
 30
0.0
 40
0.8558287605609434
 50
307.54759128109532
 51
359.32230633487762
  0
ARC
  8
DETAIL
  6
CONTINUOUS
 62
     5
 10
-311.20640153406038
 20
29.734432484381951
 30
0.0
 40
0.7094379649562865
 50
349.30223313660002
 51
5.3029454102905067
  0
ARC
  8
DETAIL
  6
CONTINUOUS
 62
     5
 10
-312.50518655545568
 20
-29.795622806886911
 30
0.0
 40
2.0051913327890771
 50
359.87492719954821
 51
5.51989425292129
  0
ARC
  8
DETAIL
  6
CONTINUOUS
 62
     5
 10
-311.3650624735501
 20
-29.61286320302349
 30
0.0
 40
0.8558287605609426
 50
0.6776936651223967
 51
52.452408718904572
  0
ARC
  8
DETAIL
  6
CONTINUOUS
 62
     5
 10
-311.217160791943
 20
-29.70427146924737
 30
0.0
 40
0.8558287605610798
 50
64.112642459688573
 51
115.88735751346429
  0
ARC
  8
DETAIL
  6
CONTINUOUS
 62
     5
 10
-310.51254503699971
 20
-31.5554927721534
 30
0.0
 40
2.8342921410366109
 50
112.3608372644883
 51
128.36154953830939
  0
ARC
  8
DETAIL
  6
CONTINUOUS
 62
     5
 10
-309.85122984475061
 20
-32.60486497944089
 30
0.0
 40
4.0697067441878536
 50
126.4927168977668
 51
136.43273607340819
  0
ARC
  8
DETAIL
  6
CONTINUOUS
 62
     5
 10
-309.00062894818478
 20
-41.432444373161452
 30
0.0
 40
5.3506724617851864
 50
224.7590991778392
 51
232.3154478506581
  0
ARC
  8
DETAIL
  6
CONTINUOUS
 62
     5
 10
-310.51254503699988
 20
-43.444507227798447
 30
0.0
 40
2.8342921410363018
 50
231.63845046169061
 51
247.63916273551169
  0
ARC
  8
DETAIL
  6
CONTINUOUS
 62
     5
 10
-311.217160791943
 20
-45.295728530704253
 30
0.0
 40
0.8558287605610323
 50
244.11264248653561
 51
295.88735754031143
  0
ARC
  8
DETAIL
  6
CONTINUOUS
 62
     5
 10
-311.3650624735501
 20
-45.387136796928083
 30
0.0
 40
0.8558287605609568
 50
307.54759128109532
 51
359.32230633487762
  0
ARC
  8
DETAIL
  6
CONTINUOUS
 62
     5
 10
-311.20640153406038
 20
-45.265567515617988
 30
0.0
 40
0.7094379649562527
 50
349.30223313660002
 51
5.3029454102905067
  0
LINE
  8
NOTE
  6
DASHDOT
 62
     4
 10
-373.61802319822891
 20
47.499999999924277
 30
0.0
 11
-328.63761439317392
 21
47.499999999924277
 31
0.0
  0
LINE
  8
BASIS
  6
DASHDOT
 62
     6
 10
0.0
 20
-123.3294784756677
 30
0.0
 11
0.0
 21
120.8771181979205
 31
0.0
  0
LINE
  8
BASIS
  6
DASHDOT
 62
     6
 10
-447.69403611556851
 20
-0.0000000000250111
 30
0.0
 11
430.66203884674547
 21
0.0000000000241016
 31
0.0
  0
CIRCLE
  8
ARRANGE
  6
CONTINUOUS
 62
     1
 10
0.0
 20
0.0
 30
0.0
 40
40.0
  0
POINT
  8
ARRANGE
  6
CONTINUOUS
 62
     1
 10
0.0
 20
0.0
 30
0.0
  0
LINE
  8
NOTE
  6
DASHDOT
 62
     4
 10
-373.61802319822891
 20
-47.500000000075723
 30
0.0
 11
-328.63761439317392
 21
-47.500000000075723
 31
0.0
  0
LINE
  8
NOTE
  6
DASHDOT
 62
     4
 10
373.61802319822891
 20
47.499999999924277
 30
0.0
 11
328.63761439317392
 21
47.499999999924277
 31
0.0
  0
LINE
  8
NOTE
  6
DASHDOT
 62
     4
 10
373.61802319822891
 20
-47.500000000075723
 30
0.0
 11
328.63761439317392
 21
-47.500000000075723
 31
0.0
  0
LINE
  8
NOTE
  6
DASHDOT
 62
     4
 10
-346.5
 20
-61.495174473828683
 30
0.0
 11
-346.5
 21
61.961450581234658
 31
0.0
  0
LINE
  8
NOTE
  6
DASHDOT
 62
     4
 10
346.5
 20
-61.495174473828683
 30
0.0
 11
346.5
 21
61.961450581234658
 31
0.0
  0
CIRCLE
  8
FIX
  6
CONTINUOUS
 62
    11
 10
-346.50000000009902
 20
47.499999999924277
 30
0.0
 40
6.0
  0
CIRCLE
  8
FIX
  6
CONTINUOUS
 62
    11
 10
-346.50000000009902
 20
-47.499999999974307
 30
0.0
 40
6.0
  0
CIRCLE
  8
FIX
  6
CONTINUOUS
 62
    11
 10
346.50000000009902
 20
47.499999999924277
 30
0.0
 40
6.0
  0
CIRCLE
  8
FIX
  6
CONTINUOUS
 62
    11
 10
346.50000000009902
 20
-47.499999999974307
 30
0.0
 40
6.0
  0
LINE
  8
SERVICESPACE
  6
DASHDOT
 62
     2
 10
-383.00000000000023
 20
-79.000000000021473
 30
0.0
 11
-383.00000000000023
 21
78.999999999978627
 31
0.0
  0
LINE
  8
SERVICESPACE
  6
DASHDOT
 62
     2
 10
383.0
 20
-78.999999999978513
 30
0.0
 11
383.00000000000051
 21
79.000000000021586
 31
0.0
  0
LINE
  8
SERVICESPACE
  6
DASHDOT
 62
     2
 10
-383.00000000000023
 20
78.999999999978627
 30
0.0
 11
383.00000000000051
 21
79.000000000021586
 31
0.0
  0
LINE
  8
SERVICESPACE
  6
DASHDOT
 62
     2
 10
-383.00000000000023
 20
-79.000000000021473
 30
0.0
 11
383.0
 21
-78.999999999978513
 31
0.0
  0
LINE
  8
SERVICESPACE
  6
DASHDOT
 62
     2
 10
-383.00000000000023
 20
78.999999999978627
 30
0.0
 11
383.0
 21
-78.999999999978513
 31
0.0
  0
LINE
  8
SERVICESPACE
  6
DASHDOT
 62
     2
 10
383.00000000000051
 20
79.000000000021586
 30
0.0
 11
-383.00000000000023
 21
-79.000000000021473
 31
0.0
  0
LINE
  8
SIZE
  6
CONTINUOUS
 62
    30
 10
-346.5
 20
81.961450581234658
 30
0.0
 11
-346.5
 21
266.55195161771547
 31
0.0
  0
LINE
  8
SIZE
  6
CONTINUOUS
 62
    30
 10
346.5
 20
81.961450581234658
 30
0.0
 11
346.5
 21
266.55195161771547
 31
0.0
  0
LINE
  8
SIZE
  6
CONTINUOUS
 62
    30
 10
-334.5
 20
246.5519516177155
 30
0.0
 11
334.5
 21
246.5519516177155
 31
0.0
  0
CIRCLE
  8
SIZE
  6
CONTINUOUS
 62
    30
 10
-346.5
 20
246.5519516177155
 30
0.0
 40
6.0
  0
LINE
  8
SIZE
  6
CONTINUOUS
 62
    30
 10
-346.5
 20
246.5519516177155
 30
0.0
 11
-334.5
 21
246.5519516177155
 31
0.0
  0
CIRCLE
  8
SIZE
  6
CONTINUOUS
 62
    30
 10
346.5
 20
246.5519516177155
 30
0.0
 40
6.0
  0
LINE
  8
SIZE
  6
CONTINUOUS
 62
    30
 10
346.5
 20
246.5519516177155
 30
0.0
 11
334.5
 21
246.5519516177155
 31
0.0
  0
TEXT
  8
SIZE
  6
CONTINUOUS
 62
    30
 10
-74.05714285714285
 20
271.55195161771547
 30
0.0
 40
64.0
  1
693
 41
0.9
 72
     1
 11
0.0
 21
271.55195161771547
 31
0.0
  0
LINE
  8
SIZE
  6
CONTINUOUS
 62
    30
 10
388.49999999980082
 20
53.499999999924277
 30
0.0
 11
540.34221680416886
 21
53.499999999924277
 31
0.0
  0
LINE
  8
SIZE
  6
CONTINUOUS
 62
    30
 10
388.49999999980082
 20
41.499999999924277
 30
0.0
 11
540.34221680416886
 21
41.499999999924277
 31
0.0
  0
LINE
  8
SIZE
  6
CONTINUOUS
 62
    30
 10
520.34221680416886
 20
29.499999999924281
 30
0.0
 11
520.34221680416886
 21
17.499999999924281
 31
0.0
  0
LINE
  8
SIZE
  6
CONTINUOUS
 62
    30
 10
520.34221680416886
 20
65.499999999924285
 30
0.0
 11
520.34221680416886
 21
209.78571428563851
 31
0.0
  0
LINE
  8
SIZE
  6
CONTINUOUS
 62
    30
 10
520.34221680416886
 20
41.499999999924277
 30
0.0
 11
520.34221680416886
 21
53.499999999924277
 31
0.0
  0
CIRCLE
  8
SIZE
  6
CONTINUOUS
 62
    30
 10
520.34221680416886
 20
41.499999999924277
 30
0.0
 40
6.0
  0
LINE
  8
SIZE
  6
CONTINUOUS
 62
    30
 10
520.34221680416886
 20
41.499999999924277
 30
0.0
 11
520.34221680416886
 21
29.499999999924281
 31
0.0
  0
CIRCLE
  8
SIZE
  6
CONTINUOUS
 62
    30
 10
520.34221680416886
 20
53.499999999924277
 30
0.0
 40
6.0
  0
LINE
  8
SIZE
  6
CONTINUOUS
 62
    30
 10
520.34221680416886
 20
53.499999999924277
 30
0.0
 11
520.34221680416886
 21
65.499999999924285
 31
0.0
  0
TEXT
  8
SIZE
  6
CONTINUOUS
 62
    30
 10
495.34221680416891
 20
102.4999999999244
 30
0.0
 40
64.0
  1
12
 50
90.0
 41
0.9
 72
     1
 11
495.34221680416891
 21
143.64285714278151
 31
0.0
  0
LINE
  8
SIZE
  6
CONTINUOUS
 62
    30
 10
393.61802319822891
 20
47.499999999924277
 30
0.0
 11
657.36855885625846
 21
47.499999999924171
 31
0.0
  0
LINE
  8
SIZE
  6
CONTINUOUS
 62
    30
 10
393.61802319822891
 20
-47.500000000075723
 30
0.0
 11
657.36855885625846
 21
-47.500000000075772
 31
0.0
  0
LINE
  8
SIZE
  6
CONTINUOUS
 62
    30
 10
637.36855885625846
 20
-35.500000000075772
 30
0.0
 11
637.36855885625846
 21
35.499999999924171
 31
0.0
  0
LINE
  8
SIZE
  6
CONTINUOUS
 62
    30
 10
637.36855885625846
 20
47.499999999924171
 30
0.0
 11
637.36855885625846
 21
212.16688925737421
 31
0.0
  0
CIRCLE
  8
SIZE
  6
CONTINUOUS
 62
    30
 10
637.36855885625846
 20
-47.500000000075772
 30
0.0
 40
6.0
  0
LINE
  8
SIZE
  6
CONTINUOUS
 62
    30
 10
637.36855885625846
 20
-47.500000000075772
 30
0.0
 11
637.36855885625846
 21
-35.500000000075772
 31
0.0
  0
CIRCLE
  8
SIZE
  6
CONTINUOUS
 62
    30
 10
637.36855885625846
 20
47.499999999924171
 30
0.0
 40
6.0
  0
LINE
  8
SIZE
  6
CONTINUOUS
 62
    30
 10
637.36855885625846
 20
47.499999999924171
 30
0.0
 11
637.36855885625846
 21
35.499999999924171
 31
0.0
  0
TEXT
  8
SIZE
  6
CONTINUOUS
 62
    30
 10
612.36855885625846
 20
93.909746400231569
 30
0.0
 40
64.0
  1
95
 50
90.0
 41
0.9
 72
     1
 11
612.36855885625846
 21
140.538317828803
 31
0.0
  0
LINE
  8
SIZE
  6
CONTINUOUS
 62
    30
 10
-310.50000000009879
 20
93.400000000123995
 30
0.0
 11
-310.50000000009879
 21
164.30013444150259
 31
0.0
  0
LINE
  8
SIZE
  6
CONTINUOUS
 62
    30
 10
310.49999999990132
 20
92.600000000024266
 30
0.0
 11
310.49999999990132
 21
164.30013444150259
 31
0.0
  0
LINE
  8
SIZE
  6
CONTINUOUS
 62
    30
 10
-298.50000000009879
 20
144.30013444150259
 30
0.0
 11
298.49999999990132
 21
144.30013444150259
 31
0.0
  0
CIRCLE
  8
SIZE
  6
CONTINUOUS
 62
    30
 10
-310.50000000009879
 20
144.30013444150259
 30
0.0
 40
6.0
  0
LINE
  8
SIZE
  6
CONTINUOUS
 62
    30
 10
-310.50000000009879
 20
144.30013444150259
 30
0.0
 11
-298.50000000009879
 21
144.30013444150259
 31
0.0
  0
CIRCLE
  8
SIZE
  6
CONTINUOUS
 62
    30
 10
310.49999999990132
 20
144.30013444150259
 30
0.0
 40
6.0
  0
LINE
  8
SIZE
  6
CONTINUOUS
 62
    30
 10
310.49999999990132
 20
144.30013444150259
 30
0.0
 11
298.49999999990132
 21
144.30013444150259
 31
0.0
  0
TEXT
  8
SIZE
  6
CONTINUOUS
 62
    30
 10
-61.714285714384381
 20
169.30013444150259
 30
0.0
 40
64.0
  1
621
 41
0.9
 72
     1
 11
-0.0000000000986802
 21
169.30013444150259
 31
0.0
  0
LINE
  8
SIZE
  6
CONTINUOUS
 62
    30
 10
-368.5
 20
86.000000000024087
 30
0.0
 11
-368.5
 21
367.64182040344713
 31
0.0
  0
LINE
  8
SIZE
  6
CONTINUOUS
 62
    30
 10
368.49999999980082
 20
86.000000000024087
 30
0.0
 11
368.49999999980082
 21
367.64182040344713
 31
0.0
  0
LINE
  8
SIZE
  6
CONTINUOUS
 62
    30
 10
-356.5
 20
347.64182040344718
 30
0.0
 11
356.49999999980082
 21
347.64182040344718
 31
0.0
  0
CIRCLE
  8
SIZE
  6
CONTINUOUS
 62
    30
 10
-368.5
 20
347.64182040344718
 30
0.0
 40
6.0
  0
LINE
  8
SIZE
  6
CONTINUOUS
 62
    30
 10
-368.5
 20
347.64182040344718
 30
0.0
 11
-356.5
 21
347.64182040344718
 31
0.0
  0
CIRCLE
  8
SIZE
  6
CONTINUOUS
 62
    30
 10
368.49999999980082
 20
347.64182040344718
 30
0.0
 40
6.0
  0
LINE
  8
SIZE
  6
CONTINUOUS
 62
    30
 10
368.49999999980082
 20
347.64182040344718
 30
0.0
 11
356.49999999980082
 21
347.64182040344718
 31
0.0
  0
TEXT
  8
SIZE
  6
CONTINUOUS
 62
    30
 10
-74.057142857242454
 20
372.64182040344713
 30
0.0
 40
64.0
  1
737
 41
0.9
 72
     1
 11
-0.0000000000995897
 21
372.64182040344713
 31
0.0
  0
LINE
  8
SIZE
  6
CONTINUOUS
 62
    30
 10
388.49999999980082
 20
66.000000000024102
 30
0.0
 11
783.22143255626906
 21
66.000000000023988
 31
0.0
  0
LINE
  8
SIZE
  6
CONTINUOUS
 62
    30
 10
388.49999999980082
 20
-65.999999999975898
 30
0.0
 11
783.22143255626906
 21
-65.999999999976012
 31
0.0
  0
LINE
  8
SIZE
  6
CONTINUOUS
 62
    30
 10
763.22143255626906
 20
54.000000000024002
 30
0.0
 11
763.22143255626906
 21
-53.999999999975998
 31
0.0
  0
CIRCLE
  8
SIZE
  6
CONTINUOUS
 62
    30
 10
763.22143255626906
 20
66.000000000023988
 30
0.0
 40
6.0
  0
LINE
  8
SIZE
  6
CONTINUOUS
 62
    30
 10
763.22143255626906
 20
66.000000000023988
 30
0.0
 11
763.22143255626906
 21
54.000000000024002
 31
0.0
  0
CIRCLE
  8
SIZE
  6
CONTINUOUS
 62
    30
 10
763.22143255626906
 20
-65.999999999976012
 30
0.0
 40
6.0
  0
LINE
  8
SIZE
  6
CONTINUOUS
 62
    30
 10
763.22143255626906
 20
-65.999999999976012
 30
0.0
 11
763.22143255626906
 21
-53.999999999975998
 31
0.0
  0
TEXT
  8
SIZE
  6
CONTINUOUS
 62
    30
 10
738.22143255626906
 20
-68.571428571404468
 30
0.0
 40
64.0
  1
132
 50
90.0
 41
0.9
 72
     1
 11
738.22143255626906
 21
0.0000000000241016
 31
0.0
  0
LINE
  8
SIZE
  6
CONTINUOUS
 62
    30
 10
275.49999999990092
 20
-74.999999999975913
 30
0.0
 11
-486.66375600208079
 21
-74.999999999975657
 31
0.0
  0
LINE
  8
SIZE
  6
CONTINUOUS
 62
    30
 10
-328.90000000019882
 20
75.000000000024002
 30
0.0
 11
-486.66375600208079
 21
75.000000000024087
 31
0.0
  0
LINE
  8
SIZE
  6
CONTINUOUS
 62
    30
 10
-466.66375600208079
 20
-86.999999999975657
 30
0.0
 11
-466.66375600208079
 21
-98.999999999975685
 31
0.0
  0
LINE
  8
SIZE
  6
CONTINUOUS
 62
    30
 10
-466.66375600208079
 20
87.000000000024087
 30
0.0
 11
-466.66375600208079
 21
99.000000000024087
 31
0.0
  0
LINE
  8
SIZE
  6
CONTINUOUS
 62
    30
 10
-466.66375600208079
 20
-74.999999999975657
 30
0.0
 11
-466.66375600208079
 21
75.000000000024087
 31
0.0
  0
CIRCLE
  8
SIZE
  6
CONTINUOUS
 62
    30
 10
-466.66375600208079
 20
-74.999999999975657
 30
0.0
 40
6.0
  0
LINE
  8
SIZE
  6
CONTINUOUS
 62
    30
 10
-466.66375600208079
 20
-74.999999999975657
 30
0.0
 11
-466.66375600208079
 21
-86.999999999975657
 31
0.0
  0
CIRCLE
  8
SIZE
  6
CONTINUOUS
 62
    30
 10
-466.66375600208079
 20
75.000000000024087
 30
0.0
 40
6.0
  0
LINE
  8
SIZE
  6
CONTINUOUS
 62
    30
 10
-466.66375600208079
 20
75.000000000024087
 30
0.0
 11
-466.66375600208079
 21
87.000000000024087
 31
0.0
  0
TEXT
  8
SIZE
  6
CONTINUOUS
 62
    30
 10
-491.66375600208079
 20
-68.571428571404468
 30
0.0
 40
64.0
  1
150
 50
90.0
 41
0.9
 72
     1
 11
-491.66375600208079
 21
0.0000000000241016
 31
0.0
  0
LINE
  8
SIZE
  6
CONTINUOUS
 62
    30
 10
403.00000000000051
 20
79.000000000021586
 30
0.0
 11
883.54677414231537
 21
79.000000000021473
 31
0.0
  0
LINE
  8
SIZE
  6
CONTINUOUS
 62
    30
 10
403.0
 20
-78.999999999978513
 30
0.0
 11
883.54677414231537
 21
-78.999999999978684
 31
0.0
  0
LINE
  8
SIZE
  6
CONTINUOUS
 62
    30
 10
863.54677414231537
 20
-66.999999999978684
 30
0.0
 11
863.54677414231537
 21
67.000000000021501
 31
0.0
  0
LINE
  8
SIZE
  6
CONTINUOUS
 62
    30
 10
863.54677414231537
 20
79.000000000021473
 30
0.0
 11
863.54677414231537
 21
502.09017204598138
 31
0.0
  0
CIRCLE
  8
SIZE
  6
CONTINUOUS
 62
    30
 10
863.54677414231537
 20
-78.999999999978684
 30
0.0
 40
6.0
  0
LINE
  8
SIZE
  6
CONTINUOUS
 62
    30
 10
863.54677414231537
 20
-78.999999999978684
 30
0.0
 11
863.54677414231537
 21
-66.999999999978684
 31
0.0
  0
CIRCLE
  8
SIZE
  6
CONTINUOUS
 62
    30
 10
863.54677414231537
 20
79.000000000021473
 30
0.0
 40
6.0
  0
LINE
  8
SIZE
  6
CONTINUOUS
 62
    30
 10
863.54677414231537
 20
79.000000000021473
 30
0.0
 11
863.54677414231537
 21
67.000000000021501
 31
0.0
  0
TEXT
  8
SIZE
  6
CONTINUOUS
 62
    30
 10
838.54677414231537
 20
339.94731490312432
 30
0.0
 40
64.0
  1
158
 50
90.0
 41
0.9
 72
     1
 11
838.54677414231537
 21
408.51874347455282
 31
0.0
  0
LINE
  8
SIZE
  6
CONTINUOUS
 62
    30
 10
-383.00000000000023
 20
-99.000000000021473
 30
0.0
 11
-383.00000000000023
 21
-429.59077090765459
 31
0.0
  0
LINE
  8
SIZE
  6
CONTINUOUS
 62
    30
 10
383.0
 20
-98.999999999978527
 30
0.0
 11
383.0
 21
-429.59077090765459
 31
0.0
  0
LINE
  8
SIZE
  6
CONTINUOUS
 62
    30
 10
-371.00000000000023
 20
-409.59077090765459
 30
0.0
 11
371.0
 21
-409.59077090765459
 31
0.0
  0
CIRCLE
  8
SIZE
  6
CONTINUOUS
 62
    30
 10
-383.00000000000023
 20
-409.59077090765459
 30
0.0
 40
6.0
  0
LINE
  8
SIZE
  6
CONTINUOUS
 62
    30
 10
-383.00000000000023
 20
-409.59077090765459
 30
0.0
 11
-371.00000000000023
 21
-409.59077090765459
 31
0.0
  0
CIRCLE
  8
SIZE
  6
CONTINUOUS
 62
    30
 10
383.0
 20
-409.59077090765459
 30
0.0
 40
6.0
  0
LINE
  8
SIZE
  6
CONTINUOUS
 62
    30
 10
383.0
 20
-409.59077090765459
 30
0.0
 11
371.0
 21
-409.59077090765459
 31
0.0
  0
TEXT
  8
SIZE
  6
CONTINUOUS
 62
    30
 10
-72.685714285714525
 20
-384.59077090765459
 30
0.0
 40
64.0
  1
766
 41
0.9
 72
     1
 11
-0.0000000000002274
 21
-384.59077090765459
 31
0.0
  0
TEXT
  8
NOTE
  6
CONTINUOUS
 62
     4
 10
-175.17430668184201
 20
-499.08694690236013
 30
0.0
 40
64.0
  1
天井開口寸法
 41
0.9
  0
TEXT
  8
NOTE
  6
CONTINUOUS
 62
     4
 10
946.19252387593951
 20
107.3877532958759
 30
0.0
 40
64.0
  1
天井開口寸法
 50
90.0
 41
0.9
  0
LINE
  8
NOTE
  6
DASHDOT
 62
     4
 10
-265.0
 20
-101.30480379479739
 30
0.0
 11
-265.0
 21
-57.983941885340762
 31
0.0
  0
LINE
  8
NOTE
  6
CONTINUOUS
 62
     4
 10
-35.368318000000038
 20
-266.33052699991742
 30
0.0
 11
-155.50882799999999
 21
-266.33052699991742
 31
0.0
  0
TEXT
  8
NOTE
  6
CONTINUOUS
 62
     4
 10
-139.2257504285715
 20
-237.52187799991751
 30
0.0
 40
64.0
  1
EL
 41
0.9
  0
LINE
  8
NOTE
  6
CONTINUOUS
 62
     4
 10
-265.0
 20
-74.199999999917566
 30
0.0
 11
-155.50882799999999
 21
-266.33052699991742
 31
0.0
  0
LINE
  8
NOTE
  6
CONTINUOUS
 62
     4
 10
-254.51150699999991
 20
-112.8004079999173
 30
0.0
 11
-265.0
 21
-74.199999999917566
 31
0.0
  0
LINE
  8
NOTE
  6
CONTINUOUS
 62
     4
 10
-265.0
 20
-74.199999999917566
 30
0.0
 11
-236.6164939999999
 21
-102.38468699991751
 31
0.0
  0
LINE
  8
NOTE
  6
CONTINUOUS
 62
     4
 10
-346.50000000009902
 20
-47.499999999875847
 30
0.0
 11
-422.46594300009912
 21
-307.81504699987568
 31
0.0
  0
TEXT
  8
NOTE
  6
CONTINUOUS
 62
     4
 10
-1064.5977314557549
 20
-279.00639799987567
 30
0.0
 40
64.0
  1
AH 4-(12×22)
 41
0.9
  0
LINE
  8
NOTE
  6
CONTINUOUS
 62
     4
 10
-422.46594300009912
 20
-307.81504699987568
 30
0.0
 11
-1083.441001482126
 21
-307.81504699987568
 31
0.0
  0
LINE
  8
NOTE
  6
CONTINUOUS
 62
     4
 10
-347.50696900009922
 20
-87.487322999875914
 30
0.0
 11
-346.50000000009902
 21
-47.499999999875847
 31
0.0
  0
LINE
  8
NOTE
  6
CONTINUOUS
 62
     4
 10
-346.50000000009902
 20
-47.499999999875847
 30
0.0
 11
-367.36572300009902
 21
-81.626552999875912
 31
0.0
  0
LINE
  8
DETAIL
  6
CONTINUOUS
 62
     5
 10
288.29999999980078
 20
77.200000000024133
 30
0.0
 11
288.29999999980078
 21
74.199999999924103
 31
0.0
  0
LINE
  8
DETAIL
  6
CONTINUOUS
 62
     5
 10
241.2999999998008
 20
77.200000000024133
 30
0.0
 11
241.2999999998008
 21
74.199999999924103
 31
0.0
  0
LINE
  8
DETAIL
  6
CONTINUOUS
 62
     5
 10
288.29999999980078
 20
77.200000000024133
 30
0.0
 11
241.2999999998008
 21
77.200000000024133
 31
0.0
  0
LINE
  8
OUTLINE
  6
CONTINUOUS
 62
     3
 10
-368.5
 20
66.000000000024102
 30
0.0
 11
-368.5
 21
53.499999999924277
 31
0.0
  0
LINE
  8
OUTLINE
  6
CONTINUOUS
 62
     3
 10
-368.5
 20
41.499999999924277
 30
0.0
 11
-368.5
 21
29.00000000012415
 31
0.0
  0
LINE
  8
OUTLINE
  6
CONTINUOUS
 62
     3
 10
-368.5
 20
-29.000000000075719
 30
0.0
 11
-368.5
 21
-41.499999999875847
 31
0.0
  0
LINE
  8
OUTLINE
  6
CONTINUOUS
 62
     3
 10
-368.5
 20
-53.499999999875847
 30
0.0
 11
-368.5
 21
-65.999999999975898
 31
0.0
  0
LINE
  8
OUTLINE
  6
CONTINUOUS
 62
     3
 10
-366.200000000199
 20
-29.000000000075769
 30
0.0
 11
-366.200000000199
 21
29.00000000012415
 31
0.0
  0
LINE
  8
OUTLINE
  6
CONTINUOUS
 62
     3
 10
-310.50000000009908
 20
-72.599999999975822
 30
0.0
 11
-310.50000000009908
 21
-65.999999999975955
 31
0.0
  0
LINE
  8
OUTLINE
  6
CONTINUOUS
 62
     3
 10
-310.50000000009908
 20
66.000000000024102
 30
0.0
 11
-310.50000000009908
 21
73.40000000012401
 31
0.0
  0
LINE
  8
OUTLINE
  6
CONTINUOUS
 62
     3
 10
-295.50000000009908
 20
74.199999999924103
 30
0.0
 11
-295.50000000009908
 21
75.000000000024087
 31
0.0
  0
LINE
  8
OUTLINE
  6
CONTINUOUS
 62
     3
 10
295.49999999990092
 20
-74.999999999975913
 30
0.0
 11
308.90000000000151
 21
-74.999999999975913
 31
0.0
  0
LINE
  8
OUTLINE
  6
CONTINUOUS
 62
     3
 10
-308.90000000019882
 20
-74.199999999875658
 30
0.0
 11
295.49999999990092
 21
-74.199999999875658
 31
0.0
  0
LINE
  8
OUTLINE
  6
CONTINUOUS
 62
     3
 10
-368.5
 20
-65.999999999975898
 30
0.0
 11
-310.50000000009908
 21
-65.999999999975898
 31
0.0
  0
LINE
  8
OUTLINE
  6
CONTINUOUS
 62
     3
 10
310.49999999990092
 20
-65.999999999975898
 30
0.0
 11
368.49999999980082
 21
-65.999999999975898
 31
0.0
  0
LINE
  8
OUTLINE
  6
CONTINUOUS
 62
     3
 10
368.49999999980082
 20
-53.499999999875847
 30
0.0
 11
346.49999999990092
 21
-53.499999999875847
 31
0.0
  0
LINE
  8
OUTLINE
  6
CONTINUOUS
 62
     3
 10
-368.5
 20
-53.499999999875847
 30
0.0
 11
-346.50000000009902
 21
-53.499999999875847
 31
0.0
  0
LINE
  8
OUTLINE
  6
CONTINUOUS
 62
     3
 10
368.49999999980082
 20
-41.499999999875847
 30
0.0
 11
346.49999999990092
 21
-41.499999999875847
 31
0.0
  0
LINE
  8
OUTLINE
  6
CONTINUOUS
 62
     3
 10
-368.5
 20
-41.499999999875847
 30
0.0
 11
-346.50000000009902
 21
-41.499999999875847
 31
0.0
  0
LINE
  8
OUTLINE
  6
CONTINUOUS
 62
     3
 10
368.49999999980082
 20
-29.000000000075719
 30
0.0
 11
366.20000000000078
 21
-29.000000000075719
 31
0.0
  0
LINE
  8
OUTLINE
  6
CONTINUOUS
 62
     3
 10
-368.5
 20
-29.000000000075719
 30
0.0
 11
-366.200000000199
 21
-29.000000000075719
 31
0.0
  0
LINE
  8
OUTLINE
  6
CONTINUOUS
 62
     3
 10
368.49999999980082
 20
29.00000000012415
 30
0.0
 11
366.20000000000078
 21
29.00000000012415
 31
0.0
  0
LINE
  8
OUTLINE
  6
CONTINUOUS
 62
     3
 10
-368.5
 20
29.00000000012415
 30
0.0
 11
-366.200000000199
 21
29.00000000012415
 31
0.0
  0
LINE
  8
OUTLINE
  6
CONTINUOUS
 62
     3
 10
368.49999999980082
 20
41.499999999924277
 30
0.0
 11
346.49999999990092
 21
41.499999999924277
 31
0.0
  0
LINE
  8
OUTLINE
  6
CONTINUOUS
 62
     3
 10
-368.5
 20
41.499999999924277
 30
0.0
 11
-346.50000000009902
 21
41.499999999924277
 31
0.0
  0
LINE
  8
OUTLINE
  6
CONTINUOUS
 62
     3
 10
368.49999999980082
 20
53.499999999924277
 30
0.0
 11
346.49999999990092
 21
53.499999999924277
 31
0.0
  0
LINE
  8
OUTLINE
  6
CONTINUOUS
 62
     3
 10
-368.5
 20
53.499999999924277
 30
0.0
 11
-346.50000000009902
 21
53.499999999924277
 31
0.0
  0
LINE
  8
OUTLINE
  6
CONTINUOUS
 62
     3
 10
-368.5
 20
66.000000000024102
 30
0.0
 11
-310.50000000009908
 21
66.000000000024102
 31
0.0
  0
LINE
  8
OUTLINE
  6
CONTINUOUS
 62
     3
 10
310.49999999990092
 20
66.000000000024102
 30
0.0
 11
368.49999999980082
 21
66.000000000024102
 31
0.0
  0
LINE
  8
OUTLINE
  6
CONTINUOUS
 62
     3
 10
308.90000000000151
 20
74.199999999924103
 30
0.0
 11
288.29999999980078
 21
74.199999999924103
 31
0.0
  0
LINE
  8
OUTLINE
  6
CONTINUOUS
 62
     3
 10
241.2999999998008
 20
74.199999999924103
 30
0.0
 11
-295.50000000009908
 21
74.199999999924103
 31
0.0
  0
LINE
  8
OUTLINE
  6
CONTINUOUS
 62
     3
 10
-308.90000000019882
 20
75.000000000024087
 30
0.0
 11
-295.50000000009908
 21
75.000000000024087
 31
0.0
  0
LINE
  8
OUTLINE
  6
CONTINUOUS
 62
     3
 10
295.49999999990092
 20
-74.199999999875658
 30
0.0
 11
295.49999999990092
 21
-74.999999999975913
 31
0.0
  0
LINE
  8
OUTLINE
  6
CONTINUOUS
 62
     3
 10
310.49999999990092
 20
72.600000000024224
 30
0.0
 11
310.49999999990092
 21
66.000000000024102
 31
0.0
  0
LINE
  8
OUTLINE
  6
CONTINUOUS
 62
     3
 10
310.49999999990092
 20
-65.999999999975898
 30
0.0
 11
310.49999999990092
 21
-73.400000000075821
 31
0.0
  0
LINE
  8
OUTLINE
  6
CONTINUOUS
 62
     3
 10
366.20000000000078
 20
-29.000000000075719
 30
0.0
 11
366.20000000000078
 21
29.00000000012415
 31
0.0
  0
LINE
  8
OUTLINE
  6
CONTINUOUS
 62
     3
 10
368.49999999980082
 20
-65.999999999975898
 30
0.0
 11
368.49999999980082
 21
-53.499999999875847
 31
0.0
  0
LINE
  8
OUTLINE
  6
CONTINUOUS
 62
     3
 10
368.49999999980082
 20
-41.499999999875847
 30
0.0
 11
368.49999999980082
 21
-29.000000000075719
 31
0.0
  0
LINE
  8
OUTLINE
  6
CONTINUOUS
 62
     3
 10
368.49999999980082
 20
29.00000000012415
 30
0.0
 11
368.49999999980082
 21
41.499999999924277
 31
0.0
  0
LINE
  8
OUTLINE
  6
CONTINUOUS
 62
     3
 10
368.49999999980082
 20
53.499999999924277
 30
0.0
 11
368.49999999980082
 21
66.000000000024102
 31
0.0
  0
ARC
  8
OUTLINE
  6
CONTINUOUS
 62
     3
 10
-346.50000000009902
 20
-47.499999999875847
 30
0.0
 40
6.0
 50
270.0
 51
90.0
  0
ARC
  8
OUTLINE
  6
CONTINUOUS
 62
     3
 10
-308.90000000019882
 20
-72.599999999975822
 30
0.0
 40
1.5999999999000001
 50
180.0
 51
270.0
  0
ARC
  8
OUTLINE
  6
CONTINUOUS
 62
     3
 10
-346.50000000009902
 20
47.499999999924277
 30
0.0
 40
6.0
 50
270.0
 51
90.0
  0
ARC
  8
OUTLINE
  6
CONTINUOUS
 62
     3
 10
-308.90000000019882
 20
73.40000000012401
 30
0.0
 40
1.5999999999000001
 50
90.0
 51
180.0
  0
ARC
  8
OUTLINE
  6
CONTINUOUS
 62
     3
 10
308.90000000000151
 20
-73.400000000075821
 30
0.0
 40
1.5999999999000001
 50
270.0
 51
0.0
  0
ARC
  8
OUTLINE
  6
CONTINUOUS
 62
     3
 10
346.49999999990092
 20
-47.499999999875847
 30
0.0
 40
6.0
 50
90.0
 51
270.0
  0
ARC
  8
OUTLINE
  6
CONTINUOUS
 62
     3
 10
346.49999999990092
 20
47.499999999924277
 30
0.0
 40
6.0
 50
90.0
 51
270.0
  0
ARC
  8
OUTLINE
  6
CONTINUOUS
 62
     3
 10
308.90000000000151
 20
72.600000000024224
 30
0.0
 40
1.5999999999000001
 50
0.0
 51
90.0
  0
LINE
  8
OUTLINE
  6
CONTINUOUS
 62
     3
 10
288.29999999980078
 20
77.200000000024133
 30
0.0
 11
288.29999999980078
 21
74.199999999924103
 31
0.0
  0
LINE
  8
OUTLINE
  6
CONTINUOUS
 62
     3
 10
241.2999999998008
 20
77.200000000024133
 30
0.0
 11
241.2999999998008
 21
74.199999999924103
 31
0.0
  0
LINE
  8
OUTLINE
  6
CONTINUOUS
 62
     3
 10
288.29999999980078
 20
77.200000000024133
 30
0.0
 11
241.2999999998008
 21
77.200000000024133
 31
0.0
  0
ENDSEC
  0
EOF
