  0
SECTION
  2
HEADER
  9
$ACADVER
  1
AC1009
  9
$DWGCODEPAGE
  3
dos932
  9
$INSBASE
 10
0.0
 20
0.0
 30
0.0
  9
$EXTMIN
 10
-1424.878350792676
 20
-185.13052699980011
 30
0.0
  9
$EXTMAX
 10
874.88954837190522
 20
969.89179577172467
 30
50.0
  9
$LIMMIN
 10
-2970.0
 20
-2100.0
  9
$LIMMAX
 10
2970.0
 20
2100.0
  9
$ORTHOMODE
 70
     0
  9
$REGENMODE
 70
     1
  9
$FILLMODE
 70
     1
  9
$QTEXTMODE
 70
     0
  9
$MIRRTEXT
 70
     0
  9
$LTSCALE
 40
20.0
  9
$ATTMODE
 70
     1
  9
$TEXTSIZE
 40
64.0
  9
$TRACEWID
 40
0.05
  9
$TEXTSTYLE
  7
STANDARD
  9
$CLAYER
  8
SIZE
  9
$CELTYPE
  6
CONTINUOUS
  9
$CECOLOR
 62
     7
  9
$DIMSCALE
 40
1.0
  9
$DIMASZ
 40
12.0
  9
$DIMEXO
 40
20.0
  9
$DIMDLI
 40
200.0
  9
$DIMRND
 40
0.0
  9
$DIMDLE
 40
0.0
  9
$DIMEXE
 40
20.0
  9
$DIMTP
 40
0.0
  9
$DIMTM
 40
0.0
  9
$DIMTXT
 40
64.0
  9
$DIMCEN
 40
0.09
  9
$DIMTSZ
 40
0.0
  9
$DIMTOL
 70
     0
  9
$DIMLIM
 70
     0
  9
$DIMTIH
 70
     0
  9
$DIMTOH
 70
     0
  9
$DIMSE1
 70
     0
  9
$DIMSE2
 70
     0
  9
$DIMTAD
 70
     1
  9
$DIMZIN
 70
     8
  9
$DIMBLK
  1

  9
$DIMASO
 70
     1
  9
$DIMSHO
 70
     0
  9
$DIMPOST
  1

  9
$DIMAPOST
  1

  9
$DIMALT
 70
     0
  9
$DIMALTD
 70
     2
  9
$DIMALTF
 40
25.399999999999999
  9
$DIMLFAC
 40
1.0
  9
$DIMTOFL
 70
     1
  9
$DIMTVP
 40
0.0
  9
$DIMTIX
 70
     1
  9
$DIMSOXD
 70
     0
  9
$DIMSAH
 70
     0
  9
$DIMBLK1
  1

  9
$DIMBLK2
  1

  9
$DIMSTYLE
  2
STANDARD
  9
$DIMCLRD
 70
     7
  9
$DIMCLRE
 70
     7
  9
$DIMCLRT
 70
     7
  9
$DIMTFAC
 40
1.0
  9
$DIMGAP
 40
25.0
  9
$LUNITS
 70
     2
  9
$LUPREC
 70
     4
  9
$SKETCHINC
 40
0.1
  9
$FILLETRAD
 40
3.0
  9
$AUNITS
 70
     1
  9
$AUPREC
 70
     3
  9
$MENU
  1
ACAD
  9
$ELEVATION
 40
0.0
  9
$PELEVATION
 40
0.0
  9
$THICKNESS
 40
0.0
  9
$LIMCHECK
 70
     0
  9
$CHAMFERA
 40
0.0
  9
$CHAMFERB
 40
0.0
  9
$SKPOLY
 70
     0
  9
$TDCREATE
 40
2453019.623009259
  9
$TDUPDATE
 40
2459291.629478854
  9
$TDINDWG
 40
1.7141016319
  9
$TDUSRTIMER
 40
1.7141016319
  9
$USRTIMER
 70
     1
  9
$ANGBASE
 50
0.0
  9
$ANGDIR
 70
     0
  9
$PDMODE
 70
     3
  9
$PDSIZE
 40
-2.0
  9
$PLINEWID
 40
0.0
  9
$SPLFRAME
 70
     0
  9
$SPLINETYPE
 70
     6
  9
$SPLINESEGS
 70
     8
  9
$SURFTAB1
 70
     6
  9
$SURFTAB2
 70
     6
  9
$SURFTYPE
 70
     6
  9
$SURFU
 70
     6
  9
$SURFV
 70
     6
  9
$UCSNAME
  2

  9
$UCSORG
 10
0.0
 20
0.0
 30
0.0
  9
$UCSXDIR
 10
1.0
 20
0.0
 30
0.0
  9
$UCSYDIR
 10
0.0
 20
1.0
 30
0.0
  9
$PUCSNAME
  2

  9
$PUCSORG
 10
0.0
 20
0.0
 30
0.0
  9
$PUCSXDIR
 10
1.0
 20
0.0
 30
0.0
  9
$PUCSYDIR
 10
0.0
 20
1.0
 30
0.0
  9
$USERI1
 70
     0
  9
$USERI2
 70
     0
  9
$USERI3
 70
     0
  9
$USERI4
 70
     0
  9
$USERI5
 70
     0
  9
$USERR1
 40
20.0
  9
$USERR2
 40
0.0
  9
$USERR3
 40
0.0
  9
$USERR4
 40
0.0
  9
$USERR5
 40
0.0
  9
$WORLDVIEW
 70
     1
  9
$SHADEDGE
 70
     3
  9
$SHADEDIF
 70
    70
  9
$TILEMODE
 70
     1
  9
$MAXACTVP
 70
    48
  9
$PINSBASE
 10
0.0
 20
0.0
 30
0.0
  9
$PLIMCHECK
 70
     0
  9
$PEXTMIN
 10
-100000000000000000000.0
 20
-100000000000000000000.0
 30
-100000000000000000000.0
  9
$PEXTMAX
 10
100000000000000000000.0
 20
100000000000000000000.0
 30
100000000000000000000.0
  9
$PLIMMIN
 10
0.0
 20
0.0
  9
$PLIMMAX
 10
12.0
 20
9.0
  9
$UNITMODE
 70
     0
  9
$VISRETAIN
 70
     0
  9
$PLINEGEN
 70
     0
  9
$PSLTSCALE
 70
     0
  9
$TREEDEPTH
 70
  3020
  9
$ATTDIA
 70
     0
  9
$ATTREQ
 70
     1
  9
$BLIPMODE
 70
     1
  9
$COORDS
 70
     1
  9
$DRAGMODE
 70
     2
  9
$OSMODE
 70
     0
  9
$HANDLING
 70
     0
  9
$HANDSEED
  5
22E
  0
ENDSEC
  0
SECTION
  2
TABLES
  0
TABLE
  2
LTYPE
 70
     2
  0
LTYPE
  2
CONTINUOUS
 70
     0
  3
実線
 72
    65
 73
     0
 40
0.0
  0
LTYPE
  2
DASHDOT
 70
     0
  3
____ _ ____ _ ____ _ ____ _ ____ _ ____ _ ____
 72
    65
 73
     4
 40
5.5
 49
4.0
 49
-0.6
 49
0.3
 49
-0.6
  0
ENDTAB
  0
TABLE
  2
LAYER
 70
    12
  0
LAYER
  2
SIZE
 70
     0
 62
    30
  6
CONTINUOUS
  0
LAYER
  2
BASIS
 70
     0
 62
     6
  6
DASHDOT
  0
LAYER
  2
OUTLINE
 70
     0
 62
     3
  6
CONTINUOUS
  0
LAYER
  2
DETAIL
 70
     0
 62
     5
  6
CONTINUOUS
  0
LAYER
  2
ARRANGE
 70
     0
 62
     1
  6
CONTINUOUS
  0
LAYER
  2
ETC
 70
     0
 62
    61
  6
CONTINUOUS
  0
LAYER
  2
FIX
 70
     0
 62
    11
  6
CONTINUOUS
  0
LAYER
  2
NOTE
 70
     0
 62
     4
  6
CONTINUOUS
  0
LAYER
  2
0
 70
    64
 62
     7
  6
CONTINUOUS
  0
LAYER
  2
DEFPOINTS
 70
    64
 62
     7
  6
CONTINUOUS
  0
LAYER
  2
SERVICESPACE
 70
    64
 62
     2
  6
DASHDOT
  0
LAYER
  2
SYMBOLLINE
 70
    64
 62
    15
  6
CONTINUOUS
  0
ENDTAB
  0
TABLE
  2
STYLE
 70
     1
  0
STYLE
  2
STANDARD
 70
     0
 40
64.0
 41
0.9
 50
0.0
 71
     0
 42
64.0
  3
SIMPLEX.shx
  4
BIGFONT.shx
  0
ENDTAB
  0
TABLE
  2
APPID
 70
    20
  0
APPID
  2
ACAD
 70
     0
  0
APPID
  2
ACADANNOTATIVE
 70
     0
  0
APPID
  2
AUTOCAD_POSTSCRIPT_FIGURE
 70
     0
  0
APPID
  2
ACAD_EXEMPT_FROM_CAD_STANDARDS
 70
     0
  0
APPID
  2
ACAD_PSEXT
 70
     0
  0
APPID
  2
ACAUTHENVIRON
 70
     0
  0
APPID
  2
GENIUS_GENOENT_13
 70
     0
  0
APPID
  2
GENIUS_GENCFG_13
 70
     0
  0
APPID
  2
GENIUS_GENCFG0_13
 70
     0
  0
APPID
  2
GENIUS_GENCFG1_13
 70
     0
  0
APPID
  2
GENIUS_GENCFG2_13
 70
     0
  0
APPID
  2
GENIUS_GENCFG3_13
 70
     0
  0
APPID
  2
GENIUS_GENCFG4_13
 70
     0
  0
APPID
  2
GENIUS_GEVCFG0_13
 70
     0
  0
APPID
  2
CONTENTBLOCKICON
 70
     0
  0
APPID
  2
CONTENTBLOCKDESCRIPTION
 70
     0
  0
APPID
  2
ACAD_NAV_VCDISPLAY
 70
     0
  0
APPID
  2
ACAD_MLEADERVER
 70
     0
  0
APPID
  2
ACDBDYNAMICBLOCKTRUENAME
 70
     0
  0
APPID
  2
ACDBDYNAMICBLOCKGUID
 70
     0
  0
ENDTAB
  0
TABLE
  2
DIMSTYLE
 70
     1
  0
DIMSTYLE
  2
STANDARD
 70
     0
  3

  4

  5

  6

  7

 40
1.0
 41
12.0
 42
20.0
 43
200.0
 44
20.0
 45
0.0
 46
0.0
 47
0.0
 48
0.0
140
64.0
141
0.09
142
0.0
143
25.399999999999999
144
1.0
145
0.0
146
1.0
147
25.0
 71
     0
 72
     0
 73
     0
 74
     0
 75
     0
 76
     0
 77
     1
 78
     8
170
     0
171
     2
172
     1
173
     0
174
     1
175
     0
176
     7
177
     7
178
     7
  0
ENDTAB
  0
TABLE
  2
VIEW
 70
     1
  0
VIEW
  2
ALL
 70
     0
 40
4282.6198079999986
 10
0.0
 20
41.309904000000003
 41
5940.0
 11
0.0
 21
0.0
 31
1.0
 12
0.0
 22
0.0
 32
0.0
 42
50.0
 43
0.0
 44
0.0
 50
0.0
 71
     0
  0
ENDTAB
  0
TABLE
  2
UCS
 70
     0
  0
ENDTAB
  0
TABLE
  2
VPORT
 70
     1
  0
VPORT
  2
*ACTIVE
 70
     0
 10
0.0
 20
0.0
 11
1.0
 21
1.0
 12
-274.99440121038538
 22
392.38063438596231
 13
0.0
 23
0.0
 14
1.0
 24
1.0
 15
0.0
 25
0.0
 16
0.0
 26
0.0
 36
1.0
 17
0.0
 27
0.0
 37
0.0
 40
1306.197053656912
 41
1.767337807606264
 42
50.0
 43
0.0
 44
0.0
 50
0.0
 51
0.0
 71
     0
 72
  1000
 73
     1
 74
     3
 75
     1
 76
     0
 77
     0
 78
     0
  0
ENDTAB
  0
ENDSEC
  0
SECTION
  2
BLOCKS
  0
ENDSEC
  0
SECTION
  2
ENTITIES
  0
TEXT
  8
ETC
  6
CONTINUOUS
 62
    61
 10
214.83786478455019
 20
905.89179577172411
 30
0.0
 40
64.0
  1
AS-412SB2_2
 41
0.9
  0
TEXT
  8
ETC
  6
CONTINUOUS
 62
    61
 10
210.6518707845498
 20
787.93648575689303
 30
0.0
 40
64.0
  1
産業扇
 41
0.9
  0
CIRCLE
  8
ARRANGE
  6
CONTINUOUS
 62
     1
 10
0.0
 20
0.0
 30
0.0
 40
40.0
  0
POINT
  8
ARRANGE
  6
CONTINUOUS
 62
     1
 10
0.0
 20
0.0
 30
0.0
  0
TEXT
  8
ETC
  6
CONTINUOUS
 62
    61
 10
261.35326903310568
 20
679.78771287066763
 30
0.0
 40
40.0
  1
AS-412SB2
 41
0.9
  0
LINE
  8
DETAIL
  6
CONTINUOUS
 62
     5
 10
587.49999999990041
 20
99.200000000099948
 30
0.0
 11
587.49999999990041
 21
94.500000000000128
 31
0.0
  0
LINE
  8
DETAIL
  6
CONTINUOUS
 62
     5
 10
585.20000000009941
 20
101.5000000002
 30
0.0
 11
585.20000000009941
 21
94.500000000000128
 31
0.0
  0
LINE
  8
DETAIL
  6
CONTINUOUS
 62
     5
 10
541.79999999999973
 20
18.449999999999921
 30
0.0
 11
541.79999999999973
 21
4.5500000000998844
 31
0.0
  0
LINE
  8
DETAIL
  6
CONTINUOUS
 62
     5
 10
538.79999999999973
 20
18.449999999999921
 30
0.0
 11
538.79999999999973
 21
4.5500000000998844
 31
0.0
  0
LINE
  8
DETAIL
  6
CONTINUOUS
 62
     5
 10
532.29999999989968
 20
6.5000000001001581
 30
0.0
 11
532.29999999989968
 21
16.50000000000011
 31
0.0
  0
LINE
  8
DETAIL
  6
CONTINUOUS
 62
     5
 10
531.80000000009977
 20
101.5000000002
 30
0.0
 11
531.80000000009977
 21
0.5999999999997954
 31
0.0
  0
LINE
  8
DETAIL
  6
CONTINUOUS
 62
     5
 10
529.49999999999966
 20
137.00000000010019
 30
0.0
 11
529.49999999999966
 21
0.5999999999997954
 31
0.0
  0
LINE
  8
DETAIL
  6
CONTINUOUS
 62
     5
 10
527.90000000009923
 20
0.0000000000001137
 30
0.0
 11
527.90000000009923
 21
0.8000000000998853
 31
0.0
  0
LINE
  8
DETAIL
  6
CONTINUOUS
 62
     5
 10
527.90000000009923
 20
137.00000000010019
 30
0.0
 11
527.90000000009923
 21
1.600000000200112
 31
0.0
  0
LINE
  8
DETAIL
  6
CONTINUOUS
 62
     5
 10
519.50000000009959
 20
1.600000000200112
 30
0.0
 11
519.50000000009959
 21
0.8000000000998853
 31
0.0
  0
LINE
  8
DETAIL
  6
CONTINUOUS
 62
     5
 10
515.30000000009977
 20
1.600000000200112
 30
0.0
 11
515.30000000009977
 21
0.0000000000001137
 31
0.0
  0
LINE
  8
DETAIL
  6
CONTINUOUS
 62
     5
 10
514.49999999999966
 20
3.5999999999997949
 30
0.0
 11
514.49999999999966
 21
135.00000000000011
 31
0.0
  0
LINE
  8
DETAIL
  6
CONTINUOUS
 62
     5
 10
540.4526911934995
 20
99.200000000099948
 30
0.0
 11
531.80000000009977
 21
90.547308806699988
 31
0.0
  0
LINE
  8
DETAIL
  6
CONTINUOUS
 62
     5
 10
531.80000000009977
 20
91.144188761699866
 30
0.0
 11
539.8558112382002
 21
99.200000000099948
 31
0.0
  0
LINE
  8
DETAIL
  6
CONTINUOUS
 62
     5
 10
514.49999999999966
 20
3.5999999999997949
 30
0.0
 11
516.50000000009959
 21
1.600000000200112
 31
0.0
  0
LINE
  8
DETAIL
  6
CONTINUOUS
 62
     5
 10
516.50000000009959
 20
137.00000000010019
 30
0.0
 11
514.49999999999966
 21
135.00000000000011
 31
0.0
  0
LINE
  8
DETAIL
  6
CONTINUOUS
 62
     5
 10
-529.50000000000057
 20
137.00000000010019
 30
0.0
 11
529.49999999999966
 21
137.00000000010019
 31
0.0
  0
LINE
  8
DETAIL
  6
CONTINUOUS
 62
     5
 10
531.80000000009977
 20
101.5000000002
 30
0.0
 11
585.20000000009941
 21
101.5000000002
 31
0.0
  0
LINE
  8
DETAIL
  6
CONTINUOUS
 62
     5
 10
-531.80000000010079
 20
101.5000000002
 30
0.0
 11
-585.20000000010043
 21
101.5000000002
 31
0.0
  0
LINE
  8
DETAIL
  6
CONTINUOUS
 62
     5
 10
587.49999999990041
 20
99.200000000099948
 30
0.0
 11
529.49999999999966
 21
99.200000000099948
 31
0.0
  0
LINE
  8
DETAIL
  6
CONTINUOUS
 62
     5
 10
-529.50000000000057
 20
99.200000000099948
 30
0.0
 11
-587.49999999990041
 21
99.200000000099948
 31
0.0
  0
LINE
  8
DETAIL
  6
CONTINUOUS
 62
     5
 10
-587.49999999990041
 20
94.500000000000128
 30
0.0
 11
-585.20000000010043
 21
94.500000000000128
 31
0.0
  0
LINE
  8
DETAIL
  6
CONTINUOUS
 62
     5
 10
587.49999999990041
 20
94.500000000000128
 30
0.0
 11
585.20000000009941
 21
94.500000000000128
 31
0.0
  0
LINE
  8
DETAIL
  6
CONTINUOUS
 62
     5
 10
-529.50000000000057
 20
66.500000000100187
 30
0.0
 11
-531.80000000010079
 21
66.500000000100187
 31
0.0
  0
LINE
  8
DETAIL
  6
CONTINUOUS
 62
     5
 10
-529.50000000000057
 20
51.357639478499891
 30
0.0
 11
-531.80000000010079
 21
51.357639478499891
 31
0.0
  0
LINE
  8
DETAIL
  6
CONTINUOUS
 62
     5
 10
-529.50000000000057
 20
50.322363298200003
 30
0.0
 11
-531.80000000010079
 21
50.322363298200003
 31
0.0
  0
LINE
  8
DETAIL
  6
CONTINUOUS
 62
     5
 10
-529.50000000000057
 20
47.493936173400137
 30
0.0
 11
-531.80000000010079
 21
47.493936173400137
 31
0.0
  0
LINE
  8
DETAIL
  6
CONTINUOUS
 62
     5
 10
-529.50000000000057
 20
35.247003499200098
 30
0.0
 11
-531.80000000010079
 21
35.247003499200098
 31
0.0
  0
LINE
  8
DETAIL
  6
CONTINUOUS
 62
     5
 10
-529.50000000000057
 20
31.783299531000129
 30
0.0
 11
-531.80000000010079
 21
31.783299531000129
 31
0.0
  0
LINE
  8
DETAIL
  6
CONTINUOUS
 62
     5
 10
-529.50000000000057
 20
21.2665984038
 30
0.0
 11
-531.80000000010079
 21
21.2665984038
 31
0.0
  0
LINE
  8
DETAIL
  6
CONTINUOUS
 62
     5
 10
538.79999999999973
 20
18.449999999999921
 30
0.0
 11
541.79999999999973
 21
18.449999999999921
 31
0.0
  0
LINE
  8
DETAIL
  6
CONTINUOUS
 62
     5
 10
-538.80000000000064
 20
18.449999999999921
 30
0.0
 11
-541.80000000000064
 21
18.449999999999921
 31
0.0
  0
LINE
  8
DETAIL
  6
CONTINUOUS
 62
     5
 10
-529.50000000000057
 20
18.438171278999889
 30
0.0
 11
-531.80000000010079
 21
18.438171278999889
 31
0.0
  0
LINE
  8
DETAIL
  6
CONTINUOUS
 62
     5
 10
-54.499999999900638
 20
16.800000000000072
 30
0.0
 11
-35.500000000000682
 21
16.800000000000072
 31
0.0
  0
LINE
  8
DETAIL
  6
CONTINUOUS
 62
     5
 10
532.29999999989968
 20
16.50000000000011
 30
0.0
 11
538.79999999999973
 21
16.50000000000011
 31
0.0
  0
LINE
  8
DETAIL
  6
CONTINUOUS
 62
     5
 10
-532.29999999990059
 20
16.50000000000011
 30
0.0
 11
-538.80000000000064
 21
16.50000000000011
 31
0.0
  0
LINE
  8
DETAIL
  6
CONTINUOUS
 62
     5
 10
538.79999999999973
 20
14.96846753909983
 30
0.0
 11
541.79999999999973
 21
14.96846753909983
 31
0.0
  0
LINE
  8
DETAIL
  6
CONTINUOUS
 62
     5
 10
-538.80000000000064
 20
14.96846753909983
 30
0.0
 11
-541.80000000000064
 21
14.96846753909983
 31
0.0
  0
LINE
  8
DETAIL
  6
CONTINUOUS
 62
     5
 10
-35.500000000000682
 20
13.80000000000007
 30
0.0
 11
-54.499999999900638
 21
13.80000000000007
 31
0.0
  0
LINE
  8
DETAIL
  6
CONTINUOUS
 62
     5
 10
-54.499999999900638
 20
10.80000000000007
 30
0.0
 11
-35.500000000000682
 21
10.80000000000007
 31
0.0
  0
LINE
  8
DETAIL
  6
CONTINUOUS
 62
     5
 10
-529.50000000000057
 20
10.36845175350015
 30
0.0
 11
-531.80000000010079
 21
10.36845175350015
 31
0.0
  0
LINE
  8
DETAIL
  6
CONTINUOUS
 62
     5
 10
-529.50000000000057
 20
8.368681335000133
 30
0.0
 11
-531.80000000010079
 21
8.368681335000133
 31
0.0
  0
LINE
  8
DETAIL
  6
CONTINUOUS
 62
     5
 10
538.79999999999973
 20
8.0315324609999816
 30
0.0
 11
541.79999999999973
 21
8.0315324609999816
 31
0.0
  0
LINE
  8
DETAIL
  6
CONTINUOUS
 62
     5
 10
-538.80000000000064
 20
8.0315324609999816
 30
0.0
 11
-541.80000000000064
 21
8.0315324609999816
 31
0.0
  0
LINE
  8
DETAIL
  6
CONTINUOUS
 62
     5
 10
-65.500000000000682
 20
7.3752607778998254
 30
0.0
 11
-62.343376408300863
 21
7.3752607778998254
 31
0.0
  0
LINE
  8
DETAIL
  6
CONTINUOUS
 62
     5
 10
-27.656623591600461
 20
7.3752607778998254
 30
0.0
 11
-24.499999999900641
 21
7.3752607778998254
 31
0.0
  0
LINE
  8
DETAIL
  6
CONTINUOUS
 62
     5
 10
-49.800000000099772
 20
7.0000000001999751
 30
0.0
 11
-40.200000000099642
 21
7.0000000001999751
 31
0.0
  0
LINE
  8
DETAIL
  6
CONTINUOUS
 62
     5
 10
532.29999999989968
 20
6.5000000001001581
 30
0.0
 11
538.79999999999973
 21
6.5000000001001581
 31
0.0
  0
LINE
  8
DETAIL
  6
CONTINUOUS
 62
     5
 10
-532.29999999990059
 20
6.5000000001001581
 30
0.0
 11
-538.80000000000064
 21
6.5000000001001581
 31
0.0
  0
LINE
  8
DETAIL
  6
CONTINUOUS
 62
     5
 10
538.79999999999973
 20
4.5500000000998844
 30
0.0
 11
541.79999999999973
 21
4.5500000000998844
 31
0.0
  0
LINE
  8
DETAIL
  6
CONTINUOUS
 62
     5
 10
-538.80000000000064
 20
4.5500000000998844
 30
0.0
 11
-541.80000000000064
 21
4.5500000000998844
 31
0.0
  0
LINE
  8
DETAIL
  6
CONTINUOUS
 62
     5
 10
-529.50000000000057
 20
3.295810757400091
 30
0.0
 11
-531.80000000010079
 21
3.295810757400091
 31
0.0
  0
LINE
  8
DETAIL
  6
CONTINUOUS
 62
     5
 10
-21.499999999900641
 20
2.8000000001999301
 30
0.0
 11
-27.499999999900641
 21
2.8000000001999301
 31
0.0
  0
LINE
  8
DETAIL
  6
CONTINUOUS
 62
     5
 10
-62.500000000000682
 20
2.8000000001999301
 30
0.0
 11
-68.500000000000682
 21
2.8000000001999301
 31
0.0
  0
LINE
  8
DETAIL
  6
CONTINUOUS
 62
     5
 10
-529.50000000000057
 20
2.2605345770999752
 30
0.0
 11
-531.80000000010079
 21
2.2605345770999752
 31
0.0
  0
LINE
  8
DETAIL
  6
CONTINUOUS
 62
     5
 10
529.4999999999992
 20
1.600000000200112
 30
0.0
 11
-24.00000000010073
 21
1.600000000200112
 31
0.0
  0
LINE
  8
DETAIL
  6
CONTINUOUS
 62
     5
 10
-65.500000000000682
 20
1.600000000200112
 30
0.0
 11
-529.50000000000057
 21
1.600000000200112
 31
0.0
  0
LINE
  8
DETAIL
  6
CONTINUOUS
 62
     5
 10
527.90000000009923
 20
0.8000000000998853
 30
0.0
 11
515.30000000009977
 21
0.8000000000998853
 31
0.0
  0
LINE
  8
DETAIL
  6
CONTINUOUS
 62
     5
 10
-24.449704261600122
 20
0.8000000000998853
 30
0.0
 11
-24.499999999900641
 21
0.8000000000998853
 31
0.0
  0
LINE
  8
DETAIL
  6
CONTINUOUS
 62
     5
 10
-24.499999999900641
 20
0.8000000000998853
 30
0.0
 11
-30.499999999900641
 21
0.8000000000998853
 31
0.0
  0
LINE
  8
DETAIL
  6
CONTINUOUS
 62
     5
 10
-30.499999999900641
 20
0.8000000000998853
 30
0.0
 11
-59.500000000000682
 21
0.8000000000998853
 31
0.0
  0
LINE
  8
DETAIL
  6
CONTINUOUS
 62
     5
 10
-59.500000000000682
 20
0.8000000000998853
 30
0.0
 11
-65.500000000000682
 21
0.8000000000998853
 31
0.0
  0
LINE
  8
DETAIL
  6
CONTINUOUS
 62
     5
 10
-515.30000000010079
 20
0.8000000000998853
 30
0.0
 11
-527.90000000010082
 21
0.8000000000998853
 31
0.0
  0
LINE
  8
DETAIL
  6
CONTINUOUS
 62
     5
 10
531.80000000009977
 20
0.5999999999997954
 30
0.0
 11
529.14746930639967
 21
0.5999999999997954
 31
0.0
  0
LINE
  8
DETAIL
  6
CONTINUOUS
 62
     5
 10
-529.14746930640058
 20
0.5999999999997954
 30
0.0
 11
-531.80000000010079
 21
0.5999999999997954
 31
0.0
  0
LINE
  8
DETAIL
  6
CONTINUOUS
 62
     5
 10
-527.90000000010082
 20
0.0000000000001137
 30
0.0
 11
515.30000000009977
 21
-0.0000000000001137
 31
0.0
  0
LINE
  8
DETAIL
  6
CONTINUOUS
 62
     5
 10
527.90000000009923
 20
0.0000000000001137
 30
0.0
 11
515.30000000009977
 21
0.0000000000001137
 31
0.0
  0
LINE
  8
DETAIL
  6
CONTINUOUS
 62
     5
 10
-68.500000000000682
 20
3.8000000000998848
 30
0.0
 11
-65.500000000000682
 21
7.3752607778998254
 31
0.0
  0
LINE
  8
DETAIL
  6
CONTINUOUS
 62
     5
 10
-531.80000000010079
 20
91.144188761699866
 30
0.0
 11
-539.85581123819918
 21
99.200000000099948
 31
0.0
  0
LINE
  8
DETAIL
  6
CONTINUOUS
 62
     5
 10
-540.45269119350041
 20
99.200000000099948
 30
0.0
 11
-531.80000000010079
 21
90.547308806699988
 31
0.0
  0
LINE
  8
DETAIL
  6
CONTINUOUS
 62
     5
 10
-24.499999999900641
 20
7.3752607778998254
 30
0.0
 11
-21.499999999900641
 21
3.8000000000998848
 31
0.0
  0
LINE
  8
DETAIL
  6
CONTINUOUS
 62
     5
 10
-21.499999999900641
 20
3.8000000000998848
 30
0.0
 11
-21.499999999900641
 21
2.8000000001999301
 31
0.0
  0
LINE
  8
DETAIL
  6
CONTINUOUS
 62
     5
 10
-24.00000000010073
 20
2.8000000001999301
 30
0.0
 11
-24.00000000010073
 21
0.0000000000001137
 31
0.0
  0
LINE
  8
DETAIL
  6
CONTINUOUS
 62
     5
 10
-24.449704261600122
 20
0.0000000000001137
 30
0.0
 11
-24.449704261600122
 21
0.8000000000998853
 31
0.0
  0
LINE
  8
DETAIL
  6
CONTINUOUS
 62
     5
 10
-24.499999999900641
 20
2.8000000001999301
 30
0.0
 11
-24.499999999900641
 21
0.8000000000998853
 31
0.0
  0
LINE
  8
DETAIL
  6
CONTINUOUS
 62
     5
 10
-27.499999999900641
 20
0.8000000000998853
 30
0.0
 11
-27.499999999900641
 21
2.8000000001999301
 31
0.0
  0
LINE
  8
DETAIL
  6
CONTINUOUS
 62
     5
 10
-30.499999999900641
 20
0.8000000000998853
 30
0.0
 11
-30.499999999900641
 21
5.8000000001999297
 31
0.0
  0
LINE
  8
DETAIL
  6
CONTINUOUS
 62
     5
 10
-35.500000000000682
 20
13.80000000000007
 30
0.0
 11
-35.500000000000682
 21
16.800000000000072
 31
0.0
  0
LINE
  8
DETAIL
  6
CONTINUOUS
 62
     5
 10
-37.099999999900092
 20
0.8000000000998853
 30
0.0
 11
-37.099999999900092
 21
3.9000000000002051
 31
0.0
  0
LINE
  8
DETAIL
  6
CONTINUOUS
 62
     5
 10
-52.900000000000098
 20
0.8000000000998853
 30
0.0
 11
-52.900000000000098
 21
3.9000000000002051
 31
0.0
  0
LINE
  8
DETAIL
  6
CONTINUOUS
 62
     5
 10
-54.499999999900638
 20
13.80000000000007
 30
0.0
 11
-54.499999999300137
 21
16.800000000000072
 31
0.0
  0
LINE
  8
DETAIL
  6
CONTINUOUS
 62
     5
 10
-59.500000000000682
 20
0.8000000000998853
 30
0.0
 11
-59.500000000000682
 21
5.8000000001999297
 31
0.0
  0
LINE
  8
DETAIL
  6
CONTINUOUS
 62
     5
 10
-62.500000000000682
 20
2.8000000001999301
 30
0.0
 11
-62.500000000000682
 21
0.8000000000998853
 31
0.0
  0
LINE
  8
DETAIL
  6
CONTINUOUS
 62
     5
 10
-65.449704261701072
 20
0.0000000000001137
 30
0.0
 11
-65.449704261701072
 21
0.8000000000998853
 31
0.0
  0
LINE
  8
DETAIL
  6
CONTINUOUS
 62
     5
 10
-65.500000000000682
 20
0.8000000000998853
 30
0.0
 11
-65.500000000000682
 21
2.8000000001999301
 31
0.0
  0
LINE
  8
DETAIL
  6
CONTINUOUS
 62
     5
 10
-66.000000000100727
 20
0.0000000000001137
 30
0.0
 11
-66.000000000100727
 21
2.8000000001999301
 31
0.0
  0
LINE
  8
DETAIL
  6
CONTINUOUS
 62
     5
 10
-68.500000000000682
 20
2.8000000001999301
 30
0.0
 11
-68.500000000000682
 21
3.8000000000998848
 31
0.0
  0
LINE
  8
DETAIL
  6
CONTINUOUS
 62
     5
 10
-511.50000000000051
 20
0.0000000000001137
 30
0.0
 11
-511.50000000000051
 21
1.600000000200112
 31
0.0
  0
LINE
  8
DETAIL
  6
CONTINUOUS
 62
     5
 10
-515.30000000010079
 20
1.600000000200112
 30
0.0
 11
-515.30000000010079
 21
0.0000000000001137
 31
0.0
  0
LINE
  8
DETAIL
  6
CONTINUOUS
 62
     5
 10
-519.50000000009959
 20
1.600000000200112
 30
0.0
 11
-519.50000000009959
 21
0.8000000000998853
 31
0.0
  0
LINE
  8
DETAIL
  6
CONTINUOUS
 62
     5
 10
-527.90000000010082
 20
0.0000000000001137
 30
0.0
 11
-527.90000000010082
 21
0.8000000000998853
 31
0.0
  0
LINE
  8
DETAIL
  6
CONTINUOUS
 62
     5
 10
-527.90000000010082
 20
1.600000000200112
 30
0.0
 11
-527.90000000010082
 21
137.00000000010019
 31
0.0
  0
LINE
  8
DETAIL
  6
CONTINUOUS
 62
     5
 10
-529.50000000000057
 20
137.00000000010019
 30
0.0
 11
-529.50000000000057
 21
0.5999999999997954
 31
0.0
  0
LINE
  8
DETAIL
  6
CONTINUOUS
 62
     5
 10
-531.80000000010079
 20
101.5000000002
 30
0.0
 11
-531.80000000010079
 21
0.5999999999997954
 31
0.0
  0
LINE
  8
DETAIL
  6
CONTINUOUS
 62
     5
 10
-532.29999999990059
 20
16.50000000000011
 30
0.0
 11
-532.29999999990059
 21
6.5000000001001581
 31
0.0
  0
LINE
  8
DETAIL
  6
CONTINUOUS
 62
     5
 10
-538.80000000000064
 20
4.5500000000998844
 30
0.0
 11
-538.80000000000064
 21
18.449999999999921
 31
0.0
  0
LINE
  8
DETAIL
  6
CONTINUOUS
 62
     5
 10
-541.80000000000064
 20
4.5500000000998844
 30
0.0
 11
-541.80000000000064
 21
18.449999999999921
 31
0.0
  0
LINE
  8
DETAIL
  6
CONTINUOUS
 62
     5
 10
-585.20000000010043
 20
101.5000000002
 30
0.0
 11
-585.20000000010043
 21
94.500000000000128
 31
0.0
  0
LINE
  8
DETAIL
  6
CONTINUOUS
 62
     5
 10
-587.49999999990041
 20
99.200000000099948
 30
0.0
 11
-587.49999999990041
 21
94.500000000000128
 31
0.0
  0
ARC
  8
DETAIL
  6
CONTINUOUS
 62
     5
 10
585.20000000009941
 20
99.200000000099948
 30
0.0
 40
2.3000000000999998
 50
0.0
 51
90.0
  0
ARC
  8
DETAIL
  6
CONTINUOUS
 62
     5
 10
531.80000000009977
 20
99.200000000099948
 30
0.0
 40
2.3000000000999998
 50
90.0
 51
180.0
  0
ARC
  8
DETAIL
  6
CONTINUOUS
 62
     5
 10
527.90000000009923
 20
1.600000000200112
 30
0.0
 40
1.5999999999000001
 50
270.0
 51
0.0
  0
ARC
  8
DETAIL
  6
CONTINUOUS
 62
     5
 10
527.90000000009923
 20
1.600000000200112
 30
0.0
 40
0.8000000001000001
 50
270.0
 51
0.0
  0
ARC
  8
DETAIL
  6
CONTINUOUS
 62
     5
 10
515.30000000009977
 20
0.8000000000998853
 30
0.0
 40
0.8000000001000001
 50
90.0
 51
270.0
  0
ARC
  8
DETAIL
  6
CONTINUOUS
 62
     5
 10
532.29999999989968
 20
7.0000000001999751
 30
0.0
 40
0.5000000001
 50
180.0
 51
270.0
  0
ARC
  8
DETAIL
  6
CONTINUOUS
 62
     5
 10
532.29999999989968
 20
16.000000000199979
 30
0.0
 40
0.5000000001
 50
90.0
 51
165.0005990486998
  0
ARC
  8
DETAIL
  6
CONTINUOUS
 62
     5
 10
-585.20000000010043
 20
99.200000000099948
 30
0.0
 40
2.3000000000999998
 50
90.0
 51
180.0
  0
ARC
  8
DETAIL
  6
CONTINUOUS
 62
     5
 10
-531.80000000010079
 20
99.200000000099948
 30
0.0
 40
2.3000000000999998
 50
0.0
 51
90.0
  0
ARC
  8
DETAIL
  6
CONTINUOUS
 62
     5
 10
-35.500000000000682
 20
5.8000000001999297
 30
0.0
 40
11.0000000001
 50
8.2333789090971532
 51
90.0
  0
ARC
  8
DETAIL
  6
CONTINUOUS
 62
     5
 10
-54.499999999900638
 20
5.8000000001999297
 30
0.0
 40
11.0000000001
 50
90.0
 51
171.76662109090279
  0
ARC
  8
DETAIL
  6
CONTINUOUS
 62
     5
 10
-54.499999999900638
 20
5.8000000001999297
 30
0.0
 40
8.0000000001
 50
90.0
 51
168.64381829440919
  0
ARC
  8
DETAIL
  6
CONTINUOUS
 62
     5
 10
-35.500000000000682
 20
5.8000000001999297
 30
0.0
 40
8.0000000001
 50
11.35618170559084
 51
90.0
  0
ARC
  8
DETAIL
  6
CONTINUOUS
 62
     5
 10
-35.500000000000682
 20
5.8000000001999297
 30
0.0
 40
5.0000000001
 50
0.0
 51
90.0
  0
ARC
  8
DETAIL
  6
CONTINUOUS
 62
     5
 10
-54.499999999900638
 20
5.8000000001999297
 30
0.0
 40
5.0000000001
 50
90.0
 51
180.0
  0
ARC
  8
DETAIL
  6
CONTINUOUS
 62
     5
 10
-49.800000000099772
 20
3.9000000000002051
 30
0.0
 40
3.0999999999000001
 50
90.0
 51
180.0
  0
ARC
  8
DETAIL
  6
CONTINUOUS
 62
     5
 10
-40.200000000099642
 20
3.9000000000002051
 30
0.0
 40
3.0999999999000001
 50
0.0
 51
90.0
  0
ARC
  8
DETAIL
  6
CONTINUOUS
 62
     5
 10
-527.90000000010082
 20
1.600000000200112
 30
0.0
 40
1.5999999999000001
 50
180.0
 51
270.0
  0
ARC
  8
DETAIL
  6
CONTINUOUS
 62
     5
 10
-527.90000000010082
 20
1.600000000200112
 30
0.0
 40
0.8000000001000001
 50
180.0
 51
270.0
  0
ARC
  8
DETAIL
  6
CONTINUOUS
 62
     5
 10
-515.30000000010079
 20
0.8000000000998853
 30
0.0
 40
0.8000000001000001
 50
270.0
 51
90.0
  0
ARC
  8
DETAIL
  6
CONTINUOUS
 62
     5
 10
-532.29999999990059
 20
16.000000000199979
 30
0.0
 40
0.5000000001
 50
14.99940095130026
 51
90.0
  0
ARC
  8
DETAIL
  6
CONTINUOUS
 62
     5
 10
-532.29999999990059
 20
7.0000000001999751
 30
0.0
 40
0.5000000001
 50
270.0
 51
0.0
  0
LINE
  8
BASIS
  6
DASHDOT
 62
     6
 10
-0.0000000000004547
 20
181.39951414990949
 30
0.0
 11
-0.0000000000006821
 21
-138.6119647200795
 31
0.0
  0
LINE
  8
NOTE
  6
DASHDOT
 62
     4
 10
-565.50000000000057
 20
127.3804315644265
 30
0.0
 11
-565.5000000000008
 21
68.12000953510676
 31
0.0
  0
CIRCLE
  8
FIX
  6
CONTINUOUS
 62
    11
 10
-565.50000000000057
 20
101.5000000002
 30
0.0
 40
5.0
  0
LINE
  8
NOTE
  6
DASHDOT
 62
     4
 10
565.49999999999966
 20
127.3804315644265
 30
0.0
 11
565.49999999999977
 21
68.12000953510676
 31
0.0
  0
CIRCLE
  8
FIX
  6
CONTINUOUS
 62
    11
 10
565.49999999999966
 20
101.5000000002
 30
0.0
 40
5.0
  0
LINE
  8
SIZE
  6
CONTINUOUS
 62
    30
 10
-565.50000000000057
 20
147.3804315644264
 30
0.0
 11
-565.50000000000057
 21
360.3831849675679
 31
0.0
  0
LINE
  8
SIZE
  6
CONTINUOUS
 62
    30
 10
565.49999999999966
 20
147.3804315644264
 30
0.0
 11
565.49999999999966
 21
360.3831849675679
 31
0.0
  0
LINE
  8
SIZE
  6
CONTINUOUS
 62
    30
 10
-553.50000000000057
 20
340.38318496756779
 30
0.0
 11
553.49999999999966
 21
340.38318496756779
 31
0.0
  0
CIRCLE
  8
SIZE
  6
CONTINUOUS
 62
    30
 10
-565.50000000000057
 20
340.38318496756779
 30
0.0
 40
6.0
  0
LINE
  8
SIZE
  6
CONTINUOUS
 62
    30
 10
-565.50000000000057
 20
340.38318496756779
 30
0.0
 11
-553.50000000000057
 21
340.38318496756779
 31
0.0
  0
CIRCLE
  8
SIZE
  6
CONTINUOUS
 62
    30
 10
565.49999999999966
 20
340.38318496756779
 30
0.0
 40
6.0
  0
LINE
  8
SIZE
  6
CONTINUOUS
 62
    30
 10
565.49999999999966
 20
340.38318496756779
 30
0.0
 11
553.49999999999966
 21
340.38318496756779
 31
0.0
  0
TEXT
  8
SIZE
  6
CONTINUOUS
 62
    30
 10
-78.171428571429018
 20
365.3831849675679
 30
0.0
 40
64.0
  1
1131
 41
0.9
 72
     1
 11
-0.0000000000004547
 21
365.3831849675679
 31
0.0
  0
LINE
  8
SIZE
  6
CONTINUOUS
 62
    30
 10
-529.50000000000057
 20
157.00000000010019
 30
0.0
 11
-529.50000000000057
 21
221.46443843866101
 31
0.0
  0
LINE
  8
SIZE
  6
CONTINUOUS
 62
    30
 10
529.49999999999966
 20
157.00000000010019
 30
0.0
 11
529.49999999999966
 21
221.46443843866101
 31
0.0
  0
LINE
  8
SIZE
  6
CONTINUOUS
 62
    30
 10
-517.50000000000057
 20
201.46443843866101
 30
0.0
 11
517.49999999999966
 21
201.46443843866101
 31
0.0
  0
CIRCLE
  8
SIZE
  6
CONTINUOUS
 62
    30
 10
-529.50000000000057
 20
201.46443843866101
 30
0.0
 40
6.0
  0
LINE
  8
SIZE
  6
CONTINUOUS
 62
    30
 10
-529.50000000000057
 20
201.46443843866101
 30
0.0
 11
-517.50000000000057
 21
201.46443843866101
 31
0.0
  0
CIRCLE
  8
SIZE
  6
CONTINUOUS
 62
    30
 10
529.49999999999966
 20
201.46443843866101
 30
0.0
 40
6.0
  0
LINE
  8
SIZE
  6
CONTINUOUS
 62
    30
 10
529.49999999999966
 20
201.46443843866101
 30
0.0
 11
517.49999999999966
 21
201.46443843866101
 31
0.0
  0
TEXT
  8
SIZE
  6
CONTINUOUS
 62
    30
 10
-94.628571428571888
 20
226.46443843866101
 30
0.0
 40
64.0
  1
1059
 41
0.9
 72
     1
 11
-0.0000000000004547
 21
226.46443843866101
 31
0.0
  0
LINE
  8
SIZE
  6
CONTINUOUS
 62
    30
 10
587.50000000019941
 20
119.2000000001
 30
0.0
 11
587.50000000019941
 21
473.34855247235282
 31
0.0
  0
LINE
  8
SIZE
  6
CONTINUOUS
 62
    30
 10
-587.49999999990041
 20
119.2000000001
 30
0.0
 11
-587.49999999990041
 21
473.34855247235282
 31
0.0
  0
LINE
  8
SIZE
  6
CONTINUOUS
 62
    30
 10
575.50000000019941
 20
453.34855247235282
 30
0.0
 11
-575.49999999990041
 21
453.34855247235282
 31
0.0
  0
CIRCLE
  8
SIZE
  6
CONTINUOUS
 62
    30
 10
587.50000000019941
 20
453.34855247235282
 30
0.0
 40
6.0
  0
LINE
  8
SIZE
  6
CONTINUOUS
 62
    30
 10
587.50000000019941
 20
453.34855247235282
 30
0.0
 11
575.50000000019941
 21
453.34855247235282
 31
0.0
  0
CIRCLE
  8
SIZE
  6
CONTINUOUS
 62
    30
 10
-587.49999999990041
 20
453.34855247235282
 30
0.0
 40
6.0
  0
LINE
  8
SIZE
  6
CONTINUOUS
 62
    30
 10
-587.49999999990041
 20
453.34855247235282
 30
0.0
 11
-575.49999999990041
 21
453.34855247235282
 31
0.0
  0
TEXT
  8
SIZE
  6
CONTINUOUS
 62
    30
 10
-90.514285714136093
 20
478.34855247235282
 30
0.0
 40
64.0
  1
1175
 41
0.9
 72
     1
 11
0.0000000001496119
 21
478.34855247235282
 31
0.0
  0
LINE
  8
SIZE
  6
CONTINUOUS
 62
    30
 10
605.20000000009941
 20
101.5000000002
 30
0.0
 11
763.41107315195313
 21
101.5000000002
 31
0.0
  0
LINE
  8
SIZE
  6
CONTINUOUS
 62
    30
 10
549.49999999999966
 20
137.00000000010019
 30
0.0
 11
763.41107315195313
 21
137.0000000001001
 31
0.0
  0
LINE
  8
SIZE
  6
CONTINUOUS
 62
    30
 10
743.41107315195313
 20
89.500000000199961
 30
0.0
 11
743.41107315195313
 21
77.500000000199961
 31
0.0
  0
LINE
  8
SIZE
  6
CONTINUOUS
 62
    30
 10
743.41107315195313
 20
149.0000000001001
 30
0.0
 11
743.41107315195313
 21
386.54285714295708
 31
0.0
  0
LINE
  8
SIZE
  6
CONTINUOUS
 62
    30
 10
743.41107315195313
 20
101.5000000002
 30
0.0
 11
743.41107315195313
 21
137.0000000001001
 31
0.0
  0
CIRCLE
  8
SIZE
  6
CONTINUOUS
 62
    30
 10
743.41107315195313
 20
101.5000000002
 30
0.0
 40
6.0
  0
LINE
  8
SIZE
  6
CONTINUOUS
 62
    30
 10
743.41107315195313
 20
101.5000000002
 30
0.0
 11
743.41107315195313
 21
89.500000000199961
 31
0.0
  0
CIRCLE
  8
SIZE
  6
CONTINUOUS
 62
    30
 10
743.41107315195313
 20
137.0000000001001
 30
0.0
 40
6.0
  0
LINE
  8
SIZE
  6
CONTINUOUS
 62
    30
 10
743.41107315195313
 20
137.0000000001001
 30
0.0
 11
743.41107315195313
 21
149.0000000001001
 31
0.0
  0
TEXT
  8
SIZE
  6
CONTINUOUS
 62
    30
 10
718.41107315195313
 20
186.00000000010019
 30
0.0
 40
64.0
  1
35.5
 50
90.0
 41
0.9
 72
     1
 11
718.41107315195313
 21
273.77142857152882
 31
0.0
  0
LINE
  8
SIZE
  6
CONTINUOUS
 62
    30
 10
549.49999999999966
 20
137.0000000001001
 30
0.0
 11
874.88954837190522
 21
137.00000000009999
 31
0.0
  0
LINE
  8
SIZE
  6
CONTINUOUS
 62
    30
 10
854.88954837190522
 20
12.0
 30
0.0
 11
854.88954837190522
 21
125.0000000001
 31
0.0
  0
LINE
  8
SIZE
  6
CONTINUOUS
 62
    30
 10
854.88954837190522
 20
137.00000000009999
 30
0.0
 11
854.88954837190522
 21
336.14285714325717
 31
0.0
  0
CIRCLE
  8
SIZE
  6
CONTINUOUS
 62
    30
 10
854.88954837190522
 20
0.0
 30
0.0
 40
6.0
  0
LINE
  8
SIZE
  6
CONTINUOUS
 62
    30
 10
854.88954837190522
 20
0.0
 30
0.0
 11
854.88954837190522
 21
12.0
 31
0.0
  0
CIRCLE
  8
SIZE
  6
CONTINUOUS
 62
    30
 10
854.88954837190522
 20
137.00000000009999
 30
0.0
 40
6.0
  0
LINE
  8
SIZE
  6
CONTINUOUS
 62
    30
 10
854.88954837190522
 20
137.00000000009999
 30
0.0
 11
854.88954837190522
 21
125.0000000001
 31
0.0
  0
TEXT
  8
SIZE
  6
CONTINUOUS
 62
    30
 10
829.88954837190522
 20
174.00000000040021
 30
0.0
 40
64.0
  1
137
 50
90.0
 41
0.9
 72
     1
 11
829.88954837190522
 21
242.57142857182879
 31
0.0
  0
LINE
  8
SIZE
  6
CONTINUOUS
 62
    30
 10
547.90000000009923
 20
0.0000000003001333
 30
0.0
 11
874.88954837190522
 21
0.0000000003000196
 31
0.0
  0
LINE
  8
SIZE
  6
CONTINUOUS
 62
    30
 10
854.88954837190522
 20
12.00000000030002
 30
0.0
 11
854.88954837190522
 21
24.00000000030002
 31
0.0
  0
CIRCLE
  8
SIZE
  6
CONTINUOUS
 62
    30
 10
854.88954837190522
 20
0.0000000003000196
 30
0.0
 40
6.0
  0
LINE
  8
SIZE
  6
CONTINUOUS
 62
    30
 10
854.88954837190522
 20
0.0000000003000196
 30
0.0
 11
854.88954837190522
 21
12.00000000030002
 31
0.0
  0
LINE
  8
NOTE
  6
CONTINUOUS
 62
     4
 10
-274.63168200009977
 20
-185.13052699980011
 30
0.0
 11
-154.49117200009979
 21
-185.13052699980011
 31
0.0
  0
TEXT
  8
NOTE
  6
CONTINUOUS
 62
     4
 10
-255.80282100009981
 20
-156.32187799979999
 30
0.0
 40
64.0
  1
EL
 41
0.9
  0
LINE
  8
NOTE
  6
CONTINUOUS
 62
     4
 10
-45.00000000009959
 20
7.0000000001999751
 30
0.0
 11
-154.49117200009979
 21
-185.13052699980011
 31
0.0
  0
LINE
  8
NOTE
  6
CONTINUOUS
 62
     4
 10
-55.488493000099879
 20
-31.60040799979981
 30
0.0
 11
-45.00000000009959
 21
7.0000000001999751
 31
0.0
  0
LINE
  8
NOTE
  6
CONTINUOUS
 62
     4
 10
-45.00000000009959
 20
7.0000000001999751
 30
0.0
 11
-73.383506000099942
 21
-21.184686999799961
 31
0.0
  0
LINE
  8
NOTE
  6
CONTINUOUS
 62
     4
 10
-565.50000000000057
 20
101.5000000002
 30
0.0
 11
-755.93508890271335
 21
-158.81504699979979
 31
0.0
  0
TEXT
  8
NOTE
  6
CONTINUOUS
 62
     4
 10
-1402.039873433207
 20
-130.00639799979999
 30
0.0
 40
64.0
  1
AH 4-(12×22)
 41
0.9
  0
LINE
  8
NOTE
  6
CONTINUOUS
 62
     4
 10
-755.93508890271335
 20
-158.81504699979979
 30
0.0
 11
-1424.878350792676
 21
-158.81504699979979
 31
0.0
  0
LINE
  8
NOTE
  6
CONTINUOUS
 62
     4
 10
-580.07012942237225
 20
64.248002525049259
 30
0.0
 11
-565.50000000000057
 21
101.5000000002
 31
0.0
  0
LINE
  8
NOTE
  6
CONTINUOUS
 62
     4
 10
-565.50000000000057
 20
101.5000000002
 30
0.0
 11
-596.74410165705012
 21
76.523888861383924
 31
0.0
  0
LINE
  8
OUTLINE
  6
CONTINUOUS
 62
     3
 10
587.49999999990041
 20
99.200000000099948
 30
0.0
 11
587.49999999990041
 21
94.500000000000128
 31
0.0
  0
LINE
  8
OUTLINE
  6
CONTINUOUS
 62
     3
 10
585.20000000009941
 20
99.200000000099948
 30
0.0
 11
585.20000000009941
 21
94.500000000000128
 31
0.0
  0
LINE
  8
OUTLINE
  6
CONTINUOUS
 62
     3
 10
541.79999999999973
 20
18.449999999999921
 30
0.0
 11
541.79999999999973
 21
4.5500000000998844
 31
0.0
  0
LINE
  8
OUTLINE
  6
CONTINUOUS
 62
     3
 10
538.79999999999973
 20
18.449999999999921
 30
0.0
 11
538.79999999999973
 21
16.50000000000011
 31
0.0
  0
LINE
  8
OUTLINE
  6
CONTINUOUS
 62
     3
 10
538.79999999999973
 20
6.5000000001001581
 30
0.0
 11
538.79999999999973
 21
4.5500000000998844
 31
0.0
  0
LINE
  8
OUTLINE
  6
CONTINUOUS
 62
     3
 10
531.80000000009977
 20
90.547308806699903
 30
0.0
 11
531.80000000009977
 21
15.999982676282229
 31
0.0
  0
LINE
  8
OUTLINE
  6
CONTINUOUS
 62
     3
 10
531.80000000009977
 20
6.9999826762822286
 30
0.0
 11
531.80000000009977
 21
0.5999999999997954
 31
0.0
  0
LINE
  8
OUTLINE
  6
CONTINUOUS
 62
     3
 10
529.49999999999966
 20
137.00000000010019
 30
0.0
 11
529.49999999999966
 21
99.200000000099948
 31
0.0
  0
LINE
  8
OUTLINE
  6
CONTINUOUS
 62
     3
 10
540.4526911934995
 20
99.200000000099948
 30
0.0
 11
531.80000000009977
 21
90.547308806699988
 31
0.0
  0
LINE
  8
OUTLINE
  6
CONTINUOUS
 62
     3
 10
-529.50000000000057
 20
137.00000000010019
 30
0.0
 11
529.49999999999966
 21
137.00000000010019
 31
0.0
  0
LINE
  8
OUTLINE
  6
CONTINUOUS
 62
     3
 10
531.80000000009977
 20
101.5000000002
 30
0.0
 11
585.20000000009941
 21
101.5000000002
 31
0.0
  0
LINE
  8
OUTLINE
  6
CONTINUOUS
 62
     3
 10
-531.80000000010079
 20
101.5000000002
 30
0.0
 11
-585.20000000010043
 21
101.5000000002
 31
0.0
  0
LINE
  8
OUTLINE
  6
CONTINUOUS
 62
     3
 10
585.20000000009941
 20
99.200000000099948
 30
0.0
 11
540.4526911934995
 21
99.200000000099948
 31
0.0
  0
LINE
  8
OUTLINE
  6
CONTINUOUS
 62
     3
 10
-540.45269119350041
 20
99.200000000099948
 30
0.0
 11
-585.20000000010043
 21
99.200000000099948
 31
0.0
  0
LINE
  8
OUTLINE
  6
CONTINUOUS
 62
     3
 10
-587.49999999990041
 20
94.500000000000128
 30
0.0
 11
-585.20000000010043
 21
94.500000000000128
 31
0.0
  0
LINE
  8
OUTLINE
  6
CONTINUOUS
 62
     3
 10
587.49999999990041
 20
94.500000000000128
 30
0.0
 11
585.20000000009941
 21
94.500000000000128
 31
0.0
  0
LINE
  8
OUTLINE
  6
CONTINUOUS
 62
     3
 10
538.79999999999973
 20
18.449999999999921
 30
0.0
 11
541.79999999999973
 21
18.449999999999921
 31
0.0
  0
LINE
  8
OUTLINE
  6
CONTINUOUS
 62
     3
 10
-538.80000000000064
 20
18.449999999999921
 30
0.0
 11
-541.80000000000064
 21
18.449999999999921
 31
0.0
  0
LINE
  8
OUTLINE
  6
CONTINUOUS
 62
     3
 10
532.29999999989968
 20
16.50000000000011
 30
0.0
 11
538.79999999999973
 21
16.50000000000011
 31
0.0
  0
LINE
  8
OUTLINE
  6
CONTINUOUS
 62
     3
 10
-532.29999999990059
 20
16.50000000000011
 30
0.0
 11
-538.80000000000064
 21
16.50000000000011
 31
0.0
  0
LINE
  8
OUTLINE
  6
CONTINUOUS
 62
     3
 10
532.29999999989968
 20
6.5000000001001581
 30
0.0
 11
538.79999999999973
 21
6.5000000001001581
 31
0.0
  0
LINE
  8
OUTLINE
  6
CONTINUOUS
 62
     3
 10
-532.29999999990059
 20
6.5000000001001581
 30
0.0
 11
-538.80000000000064
 21
6.5000000001001581
 31
0.0
  0
LINE
  8
OUTLINE
  6
CONTINUOUS
 62
     3
 10
538.79999999999973
 20
4.5500000000998844
 30
0.0
 11
541.79999999999973
 21
4.5500000000998844
 31
0.0
  0
LINE
  8
OUTLINE
  6
CONTINUOUS
 62
     3
 10
-538.80000000000064
 20
4.5500000000998844
 30
0.0
 11
-541.80000000000064
 21
4.5500000000998844
 31
0.0
  0
LINE
  8
OUTLINE
  6
CONTINUOUS
 62
     3
 10
531.80000000009977
 20
0.5999999999997954
 30
0.0
 11
529.14746930639967
 21
0.5999999999997954
 31
0.0
  0
LINE
  8
OUTLINE
  6
CONTINUOUS
 62
     3
 10
-529.14746930640058
 20
0.5999999999997954
 30
0.0
 11
-531.80000000010079
 21
0.5999999999997954
 31
0.0
  0
LINE
  8
OUTLINE
  6
CONTINUOUS
 62
     3
 10
-527.90000000010093
 20
0.0000000000001137
 30
0.0
 11
527.90000000009923
 21
0.0000000000001137
 31
0.0
  0
LINE
  8
OUTLINE
  6
CONTINUOUS
 62
     3
 10
-540.45269119350041
 20
99.200000000099948
 30
0.0
 11
-531.80000000010079
 21
90.547308806699988
 31
0.0
  0
LINE
  8
OUTLINE
  6
CONTINUOUS
 62
     3
 10
-529.50000000000057
 20
137.00000000010019
 30
0.0
 11
-529.5000000000008
 21
99.200000000099948
 31
0.0
  0
LINE
  8
OUTLINE
  6
CONTINUOUS
 62
     3
 10
-531.80000000010079
 20
90.547308806699988
 30
0.0
 11
-531.80000000010079
 21
15.999982675284169
 31
0.0
  0
LINE
  8
OUTLINE
  6
CONTINUOUS
 62
     3
 10
-531.80000000010079
 20
6.9999826752713261
 30
0.0
 11
-531.80000000010079
 21
0.5999999999997954
 31
0.0
  0
LINE
  8
OUTLINE
  6
CONTINUOUS
 62
     3
 10
-538.80000000000064
 20
4.5500000000998844
 30
0.0
 11
-538.80000000000064
 21
6.5000000001001581
 31
0.0
  0
LINE
  8
OUTLINE
  6
CONTINUOUS
 62
     3
 10
-538.80000000000064
 20
16.50000000000011
 30
0.0
 11
-538.80000000000064
 21
18.449999999999921
 31
0.0
  0
LINE
  8
OUTLINE
  6
CONTINUOUS
 62
     3
 10
-541.80000000000064
 20
4.5500000000998844
 30
0.0
 11
-541.80000000000064
 21
18.449999999999921
 31
0.0
  0
LINE
  8
OUTLINE
  6
CONTINUOUS
 62
     3
 10
-585.20000000010043
 20
99.200000000099948
 30
0.0
 11
-585.20000000010043
 21
94.500000000000128
 31
0.0
  0
LINE
  8
OUTLINE
  6
CONTINUOUS
 62
     3
 10
-587.49999999990041
 20
99.200000000099948
 30
0.0
 11
-587.49999999990041
 21
94.500000000000128
 31
0.0
  0
ARC
  8
OUTLINE
  6
CONTINUOUS
 62
     3
 10
585.20000000009941
 20
99.200000000099948
 30
0.0
 40
2.3000000000999998
 50
0.0
 51
90.0
  0
ARC
  8
OUTLINE
  6
CONTINUOUS
 62
     3
 10
531.80000000009977
 20
99.200000000099948
 30
0.0
 40
2.3000000000999998
 50
90.0
 51
180.0
  0
ARC
  8
OUTLINE
  6
CONTINUOUS
 62
     3
 10
527.90000000009923
 20
1.600000000200112
 30
0.0
 40
1.5999999999000001
 50
270.0
 51
321.3178125344532
  0
ARC
  8
OUTLINE
  6
CONTINUOUS
 62
     3
 10
532.29999999989968
 20
7.0000000001999751
 30
0.0
 40
0.5000000001
 50
180.0
 51
270.0
  0
ARC
  8
OUTLINE
  6
CONTINUOUS
 62
     3
 10
532.29999999989968
 20
16.000000000199979
 30
0.0
 40
0.5000000001
 50
90.0
 51
180.00194275653899
  0
ARC
  8
OUTLINE
  6
CONTINUOUS
 62
     3
 10
-585.20000000010043
 20
99.200000000099948
 30
0.0
 40
2.3000000000999998
 50
90.0
 51
180.0
  0
ARC
  8
OUTLINE
  6
CONTINUOUS
 62
     3
 10
-531.80000000010079
 20
99.200000000099948
 30
0.0
 40
2.3000000000999998
 50
0.0
 51
90.0
  0
ARC
  8
OUTLINE
  6
CONTINUOUS
 62
     3
 10
-527.90000000010093
 20
1.600000000200112
 30
0.0
 40
1.5999999999000001
 50
218.6821874655468
 51
270.0
  0
ARC
  8
OUTLINE
  6
CONTINUOUS
 62
     3
 10
-532.29999999990059
 20
16.000000000199979
 30
0.0
 40
0.5000000001
 50
359.99805712162077
 51
90.0
  0
ARC
  8
OUTLINE
  6
CONTINUOUS
 62
     3
 10
-532.29999999990059
 20
7.0000000001999751
 30
0.0
 40
0.5000000001
 50
270.0
 51
0.0
  0
ENDSEC
  0
EOF
