  0
SECTION
  2
HEADER
  9
$ACADVER
  1
AC1009
  9
$DWGCODEPAGE
  3
dos932
  9
$INSBASE
 10
0.0
 20
0.0
 30
0.0
  9
$EXTMIN
 10
-1302.441001482126
 20
-499.08694690236013
 30
0.0
  9
$EXTMAX
 10
1193.757766171866
 20
933.02895307276651
 30
50.0
  9
$LIMMIN
 10
-2970.0
 20
-2100.0
  9
$LIMMAX
 10
2970.0
 20
2100.0
  9
$ORTHOMODE
 70
     1
  9
$REGENMODE
 70
     1
  9
$FILLMODE
 70
     1
  9
$QTEXTMODE
 70
     0
  9
$MIRRTEXT
 70
     0
  9
$LTSCALE
 40
20.0
  9
$ATTMODE
 70
     1
  9
$TEXTSIZE
 40
64.0
  9
$TRACEWID
 40
0.05
  9
$TEXTSTYLE
  7
STANDARD
  9
$CLAYER
  8
SIZE
  9
$CELTYPE
  6
CONTINUOUS
  9
$CECOLOR
 62
     7
  9
$DIMSCALE
 40
1.0
  9
$DIMASZ
 40
12.0
  9
$DIMEXO
 40
20.0
  9
$DIMDLI
 40
200.0
  9
$DIMRND
 40
0.0
  9
$DIMDLE
 40
0.0
  9
$DIMEXE
 40
20.0
  9
$DIMTP
 40
0.0
  9
$DIMTM
 40
0.0
  9
$DIMTXT
 40
64.0
  9
$DIMCEN
 40
0.09
  9
$DIMTSZ
 40
0.0
  9
$DIMTOL
 70
     0
  9
$DIMLIM
 70
     0
  9
$DIMTIH
 70
     0
  9
$DIMTOH
 70
     0
  9
$DIMSE1
 70
     0
  9
$DIMSE2
 70
     0
  9
$DIMTAD
 70
     1
  9
$DIMZIN
 70
     8
  9
$DIMBLK
  1

  9
$DIMASO
 70
     1
  9
$DIMSHO
 70
     0
  9
$DIMPOST
  1

  9
$DIMAPOST
  1

  9
$DIMALT
 70
     0
  9
$DIMALTD
 70
     2
  9
$DIMALTF
 40
25.399999999999999
  9
$DIMLFAC
 40
1.0
  9
$DIMTOFL
 70
     1
  9
$DIMTVP
 40
0.0
  9
$DIMTIX
 70
     1
  9
$DIMSOXD
 70
     0
  9
$DIMSAH
 70
     0
  9
$DIMBLK1
  1

  9
$DIMBLK2
  1

  9
$DIMSTYLE
  2
STANDARD
  9
$DIMCLRD
 70
     7
  9
$DIMCLRE
 70
     7
  9
$DIMCLRT
 70
     7
  9
$DIMTFAC
 40
1.0
  9
$DIMGAP
 40
25.0
  9
$LUNITS
 70
     2
  9
$LUPREC
 70
     4
  9
$SKETCHINC
 40
0.1
  9
$FILLETRAD
 40
3.0
  9
$AUNITS
 70
     1
  9
$AUPREC
 70
     3
  9
$MENU
  1
ACAD
  9
$ELEVATION
 40
0.0
  9
$PELEVATION
 40
0.0
  9
$THICKNESS
 40
0.0
  9
$LIMCHECK
 70
     0
  9
$CHAMFERA
 40
0.0
  9
$CHAMFERB
 40
0.0
  9
$SKPOLY
 70
     0
  9
$TDCREATE
 40
2453019.623009259
  9
$TDUPDATE
 40
2459291.62981522
  9
$TDINDWG
 40
1.7172729282
  9
$TDUSRTIMER
 40
1.7172729282
  9
$USRTIMER
 70
     1
  9
$ANGBASE
 50
0.0
  9
$ANGDIR
 70
     0
  9
$PDMODE
 70
     3
  9
$PDSIZE
 40
-2.0
  9
$PLINEWID
 40
0.0
  9
$SPLFRAME
 70
     0
  9
$SPLINETYPE
 70
     6
  9
$SPLINESEGS
 70
     8
  9
$SURFTAB1
 70
     6
  9
$SURFTAB2
 70
     6
  9
$SURFTYPE
 70
     6
  9
$SURFU
 70
     6
  9
$SURFV
 70
     6
  9
$UCSNAME
  2

  9
$UCSORG
 10
0.0
 20
0.0
 30
0.0
  9
$UCSXDIR
 10
1.0
 20
0.0
 30
0.0
  9
$UCSYDIR
 10
0.0
 20
1.0
 30
0.0
  9
$PUCSNAME
  2

  9
$PUCSORG
 10
0.0
 20
0.0
 30
0.0
  9
$PUCSXDIR
 10
1.0
 20
0.0
 30
0.0
  9
$PUCSYDIR
 10
0.0
 20
1.0
 30
0.0
  9
$USERI1
 70
     0
  9
$USERI2
 70
     0
  9
$USERI3
 70
     0
  9
$USERI4
 70
     0
  9
$USERI5
 70
     0
  9
$USERR1
 40
20.0
  9
$USERR2
 40
0.0
  9
$USERR3
 40
0.0
  9
$USERR4
 40
0.0
  9
$USERR5
 40
0.0
  9
$WORLDVIEW
 70
     1
  9
$SHADEDGE
 70
     3
  9
$SHADEDIF
 70
    70
  9
$TILEMODE
 70
     1
  9
$MAXACTVP
 70
    48
  9
$PINSBASE
 10
0.0
 20
0.0
 30
0.0
  9
$PLIMCHECK
 70
     0
  9
$PEXTMIN
 10
-100000000000000000000.0
 20
-100000000000000000000.0
 30
-100000000000000000000.0
  9
$PEXTMAX
 10
100000000000000000000.0
 20
100000000000000000000.0
 30
100000000000000000000.0
  9
$PLIMMIN
 10
0.0
 20
0.0
  9
$PLIMMAX
 10
12.0
 20
9.0
  9
$UNITMODE
 70
     0
  9
$VISRETAIN
 70
     0
  9
$PLINEGEN
 70
     0
  9
$PSLTSCALE
 70
     0
  9
$TREEDEPTH
 70
  3020
  9
$ATTDIA
 70
     0
  9
$ATTREQ
 70
     1
  9
$BLIPMODE
 70
     1
  9
$COORDS
 70
     1
  9
$DRAGMODE
 70
     2
  9
$OSMODE
 70
     0
  9
$HANDLING
 70
     0
  9
$HANDSEED
  5
284
  0
ENDSEC
  0
SECTION
  2
TABLES
  0
TABLE
  2
LTYPE
 70
     2
  0
LTYPE
  2
CONTINUOUS
 70
     0
  3
実線
 72
    65
 73
     0
 40
0.0
  0
LTYPE
  2
DASHDOT
 70
     0
  3
____ _ ____ _ ____ _ ____ _ ____ _ ____ _ ____
 72
    65
 73
     4
 40
5.5
 49
4.0
 49
-0.6
 49
0.3
 49
-0.6
  0
ENDTAB
  0
TABLE
  2
LAYER
 70
    12
  0
LAYER
  2
SIZE
 70
     0
 62
    30
  6
CONTINUOUS
  0
LAYER
  2
BASIS
 70
     0
 62
     6
  6
DASHDOT
  0
LAYER
  2
OUTLINE
 70
     0
 62
     3
  6
CONTINUOUS
  0
LAYER
  2
DETAIL
 70
     0
 62
     5
  6
CONTINUOUS
  0
LAYER
  2
ARRANGE
 70
     0
 62
     1
  6
CONTINUOUS
  0
LAYER
  2
ETC
 70
     0
 62
    61
  6
CONTINUOUS
  0
LAYER
  2
FIX
 70
     0
 62
    11
  6
CONTINUOUS
  0
LAYER
  2
NOTE
 70
     0
 62
     4
  6
CONTINUOUS
  0
LAYER
  2
SERVICESPACE
 70
     0
 62
     2
  6
DASHDOT
  0
LAYER
  2
0
 70
    64
 62
     7
  6
CONTINUOUS
  0
LAYER
  2
DEFPOINTS
 70
    64
 62
     7
  6
CONTINUOUS
  0
LAYER
  2
SYMBOLLINE
 70
    64
 62
    15
  6
CONTINUOUS
  0
ENDTAB
  0
TABLE
  2
STYLE
 70
     1
  0
STYLE
  2
STANDARD
 70
     0
 40
64.0
 41
0.9
 50
0.0
 71
     0
 42
64.0
  3
SIMPLEX.shx
  4
BIGFONT.shx
  0
ENDTAB
  0
TABLE
  2
APPID
 70
    20
  0
APPID
  2
ACAD
 70
     0
  0
APPID
  2
ACADANNOTATIVE
 70
     0
  0
APPID
  2
AUTOCAD_POSTSCRIPT_FIGURE
 70
     0
  0
APPID
  2
ACAD_EXEMPT_FROM_CAD_STANDARDS
 70
     0
  0
APPID
  2
ACAD_PSEXT
 70
     0
  0
APPID
  2
ACAUTHENVIRON
 70
     0
  0
APPID
  2
GENIUS_GENOENT_13
 70
     0
  0
APPID
  2
GENIUS_GENCFG_13
 70
     0
  0
APPID
  2
GENIUS_GENCFG0_13
 70
     0
  0
APPID
  2
GENIUS_GENCFG1_13
 70
     0
  0
APPID
  2
GENIUS_GENCFG2_13
 70
     0
  0
APPID
  2
GENIUS_GENCFG3_13
 70
     0
  0
APPID
  2
GENIUS_GENCFG4_13
 70
     0
  0
APPID
  2
GENIUS_GEVCFG0_13
 70
     0
  0
APPID
  2
CONTENTBLOCKICON
 70
     0
  0
APPID
  2
CONTENTBLOCKDESCRIPTION
 70
     0
  0
APPID
  2
ACAD_NAV_VCDISPLAY
 70
     0
  0
APPID
  2
ACAD_MLEADERVER
 70
     0
  0
APPID
  2
ACDBDYNAMICBLOCKTRUENAME
 70
     0
  0
APPID
  2
ACDBDYNAMICBLOCKGUID
 70
     0
  0
ENDTAB
  0
TABLE
  2
DIMSTYLE
 70
     1
  0
DIMSTYLE
  2
STANDARD
 70
     0
  3

  4

  5

  6

  7

 40
1.0
 41
12.0
 42
20.0
 43
200.0
 44
20.0
 45
0.0
 46
0.0
 47
0.0
 48
0.0
140
64.0
141
0.09
142
0.0
143
25.399999999999999
144
1.0
145
0.0
146
1.0
147
25.0
 71
     0
 72
     0
 73
     0
 74
     0
 75
     0
 76
     0
 77
     1
 78
     8
170
     0
171
     2
172
     1
173
     0
174
     1
175
     0
176
     7
177
     7
178
     7
  0
ENDTAB
  0
TABLE
  2
VIEW
 70
     1
  0
VIEW
  2
ALL
 70
     0
 40
4282.6198079999986
 10
0.0
 20
41.309904000000003
 41
5940.0
 11
0.0
 21
0.0
 31
1.0
 12
0.0
 22
0.0
 32
0.0
 42
50.0
 43
0.0
 44
0.0
 50
0.0
 71
     0
  0
ENDTAB
  0
TABLE
  2
UCS
 70
     0
  0
ENDTAB
  0
TABLE
  2
VPORT
 70
     1
  0
VPORT
  2
*ACTIVE
 70
     0
 10
0.0
 20
0.0
 11
1.0
 21
1.0
 12
-54.33072421361976
 22
216.9342141329935
 13
0.0
 23
0.0
 14
1.0
 24
1.0
 15
0.0
 25
0.0
 16
0.0
 26
0.0
 36
1.0
 17
0.0
 27
0.0
 37
0.0
 40
1441.9448223390871
 41
1.767337807606264
 42
50.0
 43
0.0
 44
0.0
 50
0.0
 51
0.0
 71
     0
 72
  1000
 73
     1
 74
     3
 75
     0
 76
     0
 77
     0
 78
     0
  0
ENDTAB
  0
ENDSEC
  0
SECTION
  2
BLOCKS
  0
ENDSEC
  0
SECTION
  2
ENTITIES
  0
TEXT
  8
ETC
  6
CONTINUOUS
 62
    61
 10
639.70062331472309
 20
869.02895307276583
 30
0.0
 40
64.0
  1
AS-412SB2_6
 41
0.9
  0
TEXT
  8
ETC
  6
CONTINUOUS
 62
    61
 10
635.5146293147227
 20
751.07364305793499
 30
0.0
 40
64.0
  1
産業扇
 41
0.9
  0
TEXT
  8
ETC
  6
CONTINUOUS
 62
    61
 10
686.21602756327866
 20
642.9248701717097
 30
0.0
 40
40.0
  1
AS-412SB2
 41
0.9
  0
LINE
  8
DETAIL
  6
CONTINUOUS
 62
     5
 10
-587.5
 20
66.000000000024102
 30
0.0
 11
-587.5
 21
53.499999999924277
 31
0.0
  0
LINE
  8
DETAIL
  6
CONTINUOUS
 62
     5
 10
-587.5
 20
41.499999999924277
 30
0.0
 11
-587.5
 21
29.00000000012415
 31
0.0
  0
LINE
  8
DETAIL
  6
CONTINUOUS
 62
     5
 10
-587.5
 20
-29.000000000075719
 30
0.0
 11
-587.5
 21
-41.499999999875847
 31
0.0
  0
LINE
  8
DETAIL
  6
CONTINUOUS
 62
     5
 10
-587.5
 20
-53.499999999875847
 30
0.0
 11
-587.5
 21
-65.999999999975898
 31
0.0
  0
LINE
  8
DETAIL
  6
CONTINUOUS
 62
     5
 10
-585.200000000199
 20
66.000000000024102
 30
0.0
 11
-585.200000000199
 21
53.499999999924277
 31
0.0
  0
LINE
  8
DETAIL
  6
CONTINUOUS
 62
     5
 10
-585.200000000199
 20
-53.499999999875847
 30
0.0
 11
-585.200000000199
 21
-65.999999999975898
 31
0.0
  0
LINE
  8
DETAIL
  6
CONTINUOUS
 62
     5
 10
-585.200000000199
 20
-41.499999999875847
 30
0.0
 11
-585.200000000199
 21
41.499999999924277
 31
0.0
  0
LINE
  8
DETAIL
  6
CONTINUOUS
 62
     5
 10
-531.80000000019936
 20
66.000000000024102
 30
0.0
 11
-531.80000000019936
 21
45.200000000124177
 31
0.0
  0
LINE
  8
DETAIL
  6
CONTINUOUS
 62
     5
 10
-531.80000000019936
 20
29.799999999924239
 30
0.0
 11
-531.80000000019936
 21
-29.799999999875581
 31
0.0
  0
LINE
  8
DETAIL
  6
CONTINUOUS
 62
     5
 10
-531.80000000019936
 20
-45.200000000075761
 30
0.0
 11
-531.80000000019936
 21
-65.999999999975898
 31
0.0
  0
LINE
  8
DETAIL
  6
CONTINUOUS
 62
     5
 10
-529.700000000199
 20
18.000000000024102
 30
0.0
 11
-529.700000000199
 21
14.00000000012415
 31
0.0
  0
LINE
  8
DETAIL
  6
CONTINUOUS
 62
     5
 10
-529.700000000199
 20
-38.000000000075723
 30
0.0
 11
-529.700000000199
 21
-41.999999999975898
 31
0.0
  0
LINE
  8
DETAIL
  6
CONTINUOUS
 62
     5
 10
-529.50000000009913
 20
-72.599999999975822
 30
0.0
 11
-529.50000000009913
 21
73.40000000012401
 31
0.0
  0
LINE
  8
DETAIL
  6
CONTINUOUS
 62
     5
 10
-528.69999999999891
 20
-72.599999999975822
 30
0.0
 11
-528.69999999999891
 21
73.40000000012401
 31
0.0
  0
LINE
  8
DETAIL
  6
CONTINUOUS
 62
     5
 10
-528.200000000199
 20
-69.399999999875931
 30
0.0
 11
-528.200000000199
 21
69.399999999924148
 31
0.0
  0
LINE
  8
DETAIL
  6
CONTINUOUS
 62
     5
 10
-527.90000000019882
 20
-74.199999999875658
 30
0.0
 11
-527.90000000019882
 21
-73.400000000075821
 31
0.0
  0
LINE
  8
DETAIL
  6
CONTINUOUS
 62
     5
 10
-527.90000000019882
 20
-72.599999999975822
 30
0.0
 11
-527.90000000019882
 21
-69.699999999875672
 31
0.0
  0
LINE
  8
DETAIL
  6
CONTINUOUS
 62
     5
 10
-527.90000000019882
 20
69.699999999924103
 30
0.0
 11
-527.90000000019882
 21
75.000000000024087
 31
0.0
  0
LINE
  8
DETAIL
  6
CONTINUOUS
 62
     5
 10
-526.20000000009998
 20
-71.399999999975762
 30
0.0
 11
-526.20000000009998
 21
-73.400000000075821
 31
0.0
  0
LINE
  8
DETAIL
  6
CONTINUOUS
 62
     5
 10
-526.20000000009998
 20
71.400000000024178
 30
0.0
 11
-526.20000000009998
 21
73.40000000012401
 31
0.0
  0
LINE
  8
DETAIL
  6
CONTINUOUS
 62
     5
 10
-525.90000000009968
 20
73.40000000012401
 30
0.0
 11
-525.90000000009968
 21
74.199999999924103
 31
0.0
  0
LINE
  8
DETAIL
  6
CONTINUOUS
 62
     5
 10
-516.50000000019918
 20
74.199999999924103
 30
0.0
 11
-516.50000000019918
 21
75.000000000024087
 31
0.0
  0
LINE
  8
DETAIL
  6
CONTINUOUS
 62
     5
 10
-514.50000000009913
 20
74.199999999924103
 30
0.0
 11
-514.50000000009913
 21
75.000000000024087
 31
0.0
  0
LINE
  8
DETAIL
  6
CONTINUOUS
 62
     5
 10
-526.20000000009998
 20
71.400000000024178
 30
0.0
 11
-528.200000000199
 21
69.399999999924148
 31
0.0
  0
LINE
  8
DETAIL
  6
CONTINUOUS
 62
     5
 10
-528.200000000199
 20
-69.399999999875931
 30
0.0
 11
-526.20000000009998
 21
-71.399999999975762
 31
0.0
  0
LINE
  8
DETAIL
  6
CONTINUOUS
 62
     5
 10
-531.80000000019936
 20
45.200000000124177
 30
0.0
 11
-539.5
 21
37.500000000024087
 31
0.0
  0
LINE
  8
DETAIL
  6
CONTINUOUS
 62
     5
 10
-531.80000000019936
 20
-45.200000000075761
 30
0.0
 11
-539.5
 21
-37.499999999975898
 31
0.0
  0
LINE
  8
DETAIL
  6
CONTINUOUS
 62
     5
 10
-531.80000000019936
 20
-29.799999999875581
 30
0.0
 11
-539.5
 21
-37.499999999975898
 31
0.0
  0
LINE
  8
DETAIL
  6
CONTINUOUS
 62
     5
 10
-531.80000000019936
 20
29.799999999924239
 30
0.0
 11
-539.5
 21
37.500000000024087
 31
0.0
  0
LINE
  8
DETAIL
  6
CONTINUOUS
 62
     5
 10
514.49999999990087
 20
-74.999999999975913
 30
0.0
 11
527.90000000000157
 21
-74.999999999975913
 31
0.0
  0
LINE
  8
DETAIL
  6
CONTINUOUS
 62
     5
 10
-527.90000000019882
 20
-74.199999999875658
 30
0.0
 11
525.8999999999005
 21
-74.199999999875658
 31
0.0
  0
LINE
  8
DETAIL
  6
CONTINUOUS
 62
     5
 10
525.8999999999005
 20
-74.199999999875658
 30
0.0
 11
527.90000000000157
 21
-74.199999999875658
 31
0.0
  0
LINE
  8
DETAIL
  6
CONTINUOUS
 62
     5
 10
-527.90000000019882
 20
-73.400000000075821
 30
0.0
 11
529.49999999990087
 21
-73.400000000075821
 31
0.0
  0
LINE
  8
DETAIL
  6
CONTINUOUS
 62
     5
 10
-528.64136041209895
 20
-72.899999999975762
 30
0.0
 11
-526.20000000009998
 21
-72.899999999975762
 31
0.0
  0
LINE
  8
DETAIL
  6
CONTINUOUS
 62
     5
 10
-529.50000000009913
 20
-72.599999999975822
 30
0.0
 11
-526.20000000009998
 21
-72.599999999975822
 31
0.0
  0
LINE
  8
DETAIL
  6
CONTINUOUS
 62
     5
 10
-526.20000000009998
 20
-71.399999999975762
 30
0.0
 11
526.1999999999008
 21
-71.399999999975762
 31
0.0
  0
LINE
  8
DETAIL
  6
CONTINUOUS
 62
     5
 10
-587.5
 20
-65.999999999975898
 30
0.0
 11
-529.50000000009913
 21
-65.999999999975898
 31
0.0
  0
LINE
  8
DETAIL
  6
CONTINUOUS
 62
     5
 10
529.49999999990087
 20
-65.999999999975898
 30
0.0
 11
587.49999999980071
 21
-65.999999999975898
 31
0.0
  0
LINE
  8
DETAIL
  6
CONTINUOUS
 62
     5
 10
587.49999999980071
 20
-53.499999999875847
 30
0.0
 11
565.49999999990087
 21
-53.499999999875847
 31
0.0
  0
LINE
  8
DETAIL
  6
CONTINUOUS
 62
     5
 10
-587.5
 20
-53.499999999875847
 30
0.0
 11
-565.50000000009913
 21
-53.499999999875847
 31
0.0
  0
LINE
  8
DETAIL
  6
CONTINUOUS
 62
     5
 10
-528.200000000199
 20
-50.000000000075723
 30
0.0
 11
-528.69999999999891
 21
-50.000000000075723
 31
0.0
  0
LINE
  8
DETAIL
  6
CONTINUOUS
 62
     5
 10
528.20000000000073
 20
-50.000000000075723
 30
0.0
 11
528.69999999980064
 21
-50.000000000075723
 31
0.0
  0
LINE
  8
DETAIL
  6
CONTINUOUS
 62
     5
 10
529.70000000000073
 20
-41.999999999975898
 30
0.0
 11
529.49999999990087
 21
-41.999999999975898
 31
0.0
  0
LINE
  8
DETAIL
  6
CONTINUOUS
 62
     5
 10
-529.700000000199
 20
-41.999999999975898
 30
0.0
 11
-529.50000000009913
 21
-41.999999999975898
 31
0.0
  0
LINE
  8
DETAIL
  6
CONTINUOUS
 62
     5
 10
587.49999999980071
 20
-41.499999999875847
 30
0.0
 11
565.49999999990087
 21
-41.499999999875847
 31
0.0
  0
LINE
  8
DETAIL
  6
CONTINUOUS
 62
     5
 10
-587.5
 20
-41.499999999875847
 30
0.0
 11
-565.50000000009913
 21
-41.499999999875847
 31
0.0
  0
LINE
  8
DETAIL
  6
CONTINUOUS
 62
     5
 10
529.70000000000073
 20
-38.000000000075723
 30
0.0
 11
529.49999999990087
 21
-38.000000000075723
 31
0.0
  0
LINE
  8
DETAIL
  6
CONTINUOUS
 62
     5
 10
-529.700000000199
 20
-38.000000000075723
 30
0.0
 11
-529.50000000009913
 21
-38.000000000075723
 31
0.0
  0
LINE
  8
DETAIL
  6
CONTINUOUS
 62
     5
 10
-529.50000000009913
 20
-37.499999999975898
 30
0.0
 11
-539.5
 21
-37.499999999975898
 31
0.0
  0
LINE
  8
DETAIL
  6
CONTINUOUS
 62
     5
 10
529.49999999990087
 20
-37.499999999975898
 30
0.0
 11
539.49999999980082
 21
-37.499999999975898
 31
0.0
  0
LINE
  8
DETAIL
  6
CONTINUOUS
 62
     5
 10
587.49999999980071
 20
-29.000000000075719
 30
0.0
 11
585.20000000000073
 21
-29.000000000075719
 31
0.0
  0
LINE
  8
DETAIL
  6
CONTINUOUS
 62
     5
 10
-587.5
 20
-29.000000000075719
 30
0.0
 11
-585.200000000199
 21
-29.000000000075719
 31
0.0
  0
LINE
  8
DETAIL
  6
CONTINUOUS
 62
     5
 10
529.70000000000073
 20
14.00000000012415
 30
0.0
 11
529.49999999990087
 21
14.00000000012415
 31
0.0
  0
LINE
  8
DETAIL
  6
CONTINUOUS
 62
     5
 10
-529.700000000199
 20
14.00000000012415
 30
0.0
 11
-529.50000000009913
 21
14.00000000012415
 31
0.0
  0
LINE
  8
DETAIL
  6
CONTINUOUS
 62
     5
 10
529.70000000000073
 20
18.000000000024102
 30
0.0
 11
529.49999999990087
 21
18.000000000024102
 31
0.0
  0
LINE
  8
DETAIL
  6
CONTINUOUS
 62
     5
 10
-529.700000000199
 20
18.000000000024102
 30
0.0
 11
-529.50000000009913
 21
18.000000000024102
 31
0.0
  0
LINE
  8
DETAIL
  6
CONTINUOUS
 62
     5
 10
-528.200000000199
 20
26.00000000012415
 30
0.0
 11
-528.69999999999891
 21
26.00000000012415
 31
0.0
  0
LINE
  8
DETAIL
  6
CONTINUOUS
 62
     5
 10
528.20000000000073
 20
26.00000000012415
 30
0.0
 11
528.69999999980064
 21
26.00000000012415
 31
0.0
  0
LINE
  8
DETAIL
  6
CONTINUOUS
 62
     5
 10
587.49999999980071
 20
29.00000000012415
 30
0.0
 11
585.20000000000073
 21
29.00000000012415
 31
0.0
  0
LINE
  8
DETAIL
  6
CONTINUOUS
 62
     5
 10
-587.5
 20
29.00000000012415
 30
0.0
 11
-585.200000000199
 21
29.00000000012415
 31
0.0
  0
LINE
  8
DETAIL
  6
CONTINUOUS
 62
     5
 10
-529.50000000009913
 20
37.500000000024087
 30
0.0
 11
-539.5
 21
37.500000000024087
 31
0.0
  0
LINE
  8
DETAIL
  6
CONTINUOUS
 62
     5
 10
529.49999999990087
 20
37.500000000024087
 30
0.0
 11
539.49999999980082
 21
37.500000000024087
 31
0.0
  0
LINE
  8
DETAIL
  6
CONTINUOUS
 62
     5
 10
587.49999999980071
 20
41.499999999924277
 30
0.0
 11
565.49999999990087
 21
41.499999999924277
 31
0.0
  0
LINE
  8
DETAIL
  6
CONTINUOUS
 62
     5
 10
-587.5
 20
41.499999999924277
 30
0.0
 11
-565.50000000009913
 21
41.499999999924277
 31
0.0
  0
LINE
  8
DETAIL
  6
CONTINUOUS
 62
     5
 10
587.49999999980071
 20
53.499999999924277
 30
0.0
 11
565.49999999990087
 21
53.499999999924277
 31
0.0
  0
LINE
  8
DETAIL
  6
CONTINUOUS
 62
     5
 10
-587.5
 20
53.499999999924277
 30
0.0
 11
-565.50000000009913
 21
53.499999999924277
 31
0.0
  0
LINE
  8
DETAIL
  6
CONTINUOUS
 62
     5
 10
-587.5
 20
66.000000000024102
 30
0.0
 11
-529.50000000009913
 21
66.000000000024102
 31
0.0
  0
LINE
  8
DETAIL
  6
CONTINUOUS
 62
     5
 10
529.49999999990087
 20
66.000000000024102
 30
0.0
 11
587.49999999980071
 21
66.000000000024102
 31
0.0
  0
LINE
  8
DETAIL
  6
CONTINUOUS
 62
     5
 10
526.1999999999008
 20
71.400000000024178
 30
0.0
 11
-526.20000000009998
 21
71.400000000024178
 31
0.0
  0
LINE
  8
DETAIL
  6
CONTINUOUS
 62
     5
 10
526.1999999999008
 20
72.600000000024224
 30
0.0
 11
529.49999999990087
 21
72.600000000024224
 31
0.0
  0
LINE
  8
DETAIL
  6
CONTINUOUS
 62
     5
 10
528.64136041220081
 20
72.900000000024178
 30
0.0
 11
526.1999999999008
 21
72.900000000024178
 31
0.0
  0
LINE
  8
DETAIL
  6
CONTINUOUS
 62
     5
 10
-529.50000000009913
 20
73.40000000012401
 30
0.0
 11
527.90000000000157
 21
73.40000000012401
 31
0.0
  0
LINE
  8
DETAIL
  6
CONTINUOUS
 62
     5
 10
527.90000000000157
 20
74.199999999924103
 30
0.0
 11
-525.90000000009968
 21
74.199999999924103
 31
0.0
  0
LINE
  8
DETAIL
  6
CONTINUOUS
 62
     5
 10
-525.90000000009968
 20
74.199999999924103
 30
0.0
 11
-527.90000000019882
 21
74.199999999924103
 31
0.0
  0
LINE
  8
DETAIL
  6
CONTINUOUS
 62
     5
 10
-527.90000000019882
 20
75.000000000024087
 30
0.0
 11
-514.50000000009913
 21
75.000000000024087
 31
0.0
  0
LINE
  8
DETAIL
  6
CONTINUOUS
 62
     5
 10
531.80000000000109
 20
29.799999999924239
 30
0.0
 11
539.49999999980082
 21
37.500000000024087
 31
0.0
  0
LINE
  8
DETAIL
  6
CONTINUOUS
 62
     5
 10
531.80000000000109
 20
-29.799999999875581
 30
0.0
 11
539.49999999980082
 21
-37.499999999975898
 31
0.0
  0
LINE
  8
DETAIL
  6
CONTINUOUS
 62
     5
 10
531.80000000000109
 20
-45.200000000075761
 30
0.0
 11
539.49999999980082
 21
-37.499999999975898
 31
0.0
  0
LINE
  8
DETAIL
  6
CONTINUOUS
 62
     5
 10
526.1999999999008
 20
-71.399999999975762
 30
0.0
 11
528.20000000000073
 21
-69.399999999875931
 31
0.0
  0
LINE
  8
DETAIL
  6
CONTINUOUS
 62
     5
 10
531.80000000000109
 20
45.200000000124177
 30
0.0
 11
539.49999999980082
 21
37.500000000024087
 31
0.0
  0
LINE
  8
DETAIL
  6
CONTINUOUS
 62
     5
 10
528.20000000000073
 20
69.399999999924148
 30
0.0
 11
526.1999999999008
 21
71.400000000024178
 31
0.0
  0
LINE
  8
DETAIL
  6
CONTINUOUS
 62
     5
 10
514.49999999990087
 20
-74.199999999875658
 30
0.0
 11
514.49999999990087
 21
-74.999999999975913
 31
0.0
  0
LINE
  8
DETAIL
  6
CONTINUOUS
 62
     5
 10
516.5
 20
-74.199999999875658
 30
0.0
 11
516.5
 21
-74.999999999975913
 31
0.0
  0
LINE
  8
DETAIL
  6
CONTINUOUS
 62
     5
 10
525.8999999999005
 20
-73.400000000075821
 30
0.0
 11
525.8999999999005
 21
-74.199999999875658
 31
0.0
  0
LINE
  8
DETAIL
  6
CONTINUOUS
 62
     5
 10
526.1999999999008
 20
-71.399999999975762
 30
0.0
 11
526.1999999999008
 21
-73.400000000075821
 31
0.0
  0
LINE
  8
DETAIL
  6
CONTINUOUS
 62
     5
 10
526.1999999999008
 20
71.400000000024178
 30
0.0
 11
526.1999999999008
 21
73.40000000012401
 31
0.0
  0
LINE
  8
DETAIL
  6
CONTINUOUS
 62
     5
 10
527.90000000000157
 20
74.199999999924103
 30
0.0
 11
527.90000000000157
 21
73.40000000012401
 31
0.0
  0
LINE
  8
DETAIL
  6
CONTINUOUS
 62
     5
 10
527.90000000000157
 20
72.600000000024224
 30
0.0
 11
527.90000000000157
 21
69.699999999924103
 31
0.0
  0
LINE
  8
DETAIL
  6
CONTINUOUS
 62
     5
 10
527.90000000000157
 20
-74.999999999975913
 30
0.0
 11
527.90000000000157
 21
-69.699999999875672
 31
0.0
  0
LINE
  8
DETAIL
  6
CONTINUOUS
 62
     5
 10
528.20000000000073
 20
69.399999999924148
 30
0.0
 11
528.20000000000073
 21
-69.399999999875931
 31
0.0
  0
LINE
  8
DETAIL
  6
CONTINUOUS
 62
     5
 10
528.69999999980064
 20
72.600000000024224
 30
0.0
 11
528.69999999980064
 21
-73.400000000075821
 31
0.0
  0
LINE
  8
DETAIL
  6
CONTINUOUS
 62
     5
 10
529.49999999990087
 20
72.600000000024224
 30
0.0
 11
529.49999999990087
 21
-73.400000000075821
 31
0.0
  0
LINE
  8
DETAIL
  6
CONTINUOUS
 62
     5
 10
529.70000000000073
 20
-41.999999999975898
 30
0.0
 11
529.70000000000073
 21
-38.000000000075723
 31
0.0
  0
LINE
  8
DETAIL
  6
CONTINUOUS
 62
     5
 10
529.70000000000073
 20
14.00000000012415
 30
0.0
 11
529.70000000000073
 21
18.000000000024102
 31
0.0
  0
LINE
  8
DETAIL
  6
CONTINUOUS
 62
     5
 10
531.80000000000109
 20
-65.999999999975898
 30
0.0
 11
531.80000000000109
 21
-45.200000000075761
 31
0.0
  0
LINE
  8
DETAIL
  6
CONTINUOUS
 62
     5
 10
531.80000000000109
 20
-29.799999999875581
 30
0.0
 11
531.80000000000109
 21
29.799999999924239
 31
0.0
  0
LINE
  8
DETAIL
  6
CONTINUOUS
 62
     5
 10
531.80000000000109
 20
45.200000000124177
 30
0.0
 11
531.80000000000109
 21
66.000000000024102
 31
0.0
  0
LINE
  8
DETAIL
  6
CONTINUOUS
 62
     5
 10
585.20000000000073
 20
-65.999999999975898
 30
0.0
 11
585.20000000000073
 21
-53.499999999875847
 31
0.0
  0
LINE
  8
DETAIL
  6
CONTINUOUS
 62
     5
 10
585.20000000000073
 20
-41.499999999875847
 30
0.0
 11
585.20000000000073
 21
41.499999999924277
 31
0.0
  0
LINE
  8
DETAIL
  6
CONTINUOUS
 62
     5
 10
585.20000000000073
 20
53.499999999924277
 30
0.0
 11
585.20000000000073
 21
66.000000000024102
 31
0.0
  0
LINE
  8
DETAIL
  6
CONTINUOUS
 62
     5
 10
587.49999999980071
 20
-65.999999999975898
 30
0.0
 11
587.49999999980071
 21
-53.499999999875847
 31
0.0
  0
LINE
  8
DETAIL
  6
CONTINUOUS
 62
     5
 10
587.49999999980071
 20
-41.499999999875847
 30
0.0
 11
587.49999999980071
 21
-29.000000000075719
 31
0.0
  0
LINE
  8
DETAIL
  6
CONTINUOUS
 62
     5
 10
587.49999999980071
 20
29.00000000012415
 30
0.0
 11
587.49999999980071
 21
41.499999999924277
 31
0.0
  0
LINE
  8
DETAIL
  6
CONTINUOUS
 62
     5
 10
587.49999999980071
 20
53.499999999924277
 30
0.0
 11
587.49999999980071
 21
66.000000000024102
 31
0.0
  0
ARC
  8
DETAIL
  6
CONTINUOUS
 62
     5
 10
-565.50000000009913
 20
-47.499999999875847
 30
0.0
 40
6.0
 50
270.0
 51
90.0
  0
ARC
  8
DETAIL
  6
CONTINUOUS
 62
     5
 10
-527.90000000019882
 20
-72.599999999975822
 30
0.0
 40
1.5999999999000001
 50
180.0
 51
270.0
  0
ARC
  8
DETAIL
  6
CONTINUOUS
 62
     5
 10
-527.90000000019882
 20
-72.599999999975822
 30
0.0
 40
0.8000000001000001
 50
180.0
 51
270.0
  0
ARC
  8
DETAIL
  6
CONTINUOUS
 62
     5
 10
-565.50000000009913
 20
47.499999999924277
 30
0.0
 40
6.0
 50
270.0
 51
90.0
  0
ARC
  8
DETAIL
  6
CONTINUOUS
 62
     5
 10
-527.90000000019882
 20
73.40000000012401
 30
0.0
 40
1.5999999999000001
 50
90.0
 51
180.0
  0
ARC
  8
DETAIL
  6
CONTINUOUS
 62
     5
 10
-527.90000000019882
 20
73.40000000012401
 30
0.0
 40
0.8000000001000001
 50
90.0
 51
180.0
  0
ARC
  8
DETAIL
  6
CONTINUOUS
 62
     5
 10
527.90000000000157
 20
-73.400000000075821
 30
0.0
 40
1.5999999999000001
 50
270.0
 51
0.0
  0
ARC
  8
DETAIL
  6
CONTINUOUS
 62
     5
 10
527.90000000000157
 20
-73.400000000075821
 30
0.0
 40
0.8000000001000001
 50
270.0
 51
0.0
  0
ARC
  8
DETAIL
  6
CONTINUOUS
 62
     5
 10
565.49999999990087
 20
-47.499999999875847
 30
0.0
 40
6.0
 50
90.0
 51
270.0
  0
ARC
  8
DETAIL
  6
CONTINUOUS
 62
     5
 10
565.49999999990087
 20
47.499999999924277
 30
0.0
 40
6.0
 50
90.0
 51
270.0
  0
ARC
  8
DETAIL
  6
CONTINUOUS
 62
     5
 10
527.90000000000157
 20
72.600000000024224
 30
0.0
 40
1.5999999999000001
 50
0.0
 51
90.0
  0
ARC
  8
DETAIL
  6
CONTINUOUS
 62
     5
 10
527.90000000000157
 20
72.600000000024224
 30
0.0
 40
0.8000000001000001
 50
0.0
 51
90.0
  0
ARC
  8
DETAIL
  6
CONTINUOUS
 62
     5
 10
531.50518655528913
 20
-45.204377193063181
 30
0.0
 40
2.0051913328208482
 50
179.87492719891969
 51
185.5198942528759
  0
ARC
  8
DETAIL
  6
CONTINUOUS
 62
     5
 10
530.36506247335228
 20
-45.387136796927727
 30
0.0
 40
0.8558287605615235
 50
180.6776936651452
 51
232.45240871889021
  0
ARC
  8
DETAIL
  6
CONTINUOUS
 62
     5
 10
530.21716079174485
 20
-45.295728530704991
 30
0.0
 40
0.8558287605603987
 50
244.11264245967399
 51
295.88735751349338
  0
ARC
  8
DETAIL
  6
CONTINUOUS
 62
     5
 10
529.512545036804
 20
-43.444507227802767
 30
0.0
 40
2.834292141031308
 50
292.3608372644743
 51
308.36154953832562
  0
ARC
  8
DETAIL
  6
CONTINUOUS
 62
     5
 10
528.8512298446708
 20
-42.395135020652049
 30
0.0
 40
4.0697067440037147
 50
306.49271689760587
 51
316.43273607322737
  0
ARC
  8
DETAIL
  6
CONTINUOUS
 62
     5
 10
528.00062894802522
 20
-33.567555626744308
 30
0.0
 40
5.3506724617253871
 50
44.759099178134022
 51
52.315447850691591
  0
ARC
  8
DETAIL
  6
CONTINUOUS
 62
     5
 10
529.512545036804
 20
-31.55549277214908
 30
0.0
 40
2.8342921410316229
 50
51.638450461674367
 51
67.639162735525645
  0
ARC
  8
DETAIL
  6
CONTINUOUS
 62
     5
 10
530.21716079174485
 20
-29.704271469246631
 30
0.0
 40
0.8558287605604467
 50
64.112642486521096
 51
115.88735754032599
  0
ARC
  8
DETAIL
  6
CONTINUOUS
 62
     5
 10
530.36506247335228
 20
-29.612863203023839
 30
0.0
 40
0.8558287605615097
 50
127.5475912811097
 51
179.3223063348548
  0
ARC
  8
DETAIL
  6
CONTINUOUS
 62
     5
 10
530.2064015339447
 20
-29.73443248434506
 30
0.0
 40
0.7094379650398967
 50
169.30223313693199
 51
185.30294541063401
  0
ARC
  8
DETAIL
  6
CONTINUOUS
 62
     5
 10
531.50518655528913
 20
29.795622806936759
 30
0.0
 40
2.0051913328208482
 50
179.87492719891969
 51
185.5198942528759
  0
ARC
  8
DETAIL
  6
CONTINUOUS
 62
     5
 10
530.36506247335228
 20
29.612863203072269
 30
0.0
 40
0.8558287605615091
 50
180.6776936651452
 51
232.45240871889021
  0
ARC
  8
DETAIL
  6
CONTINUOUS
 62
     5
 10
530.21716079174485
 20
29.704271469295119
 30
0.0
 40
0.8558287605604465
 50
244.11264245967399
 51
295.88735751347889
  0
ARC
  8
DETAIL
  6
CONTINUOUS
 62
     5
 10
529.51254503680082
 20
31.55549277220257
 30
0.0
 40
2.8342921410374711
 50
292.36083726448828
 51
308.36154953830822
  0
ARC
  8
DETAIL
  6
CONTINUOUS
 62
     5
 10
528.8512298446708
 20
32.604864979347887
 30
0.0
 40
4.0697067440037147
 50
306.49271689760587
 51
316.43273607322737
  0
ARC
  8
DETAIL
  6
CONTINUOUS
 62
     5
 10
528.00062894802522
 20
41.432444373255628
 30
0.0
 40
5.3506724617253871
 50
44.759099178134022
 51
52.315447850691591
  0
ARC
  8
DETAIL
  6
CONTINUOUS
 62
     5
 10
529.512545036804
 20
43.444507227851197
 30
0.0
 40
2.834292141031312
 50
51.638450461674367
 51
67.639162735525645
  0
ARC
  8
DETAIL
  6
CONTINUOUS
 62
     5
 10
530.21716079174485
 20
45.295728530753422
 30
0.0
 40
0.8558287605603988
 50
64.11264248650653
 51
115.88735754032599
  0
ARC
  8
DETAIL
  6
CONTINUOUS
 62
     5
 10
530.36506247335228
 20
45.387136796976158
 30
0.0
 40
0.8558287605615232
 50
127.5475912811097
 51
179.3223063348548
  0
ARC
  8
DETAIL
  6
CONTINUOUS
 62
     5
 10
530.2064015339447
 20
45.26556751565488
 30
0.0
 40
0.7094379650398628
 50
169.30223313693199
 51
185.30294541063401
  0
ARC
  8
DETAIL
  6
CONTINUOUS
 62
     5
 10
-531.50518655547899
 20
45.20437719311257
 30
0.0
 40
2.0051913328123971
 50
359.87492719956452
 51
5.5198942528759058
  0
ARC
  8
DETAIL
  6
CONTINUOUS
 62
     5
 10
-530.36506247355055
 20
45.387136796976158
 30
0.0
 40
0.8558287605615235
 50
0.6776936651451934
 51
52.452408718890283
  0
ARC
  8
DETAIL
  6
CONTINUOUS
 62
     5
 10
-530.21716079194312
 20
45.295728530753422
 30
0.0
 40
0.8558287605603987
 50
64.112642459674021
 51
115.8873575134935
  0
ARC
  8
DETAIL
  6
CONTINUOUS
 62
     5
 10
-529.51254503700238
 20
43.444507227851197
 30
0.0
 40
2.834292141031308
 50
112.3608372644744
 51
128.36154953832559
  0
ARC
  8
DETAIL
  6
CONTINUOUS
 62
     5
 10
-528.85122984474719
 20
42.395135020555927
 30
0.0
 40
4.0697067441923442
 50
126.49271689776781
 51
136.43273607339901
  0
ARC
  8
DETAIL
  6
CONTINUOUS
 62
     5
 10
-528.00062894817211
 20
33.567555626852823
 30
0.0
 40
5.3506724618041712
 50
224.7590991778404
 51
232.31544785065711
  0
ARC
  8
DETAIL
  6
CONTINUOUS
 62
     5
 10
-529.51254503700216
 20
31.55549277219745
 30
0.0
 40
2.8342921410316229
 50
231.6384504616743
 51
247.63916273552559
  0
ARC
  8
DETAIL
  6
CONTINUOUS
 62
     5
 10
-530.21716079194312
 20
29.704271469295119
 30
0.0
 40
0.8558287605604467
 50
244.11264248652111
 51
295.88735754032598
  0
ARC
  8
DETAIL
  6
CONTINUOUS
 62
     5
 10
-530.36506247355055
 20
29.612863203072269
 30
0.0
 40
0.8558287605615097
 50
307.5475912811097
 51
359.32230633485477
  0
ARC
  8
DETAIL
  6
CONTINUOUS
 62
     5
 10
-530.20640153405691
 20
29.73443248438161
 30
0.0
 40
0.7094379649531071
 50
349.30223313658081
 51
5.3029454103462381
  0
ARC
  8
DETAIL
  6
CONTINUOUS
 62
     5
 10
-531.50518655547899
 20
-29.795622806887408
 30
0.0
 40
2.0051913328123971
 50
359.87492719956452
 51
5.5198942528759058
  0
ARC
  8
DETAIL
  6
CONTINUOUS
 62
     5
 10
-530.36506247355055
 20
-29.612863203023839
 30
0.0
 40
0.8558287605615091
 50
0.6776936651451934
 51
52.452408718890283
  0
ARC
  8
DETAIL
  6
CONTINUOUS
 62
     5
 10
-530.21716079194312
 20
-29.704271469246631
 30
0.0
 40
0.8558287605604465
 50
64.112642459674021
 51
115.8873575134789
  0
ARC
  8
DETAIL
  6
CONTINUOUS
 62
     5
 10
-529.5125450369992
 20
-31.555492772154199
 30
0.0
 40
2.8342921410374711
 50
112.3608372644883
 51
128.36154953830831
  0
ARC
  8
DETAIL
  6
CONTINUOUS
 62
     5
 10
-528.85122984474719
 20
-32.60486497944413
 30
0.0
 40
4.0697067441923442
 50
126.49271689776781
 51
136.43273607339901
  0
ARC
  8
DETAIL
  6
CONTINUOUS
 62
     5
 10
-528.00062894817165
 20
-41.43244437314678
 30
0.0
 40
5.3506724618047583
 50
224.7590991778404
 51
232.31544785065711
  0
ARC
  8
DETAIL
  6
CONTINUOUS
 62
     5
 10
-529.51254503700238
 20
-43.444507227802767
 30
0.0
 40
2.834292141031312
 50
231.6384504616743
 51
247.63916273552559
  0
ARC
  8
DETAIL
  6
CONTINUOUS
 62
     5
 10
-530.21716079194312
 20
-45.295728530704991
 30
0.0
 40
0.8558287605603988
 50
244.1126424865065
 51
295.88735754032598
  0
ARC
  8
DETAIL
  6
CONTINUOUS
 62
     5
 10
-530.36506247355055
 20
-45.387136796927727
 30
0.0
 40
0.8558287605615232
 50
307.5475912811097
 51
359.32230633485477
  0
ARC
  8
DETAIL
  6
CONTINUOUS
 62
     5
 10
-530.20640153405691
 20
-45.265567515618322
 30
0.0
 40
0.7094379649530728
 50
349.30223313658081
 51
5.3029454103462381
  0
LINE
  8
NOTE
  6
DASHDOT
 62
     4
 10
-592.61802319822891
 20
47.499999999924277
 30
0.0
 11
-547.63761439317386
 21
47.499999999924277
 31
0.0
  0
LINE
  8
BASIS
  6
DASHDOT
 62
     6
 10
0.0
 20
-123.3294784756677
 30
0.0
 11
0.0
 21
120.8771181979205
 31
0.0
  0
LINE
  8
BASIS
  6
DASHDOT
 62
     6
 10
-667.76810040452244
 20
-0.0000000000250111
 30
0.0
 11
663.99093716735297
 21
0.0000000000241016
 31
0.0
  0
CIRCLE
  8
ARRANGE
  6
CONTINUOUS
 62
     1
 10
0.0
 20
0.0
 30
0.0
 40
40.0
  0
POINT
  8
ARRANGE
  6
CONTINUOUS
 62
     1
 10
0.0
 20
0.0
 30
0.0
  0
LINE
  8
NOTE
  6
DASHDOT
 62
     4
 10
-592.61802319822891
 20
-47.500000000075723
 30
0.0
 11
-547.63761439317386
 21
-47.500000000075723
 31
0.0
  0
LINE
  8
NOTE
  6
DASHDOT
 62
     4
 10
592.61802319822891
 20
47.499999999924277
 30
0.0
 11
547.63761439317386
 21
47.499999999924277
 31
0.0
  0
LINE
  8
NOTE
  6
DASHDOT
 62
     4
 10
592.61802319822891
 20
-47.500000000075723
 30
0.0
 11
547.63761439317386
 21
-47.500000000075723
 31
0.0
  0
LINE
  8
NOTE
  6
DASHDOT
 62
     4
 10
-565.5
 20
-61.495174473828683
 30
0.0
 11
-565.5
 21
61.961450581234658
 31
0.0
  0
LINE
  8
NOTE
  6
DASHDOT
 62
     4
 10
565.5
 20
-61.495174473828683
 30
0.0
 11
565.5
 21
61.961450581234658
 31
0.0
  0
CIRCLE
  8
FIX
  6
CONTINUOUS
 62
    11
 10
-565.50000000009913
 20
47.499999999924277
 30
0.0
 40
6.0
  0
CIRCLE
  8
FIX
  6
CONTINUOUS
 62
    11
 10
-565.50000000009913
 20
-47.499999999974307
 30
0.0
 40
6.0
  0
CIRCLE
  8
FIX
  6
CONTINUOUS
 62
    11
 10
565.50000000009913
 20
47.499999999924277
 30
0.0
 40
6.0
  0
CIRCLE
  8
FIX
  6
CONTINUOUS
 62
    11
 10
565.50000000009913
 20
-47.499999999974307
 30
0.0
 40
6.0
  0
LINE
  8
SERVICESPACE
  6
DASHDOT
 62
     2
 10
-602.5
 20
-79.000000000033765
 30
0.0
 11
-602.50000000000057
 21
78.999999999966349
 31
0.0
  0
LINE
  8
SERVICESPACE
  6
DASHDOT
 62
     2
 10
602.5
 20
-78.999999999966221
 30
0.0
 11
602.50000000000057
 21
79.000000000033893
 31
0.0
  0
LINE
  8
SERVICESPACE
  6
DASHDOT
 62
     2
 10
-602.50000000000057
 20
78.999999999966349
 30
0.0
 11
602.50000000000057
 21
79.000000000033893
 31
0.0
  0
LINE
  8
SERVICESPACE
  6
DASHDOT
 62
     2
 10
-602.5
 20
-79.000000000033765
 30
0.0
 11
602.5
 21
-78.999999999966221
 31
0.0
  0
LINE
  8
SIZE
  6
CONTINUOUS
 62
    30
 10
-565.5
 20
81.961450581234658
 30
0.0
 11
-565.5
 21
266.55195161771547
 31
0.0
  0
LINE
  8
SIZE
  6
CONTINUOUS
 62
    30
 10
565.5
 20
81.961450581234658
 30
0.0
 11
565.5
 21
266.55195161771547
 31
0.0
  0
LINE
  8
SIZE
  6
CONTINUOUS
 62
    30
 10
-553.5
 20
246.5519516177155
 30
0.0
 11
553.5
 21
246.5519516177155
 31
0.0
  0
CIRCLE
  8
SIZE
  6
CONTINUOUS
 62
    30
 10
-565.5
 20
246.5519516177155
 30
0.0
 40
6.0
  0
LINE
  8
SIZE
  6
CONTINUOUS
 62
    30
 10
-565.5
 20
246.5519516177155
 30
0.0
 11
-553.5
 21
246.5519516177155
 31
0.0
  0
CIRCLE
  8
SIZE
  6
CONTINUOUS
 62
    30
 10
565.5
 20
246.5519516177155
 30
0.0
 40
6.0
  0
LINE
  8
SIZE
  6
CONTINUOUS
 62
    30
 10
565.5
 20
246.5519516177155
 30
0.0
 11
553.5
 21
246.5519516177155
 31
0.0
  0
TEXT
  8
SIZE
  6
CONTINUOUS
 62
    30
 10
-78.171428571428564
 20
271.55195161771547
 30
0.0
 40
64.0
  1
1131
 41
0.9
 72
     1
 11
0.0
 21
271.55195161771547
 31
0.0
  0
LINE
  8
SIZE
  6
CONTINUOUS
 62
    30
 10
607.49999999980071
 20
53.499999999924277
 30
0.0
 11
763.43052314334102
 21
53.499999999924277
 31
0.0
  0
LINE
  8
SIZE
  6
CONTINUOUS
 62
    30
 10
607.49999999980071
 20
41.499999999924277
 30
0.0
 11
763.43052314334102
 21
41.499999999924277
 31
0.0
  0
LINE
  8
SIZE
  6
CONTINUOUS
 62
    30
 10
743.43052314334102
 20
29.499999999924281
 30
0.0
 11
743.43052314334102
 21
17.499999999924281
 31
0.0
  0
LINE
  8
SIZE
  6
CONTINUOUS
 62
    30
 10
743.43052314334102
 20
65.499999999924285
 30
0.0
 11
743.43052314334102
 21
209.78571428563859
 31
0.0
  0
LINE
  8
SIZE
  6
CONTINUOUS
 62
    30
 10
743.43052314334102
 20
41.499999999924277
 30
0.0
 11
743.43052314334102
 21
53.499999999924277
 31
0.0
  0
CIRCLE
  8
SIZE
  6
CONTINUOUS
 62
    30
 10
743.43052314334102
 20
41.499999999924277
 30
0.0
 40
6.0
  0
LINE
  8
SIZE
  6
CONTINUOUS
 62
    30
 10
743.43052314334102
 20
41.499999999924277
 30
0.0
 11
743.43052314334102
 21
29.499999999924281
 31
0.0
  0
CIRCLE
  8
SIZE
  6
CONTINUOUS
 62
    30
 10
743.43052314334102
 20
53.499999999924277
 30
0.0
 40
6.0
  0
LINE
  8
SIZE
  6
CONTINUOUS
 62
    30
 10
743.43052314334102
 20
53.499999999924277
 30
0.0
 11
743.43052314334102
 21
65.499999999924285
 31
0.0
  0
TEXT
  8
SIZE
  6
CONTINUOUS
 62
    30
 10
718.43052314334091
 20
102.4999999999245
 30
0.0
 40
64.0
  1
12
 50
90.0
 41
0.9
 72
     1
 11
718.43052314334091
 21
143.64285714278159
 31
0.0
  0
LINE
  8
SIZE
  6
CONTINUOUS
 62
    30
 10
612.61802319822891
 20
47.499999999924277
 30
0.0
 11
880.55960251492786
 21
47.499999999924171
 31
0.0
  0
LINE
  8
SIZE
  6
CONTINUOUS
 62
    30
 10
612.61802319822891
 20
-47.500000000075723
 30
0.0
 11
880.55960251492786
 21
-47.500000000075772
 31
0.0
  0
LINE
  8
SIZE
  6
CONTINUOUS
 62
    30
 10
860.55960251492786
 20
-35.500000000075772
 30
0.0
 11
860.55960251492786
 21
35.499999999924171
 31
0.0
  0
LINE
  8
SIZE
  6
CONTINUOUS
 62
    30
 10
860.55960251492786
 20
47.499999999924171
 30
0.0
 11
860.55960251492786
 21
212.16688925737421
 31
0.0
  0
CIRCLE
  8
SIZE
  6
CONTINUOUS
 62
    30
 10
860.55960251492786
 20
-47.500000000075772
 30
0.0
 40
6.0
  0
LINE
  8
SIZE
  6
CONTINUOUS
 62
    30
 10
860.55960251492786
 20
-47.500000000075772
 30
0.0
 11
860.55960251492786
 21
-35.500000000075772
 31
0.0
  0
CIRCLE
  8
SIZE
  6
CONTINUOUS
 62
    30
 10
860.55960251492786
 20
47.499999999924171
 30
0.0
 40
6.0
  0
LINE
  8
SIZE
  6
CONTINUOUS
 62
    30
 10
860.55960251492786
 20
47.499999999924171
 30
0.0
 11
860.55960251492786
 21
35.499999999924171
 31
0.0
  0
TEXT
  8
SIZE
  6
CONTINUOUS
 62
    30
 10
835.55960251492786
 20
93.909746400231569
 30
0.0
 40
64.0
  1
95
 50
90.0
 41
0.9
 72
     1
 11
835.55960251492786
 21
140.538317828803
 31
0.0
  0
LINE
  8
SIZE
  6
CONTINUOUS
 62
    30
 10
-529.50000000009913
 20
93.400000000123995
 30
0.0
 11
-529.50000000009913
 21
164.30013444150259
 31
0.0
  0
LINE
  8
SIZE
  6
CONTINUOUS
 62
    30
 10
529.49999999990132
 20
92.600000000024266
 30
0.0
 11
529.49999999990132
 21
164.30013444150259
 31
0.0
  0
LINE
  8
SIZE
  6
CONTINUOUS
 62
    30
 10
-517.50000000009913
 20
144.30013444150259
 30
0.0
 11
517.49999999990132
 21
144.30013444150259
 31
0.0
  0
CIRCLE
  8
SIZE
  6
CONTINUOUS
 62
    30
 10
-529.50000000009913
 20
144.30013444150259
 30
0.0
 40
6.0
  0
LINE
  8
SIZE
  6
CONTINUOUS
 62
    30
 10
-529.50000000009913
 20
144.30013444150259
 30
0.0
 11
-517.50000000009913
 21
144.30013444150259
 31
0.0
  0
CIRCLE
  8
SIZE
  6
CONTINUOUS
 62
    30
 10
529.49999999990132
 20
144.30013444150259
 30
0.0
 40
6.0
  0
LINE
  8
SIZE
  6
CONTINUOUS
 62
    30
 10
529.49999999990132
 20
144.30013444150259
 30
0.0
 11
517.49999999990132
 21
144.30013444150259
 31
0.0
  0
TEXT
  8
SIZE
  6
CONTINUOUS
 62
    30
 10
-94.628571428670114
 20
169.30013444150259
 30
0.0
 40
64.0
  1
1059
 41
0.9
 72
     1
 11
-0.0000000000986802
 21
169.30013444150259
 31
0.0
  0
LINE
  8
SIZE
  6
CONTINUOUS
 62
    30
 10
-587.5
 20
86.000000000024087
 30
0.0
 11
-587.5
 21
367.64182040344713
 31
0.0
  0
LINE
  8
SIZE
  6
CONTINUOUS
 62
    30
 10
587.49999999980071
 20
86.000000000024087
 30
0.0
 11
587.49999999980071
 21
367.64182040344713
 31
0.0
  0
LINE
  8
SIZE
  6
CONTINUOUS
 62
    30
 10
-575.5
 20
347.64182040344718
 30
0.0
 11
575.49999999980071
 21
347.64182040344718
 31
0.0
  0
CIRCLE
  8
SIZE
  6
CONTINUOUS
 62
    30
 10
-587.5
 20
347.64182040344718
 30
0.0
 40
6.0
  0
LINE
  8
SIZE
  6
CONTINUOUS
 62
    30
 10
-587.5
 20
347.64182040344718
 30
0.0
 11
-575.5
 21
347.64182040344718
 31
0.0
  0
CIRCLE
  8
SIZE
  6
CONTINUOUS
 62
    30
 10
587.49999999980071
 20
347.64182040344718
 30
0.0
 40
6.0
  0
LINE
  8
SIZE
  6
CONTINUOUS
 62
    30
 10
587.49999999980071
 20
347.64182040344718
 30
0.0
 11
575.49999999980071
 21
347.64182040344718
 31
0.0
  0
TEXT
  8
SIZE
  6
CONTINUOUS
 62
    30
 10
-90.514285714385295
 20
372.64182040344713
 30
0.0
 40
64.0
  1
1175
 41
0.9
 72
     1
 11
-0.0000000000995897
 21
372.64182040344713
 31
0.0
  0
LINE
  8
SIZE
  6
CONTINUOUS
 62
    30
 10
607.49999999980071
 20
66.000000000024102
 30
0.0
 11
1016.032735089098
 21
66.000000000023874
 31
0.0
  0
LINE
  8
SIZE
  6
CONTINUOUS
 62
    30
 10
607.49999999980071
 20
-65.999999999975898
 30
0.0
 11
1016.032735089098
 21
-65.999999999976012
 31
0.0
  0
LINE
  8
SIZE
  6
CONTINUOUS
 62
    30
 10
996.03273508909831
 20
54.00000000002386
 30
0.0
 11
996.03273508909831
 21
-53.999999999975998
 31
0.0
  0
CIRCLE
  8
SIZE
  6
CONTINUOUS
 62
    30
 10
996.03273508909831
 20
66.000000000023874
 30
0.0
 40
6.0
  0
LINE
  8
SIZE
  6
CONTINUOUS
 62
    30
 10
996.03273508909831
 20
66.000000000023874
 30
0.0
 11
996.03273508909831
 21
54.00000000002386
 31
0.0
  0
CIRCLE
  8
SIZE
  6
CONTINUOUS
 62
    30
 10
996.03273508909831
 20
-65.999999999976012
 30
0.0
 40
6.0
  0
LINE
  8
SIZE
  6
CONTINUOUS
 62
    30
 10
996.03273508909831
 20
-65.999999999976012
 30
0.0
 11
996.03273508909831
 21
-53.999999999975998
 31
0.0
  0
TEXT
  8
SIZE
  6
CONTINUOUS
 62
    30
 10
971.03273508909831
 20
-68.571428571404468
 30
0.0
 40
64.0
  1
132
 50
90.0
 41
0.9
 72
     1
 11
971.03273508909831
 21
0.0000000000241016
 31
0.0
  0
LINE
  8
SIZE
  6
CONTINUOUS
 62
    30
 10
494.49999999990092
 20
-74.999999999975913
 30
0.0
 11
-752.06494044346255
 21
-74.999999999975543
 31
0.0
  0
LINE
  8
SIZE
  6
CONTINUOUS
 62
    30
 10
-547.90000000019882
 20
75.000000000024087
 30
0.0
 11
-752.06494044346255
 21
75.000000000024201
 31
0.0
  0
LINE
  8
SIZE
  6
CONTINUOUS
 62
    30
 10
-732.06494044346255
 20
-62.999999999975557
 30
0.0
 11
-732.06494044346255
 21
63.000000000024222
 31
0.0
  0
CIRCLE
  8
SIZE
  6
CONTINUOUS
 62
    30
 10
-732.06494044346255
 20
-74.999999999975543
 30
0.0
 40
6.0
  0
LINE
  8
SIZE
  6
CONTINUOUS
 62
    30
 10
-732.06494044346255
 20
-74.999999999975543
 30
0.0
 11
-732.06494044346255
 21
-62.999999999975557
 31
0.0
  0
CIRCLE
  8
SIZE
  6
CONTINUOUS
 62
    30
 10
-732.06494044346255
 20
75.000000000024087
 30
0.0
 40
6.0
  0
LINE
  8
SIZE
  6
CONTINUOUS
 62
    30
 10
-732.06494044346255
 20
75.000000000024087
 30
0.0
 11
-732.06494044346255
 21
63.000000000024102
 31
0.0
  0
TEXT
  8
SIZE
  6
CONTINUOUS
 62
    30
 10
-757.06494044346255
 20
-68.571428571404354
 30
0.0
 40
64.0
  1
150
 50
90.0
 41
0.9
 72
     1
 11
-757.06494044346255
 21
0.0000000000242153
 31
0.0
  0
LINE
  8
SIZE
  6
CONTINUOUS
 62
    30
 10
622.50000000000057
 20
79.000000000033893
 30
0.0
 11
1120.9963856958641
 21
79.000000000033651
 31
0.0
  0
LINE
  8
SIZE
  6
CONTINUOUS
 62
    30
 10
622.5
 20
-78.999999999978556
 30
0.0
 11
1120.9963856958641
 21
-78.999999999978726
 31
0.0
  0
LINE
  8
SIZE
  6
CONTINUOUS
 62
    30
 10
1100.9963856958641
 20
-66.999999999978741
 30
0.0
 11
1100.9963856958641
 21
67.000000000033765
 31
0.0
  0
LINE
  8
SIZE
  6
CONTINUOUS
 62
    30
 10
1100.9963856958641
 20
79.000000000033765
 30
0.0
 11
1100.9963856958641
 21
502.09017204598138
 31
0.0
  0
CIRCLE
  8
SIZE
  6
CONTINUOUS
 62
    30
 10
1100.9963856958641
 20
-78.999999999978726
 30
0.0
 40
6.0
  0
LINE
  8
SIZE
  6
CONTINUOUS
 62
    30
 10
1100.9963856958641
 20
-78.999999999978726
 30
0.0
 11
1100.9963856958641
 21
-66.999999999978741
 31
0.0
  0
CIRCLE
  8
SIZE
  6
CONTINUOUS
 62
    30
 10
1100.9963856958641
 20
79.000000000033765
 30
0.0
 40
6.0
  0
LINE
  8
SIZE
  6
CONTINUOUS
 62
    30
 10
1100.9963856958641
 20
79.000000000033765
 30
0.0
 11
1100.9963856958641
 21
67.000000000033765
 31
0.0
  0
TEXT
  8
SIZE
  6
CONTINUOUS
 62
    30
 10
1075.9963856958641
 20
339.94731490312432
 30
0.0
 40
64.0
  1
158
 50
90.0
 41
0.9
 72
     1
 11
1075.9963856958641
 21
408.51874347455282
 31
0.0
  0
LINE
  8
SIZE
  6
CONTINUOUS
 62
    30
 10
-602.5
 20
-99.000000000033765
 30
0.0
 11
-602.5
 21
-429.59077090765459
 31
0.0
  0
LINE
  8
SIZE
  6
CONTINUOUS
 62
    30
 10
602.5
 20
-98.999999999978556
 30
0.0
 11
602.5
 21
-429.59077090765459
 31
0.0
  0
LINE
  8
SIZE
  6
CONTINUOUS
 62
    30
 10
-590.5
 20
-409.59077090765459
 30
0.0
 11
590.5
 21
-409.59077090765459
 31
0.0
  0
CIRCLE
  8
SIZE
  6
CONTINUOUS
 62
    30
 10
-602.5
 20
-409.59077090765459
 30
0.0
 40
6.0
  0
LINE
  8
SIZE
  6
CONTINUOUS
 62
    30
 10
-602.5
 20
-409.59077090765459
 30
0.0
 11
-590.5
 21
-409.59077090765459
 31
0.0
  0
CIRCLE
  8
SIZE
  6
CONTINUOUS
 62
    30
 10
602.5
 20
-409.59077090765459
 30
0.0
 40
6.0
  0
LINE
  8
SIZE
  6
CONTINUOUS
 62
    30
 10
602.5
 20
-409.59077090765459
 30
0.0
 11
590.5
 21
-409.59077090765459
 31
0.0
  0
TEXT
  8
SIZE
  6
CONTINUOUS
 62
    30
 10
-96.000000000000227
 20
-384.59077090765459
 30
0.0
 40
64.0
  1
1205
 41
0.9
 72
     1
 11
-0.0000000000002274
 21
-384.59077090765459
 31
0.0
  0
TEXT
  8
NOTE
  6
CONTINUOUS
 62
     4
 10
-175.1743066818419
 20
-499.08694690236013
 30
0.0
 40
64.0
  1
天井開口寸法
 41
0.9
  0
TEXT
  8
NOTE
  6
CONTINUOUS
 62
     4
 10
1187.6283562919109
 20
107.3877532958759
 30
0.0
 40
64.0
  1
天井開口寸法
 50
90.0
 41
0.9
  0
LINE
  8
NOTE
  6
DASHDOT
 62
     4
 10
-45.0
 20
-101.30480379479739
 30
0.0
 11
-45.0
 21
-57.983941885340762
 31
0.0
  0
LINE
  8
NOTE
  6
CONTINUOUS
 62
     4
 10
184.63168200000001
 20
-266.33052699991742
 30
0.0
 11
64.491172000000006
 21
-266.33052699991742
 31
0.0
  0
TEXT
  8
NOTE
  6
CONTINUOUS
 62
     4
 10
80.774249571428513
 20
-237.52187799991751
 30
0.0
 40
64.0
  1
EL
 41
0.9
  0
LINE
  8
NOTE
  6
CONTINUOUS
 62
     4
 10
-45.0
 20
-74.199999999917566
 30
0.0
 11
64.491172000000006
 21
-266.33052699991742
 31
0.0
  0
LINE
  8
NOTE
  6
CONTINUOUS
 62
     4
 10
-34.511506999999931
 20
-112.8004079999173
 30
0.0
 11
-45.0
 21
-74.199999999917566
 31
0.0
  0
LINE
  8
NOTE
  6
CONTINUOUS
 62
     4
 10
-45.0
 20
-74.199999999917566
 30
0.0
 11
-16.616493999999879
 21
-102.38468699991751
 31
0.0
  0
LINE
  8
NOTE
  6
CONTINUOUS
 62
     4
 10
-565.50000000009913
 20
-47.499999999875847
 30
0.0
 11
-641.46594300009906
 21
-307.81504699987568
 31
0.0
  0
TEXT
  8
NOTE
  6
CONTINUOUS
 62
     4
 10
-1283.5977314557549
 20
-279.00639799987567
 30
0.0
 40
64.0
  1
AH 4-(12×22)
 41
0.9
  0
LINE
  8
NOTE
  6
CONTINUOUS
 62
     4
 10
-641.46594300009906
 20
-307.81504699987568
 30
0.0
 11
-1302.441001482126
 21
-307.81504699987568
 31
0.0
  0
LINE
  8
NOTE
  6
CONTINUOUS
 62
     4
 10
-566.50696900009928
 20
-87.487322999875914
 30
0.0
 11
-565.50000000009913
 21
-47.499999999875847
 31
0.0
  0
LINE
  8
NOTE
  6
CONTINUOUS
 62
     4
 10
-565.50000000009913
 20
-47.499999999875847
 30
0.0
 11
-586.36572300009902
 21
-81.626552999875912
 31
0.0
  0
LINE
  8
DETAIL
  6
CONTINUOUS
 62
     5
 10
507.299999999801
 20
77.200000000024133
 30
0.0
 11
507.299999999801
 21
74.199999999924103
 31
0.0
  0
LINE
  8
DETAIL
  6
CONTINUOUS
 62
     5
 10
460.299999999801
 20
77.200000000024133
 30
0.0
 11
460.299999999801
 21
74.199999999924103
 31
0.0
  0
LINE
  8
DETAIL
  6
CONTINUOUS
 62
     5
 10
507.299999999801
 20
77.200000000024133
 30
0.0
 11
460.299999999801
 21
77.200000000024133
 31
0.0
  0
LINE
  8
SERVICESPACE
  6
DASHDOT
 62
     2
 10
-602.50000000000057
 20
78.999999999966349
 30
0.0
 11
602.5
 21
-78.999999999966221
 31
0.0
  0
LINE
  8
SERVICESPACE
  6
DASHDOT
 62
     2
 10
602.50000000000057
 20
79.000000000033893
 30
0.0
 11
-602.5
 21
-79.000000000033765
 31
0.0
  0
LINE
  8
OUTLINE
  6
CONTINUOUS
 62
     3
 10
-587.5
 20
66.000000000024102
 30
0.0
 11
-587.5
 21
53.499999999924277
 31
0.0
  0
LINE
  8
OUTLINE
  6
CONTINUOUS
 62
     3
 10
-587.5
 20
41.499999999924277
 30
0.0
 11
-587.5
 21
29.00000000012415
 31
0.0
  0
LINE
  8
OUTLINE
  6
CONTINUOUS
 62
     3
 10
-587.5
 20
-29.000000000075719
 30
0.0
 11
-587.5
 21
-41.499999999875847
 31
0.0
  0
LINE
  8
OUTLINE
  6
CONTINUOUS
 62
     3
 10
-587.5
 20
-53.499999999875847
 30
0.0
 11
-587.5
 21
-65.999999999975898
 31
0.0
  0
LINE
  8
OUTLINE
  6
CONTINUOUS
 62
     3
 10
-585.200000000199
 20
-29.000000000075769
 30
0.0
 11
-585.200000000199
 21
29.00000000012415
 31
0.0
  0
LINE
  8
OUTLINE
  6
CONTINUOUS
 62
     3
 10
-529.50000000009913
 20
-72.599999999975822
 30
0.0
 11
-529.50000000009913
 21
-65.999999999975955
 31
0.0
  0
LINE
  8
OUTLINE
  6
CONTINUOUS
 62
     3
 10
-529.50000000009913
 20
66.000000000024102
 30
0.0
 11
-529.50000000009913
 21
73.40000000012401
 31
0.0
  0
LINE
  8
OUTLINE
  6
CONTINUOUS
 62
     3
 10
-514.50000000009913
 20
74.199999999924103
 30
0.0
 11
-514.50000000009913
 21
75.000000000024087
 31
0.0
  0
LINE
  8
OUTLINE
  6
CONTINUOUS
 62
     3
 10
514.49999999990087
 20
-74.999999999975913
 30
0.0
 11
527.90000000000157
 21
-74.999999999975913
 31
0.0
  0
LINE
  8
OUTLINE
  6
CONTINUOUS
 62
     3
 10
-527.90000000019882
 20
-74.199999999875658
 30
0.0
 11
514.49999999990087
 21
-74.199999999875658
 31
0.0
  0
LINE
  8
OUTLINE
  6
CONTINUOUS
 62
     3
 10
-587.5
 20
-65.999999999975898
 30
0.0
 11
-529.50000000009913
 21
-65.999999999975898
 31
0.0
  0
LINE
  8
OUTLINE
  6
CONTINUOUS
 62
     3
 10
529.49999999990087
 20
-65.999999999975898
 30
0.0
 11
587.49999999980071
 21
-65.999999999975898
 31
0.0
  0
LINE
  8
OUTLINE
  6
CONTINUOUS
 62
     3
 10
587.49999999980071
 20
-53.499999999875847
 30
0.0
 11
565.49999999990087
 21
-53.499999999875847
 31
0.0
  0
LINE
  8
OUTLINE
  6
CONTINUOUS
 62
     3
 10
-587.5
 20
-53.499999999875847
 30
0.0
 11
-565.50000000009913
 21
-53.499999999875847
 31
0.0
  0
LINE
  8
OUTLINE
  6
CONTINUOUS
 62
     3
 10
587.49999999980071
 20
-41.499999999875847
 30
0.0
 11
565.49999999990087
 21
-41.499999999875847
 31
0.0
  0
LINE
  8
OUTLINE
  6
CONTINUOUS
 62
     3
 10
-587.5
 20
-41.499999999875847
 30
0.0
 11
-565.50000000009913
 21
-41.499999999875847
 31
0.0
  0
LINE
  8
OUTLINE
  6
CONTINUOUS
 62
     3
 10
587.49999999980071
 20
-29.000000000075719
 30
0.0
 11
585.20000000000073
 21
-29.000000000075719
 31
0.0
  0
LINE
  8
OUTLINE
  6
CONTINUOUS
 62
     3
 10
-587.5
 20
-29.000000000075719
 30
0.0
 11
-585.200000000199
 21
-29.000000000075719
 31
0.0
  0
LINE
  8
OUTLINE
  6
CONTINUOUS
 62
     3
 10
587.49999999980071
 20
29.00000000012415
 30
0.0
 11
585.20000000000073
 21
29.00000000012415
 31
0.0
  0
LINE
  8
OUTLINE
  6
CONTINUOUS
 62
     3
 10
-587.5
 20
29.00000000012415
 30
0.0
 11
-585.200000000199
 21
29.00000000012415
 31
0.0
  0
LINE
  8
OUTLINE
  6
CONTINUOUS
 62
     3
 10
587.49999999980071
 20
41.499999999924277
 30
0.0
 11
565.49999999990087
 21
41.499999999924277
 31
0.0
  0
LINE
  8
OUTLINE
  6
CONTINUOUS
 62
     3
 10
-587.5
 20
41.499999999924277
 30
0.0
 11
-565.50000000009913
 21
41.499999999924277
 31
0.0
  0
LINE
  8
OUTLINE
  6
CONTINUOUS
 62
     3
 10
587.49999999980071
 20
53.499999999924277
 30
0.0
 11
565.49999999990087
 21
53.499999999924277
 31
0.0
  0
LINE
  8
OUTLINE
  6
CONTINUOUS
 62
     3
 10
-587.5
 20
53.499999999924277
 30
0.0
 11
-565.50000000009913
 21
53.499999999924277
 31
0.0
  0
LINE
  8
OUTLINE
  6
CONTINUOUS
 62
     3
 10
-587.5
 20
66.000000000024102
 30
0.0
 11
-529.50000000009913
 21
66.000000000024102
 31
0.0
  0
LINE
  8
OUTLINE
  6
CONTINUOUS
 62
     3
 10
529.49999999990087
 20
66.000000000024102
 30
0.0
 11
587.49999999980071
 21
66.000000000024102
 31
0.0
  0
LINE
  8
OUTLINE
  6
CONTINUOUS
 62
     3
 10
527.90000000000157
 20
74.199999999924103
 30
0.0
 11
507.29999999980049
 21
74.199999999924103
 31
0.0
  0
LINE
  8
OUTLINE
  6
CONTINUOUS
 62
     3
 10
460.29999999980049
 20
74.199999999924103
 30
0.0
 11
-514.50000000009913
 21
74.199999999924103
 31
0.0
  0
LINE
  8
OUTLINE
  6
CONTINUOUS
 62
     3
 10
-527.90000000019882
 20
75.000000000024087
 30
0.0
 11
-514.50000000009913
 21
75.000000000024087
 31
0.0
  0
LINE
  8
OUTLINE
  6
CONTINUOUS
 62
     3
 10
514.49999999990087
 20
-74.199999999875658
 30
0.0
 11
514.49999999990087
 21
-74.999999999975913
 31
0.0
  0
LINE
  8
OUTLINE
  6
CONTINUOUS
 62
     3
 10
529.49999999990087
 20
72.600000000024224
 30
0.0
 11
529.49999999990087
 21
66.000000000024102
 31
0.0
  0
LINE
  8
OUTLINE
  6
CONTINUOUS
 62
     3
 10
529.49999999990087
 20
-65.999999999975898
 30
0.0
 11
529.49999999990087
 21
-73.400000000075821
 31
0.0
  0
LINE
  8
OUTLINE
  6
CONTINUOUS
 62
     3
 10
585.20000000000073
 20
-29.000000000075719
 30
0.0
 11
585.20000000000073
 21
29.00000000012415
 31
0.0
  0
LINE
  8
OUTLINE
  6
CONTINUOUS
 62
     3
 10
587.49999999980071
 20
-65.999999999975898
 30
0.0
 11
587.49999999980071
 21
-53.499999999875847
 31
0.0
  0
LINE
  8
OUTLINE
  6
CONTINUOUS
 62
     3
 10
587.49999999980071
 20
-41.499999999875847
 30
0.0
 11
587.49999999980071
 21
-29.000000000075719
 31
0.0
  0
LINE
  8
OUTLINE
  6
CONTINUOUS
 62
     3
 10
587.49999999980071
 20
29.00000000012415
 30
0.0
 11
587.49999999980071
 21
41.499999999924277
 31
0.0
  0
LINE
  8
OUTLINE
  6
CONTINUOUS
 62
     3
 10
587.49999999980071
 20
53.499999999924277
 30
0.0
 11
587.49999999980071
 21
66.000000000024102
 31
0.0
  0
ARC
  8
OUTLINE
  6
CONTINUOUS
 62
     3
 10
-565.50000000009913
 20
-47.499999999875847
 30
0.0
 40
6.0
 50
270.0
 51
90.0
  0
ARC
  8
OUTLINE
  6
CONTINUOUS
 62
     3
 10
-527.90000000019882
 20
-72.599999999975822
 30
0.0
 40
1.5999999999000001
 50
180.0
 51
270.0
  0
ARC
  8
OUTLINE
  6
CONTINUOUS
 62
     3
 10
-565.50000000009913
 20
47.499999999924277
 30
0.0
 40
6.0
 50
270.0
 51
90.0
  0
ARC
  8
OUTLINE
  6
CONTINUOUS
 62
     3
 10
-527.90000000019882
 20
73.40000000012401
 30
0.0
 40
1.5999999999000001
 50
90.0
 51
180.0
  0
ARC
  8
OUTLINE
  6
CONTINUOUS
 62
     3
 10
527.90000000000157
 20
-73.400000000075821
 30
0.0
 40
1.5999999999000001
 50
270.0
 51
0.0
  0
ARC
  8
OUTLINE
  6
CONTINUOUS
 62
     3
 10
565.49999999990087
 20
-47.499999999875847
 30
0.0
 40
6.0
 50
90.0
 51
270.0
  0
ARC
  8
OUTLINE
  6
CONTINUOUS
 62
     3
 10
565.49999999990087
 20
47.499999999924277
 30
0.0
 40
6.0
 50
90.0
 51
270.0
  0
ARC
  8
OUTLINE
  6
CONTINUOUS
 62
     3
 10
527.90000000000157
 20
72.600000000024224
 30
0.0
 40
1.5999999999000001
 50
0.0
 51
90.0
  0
LINE
  8
OUTLINE
  6
CONTINUOUS
 62
     3
 10
507.29999999980049
 20
77.200000000024133
 30
0.0
 11
507.29999999980049
 21
74.199999999924103
 31
0.0
  0
LINE
  8
OUTLINE
  6
CONTINUOUS
 62
     3
 10
460.29999999980049
 20
77.200000000024133
 30
0.0
 11
460.29999999980049
 21
74.199999999924103
 31
0.0
  0
LINE
  8
OUTLINE
  6
CONTINUOUS
 62
     3
 10
507.29999999980049
 20
77.200000000024133
 30
0.0
 11
460.29999999980049
 21
77.200000000024133
 31
0.0
  0
ENDSEC
  0
EOF
