  0
SECTION
  2
HEADER
  9
$ACADVER
  1
AC1009
  9
$DWGCODEPAGE
  3
dos932
  9
$INSBASE
 10
0.0
 20
0.0
 30
0.0
  9
$EXTMIN
 10
-834.0
 20
-287.93772733771078
 30
0.0
  9
$EXTMAX
 10
1398.4693692003909
 20
637.66547908302255
 30
50.0
  9
$LIMMIN
 10
-2970.0
 20
-2100.0
  9
$LIMMAX
 10
2970.0
 20
2100.0
  9
$ORTHOMODE
 70
     0
  9
$REGENMODE
 70
     1
  9
$FILLMODE
 70
     1
  9
$QTEXTMODE
 70
     0
  9
$MIRRTEXT
 70
     0
  9
$LTSCALE
 40
20.0
  9
$ATTMODE
 70
     1
  9
$TEXTSIZE
 40
64.0
  9
$TRACEWID
 40
0.05
  9
$TEXTSTYLE
  7
STANDARD
  9
$CLAYER
  8
SIZE
  9
$CELTYPE
  6
CONTINUOUS
  9
$CECOLOR
 62
     7
  9
$DIMSCALE
 40
1.0
  9
$DIMASZ
 40
12.0
  9
$DIMEXO
 40
20.0
  9
$DIMDLI
 40
200.0
  9
$DIMRND
 40
0.0
  9
$DIMDLE
 40
0.0
  9
$DIMEXE
 40
20.0
  9
$DIMTP
 40
0.0
  9
$DIMTM
 40
0.0
  9
$DIMTXT
 40
64.0
  9
$DIMCEN
 40
0.09
  9
$DIMTSZ
 40
0.0
  9
$DIMTOL
 70
     0
  9
$DIMLIM
 70
     0
  9
$DIMTIH
 70
     0
  9
$DIMTOH
 70
     0
  9
$DIMSE1
 70
     0
  9
$DIMSE2
 70
     0
  9
$DIMTAD
 70
     1
  9
$DIMZIN
 70
     8
  9
$DIMBLK
  1

  9
$DIMASO
 70
     1
  9
$DIMSHO
 70
     0
  9
$DIMPOST
  1

  9
$DIMAPOST
  1

  9
$DIMALT
 70
     0
  9
$DIMALTD
 70
     2
  9
$DIMALTF
 40
25.399999999999999
  9
$DIMLFAC
 40
1.0
  9
$DIMTOFL
 70
     1
  9
$DIMTVP
 40
0.0
  9
$DIMTIX
 70
     1
  9
$DIMSOXD
 70
     0
  9
$DIMSAH
 70
     0
  9
$DIMBLK1
  1

  9
$DIMBLK2
  1

  9
$DIMSTYLE
  2
STANDARD
  9
$DIMCLRD
 70
     7
  9
$DIMCLRE
 70
     7
  9
$DIMCLRT
 70
     7
  9
$DIMTFAC
 40
1.0
  9
$DIMGAP
 40
25.0
  9
$LUNITS
 70
     2
  9
$LUPREC
 70
     4
  9
$SKETCHINC
 40
0.1
  9
$FILLETRAD
 40
3.0
  9
$AUNITS
 70
     1
  9
$AUPREC
 70
     3
  9
$MENU
  1
ACAD
  9
$ELEVATION
 40
0.0
  9
$PELEVATION
 40
0.0
  9
$THICKNESS
 40
0.0
  9
$LIMCHECK
 70
     0
  9
$CHAMFERA
 40
0.0
  9
$CHAMFERB
 40
0.0
  9
$SKPOLY
 70
     0
  9
$TDCREATE
 40
2453019.623009259
  9
$TDUPDATE
 40
2459291.648158981
  9
$TDINDWG
 40
1.7223192245
  9
$TDUSRTIMER
 40
1.7223192245
  9
$USRTIMER
 70
     1
  9
$ANGBASE
 50
0.0
  9
$ANGDIR
 70
     0
  9
$PDMODE
 70
     3
  9
$PDSIZE
 40
-2.0
  9
$PLINEWID
 40
0.0
  9
$SPLFRAME
 70
     0
  9
$SPLINETYPE
 70
     6
  9
$SPLINESEGS
 70
     8
  9
$SURFTAB1
 70
     6
  9
$SURFTAB2
 70
     6
  9
$SURFTYPE
 70
     6
  9
$SURFU
 70
     6
  9
$SURFV
 70
     6
  9
$UCSNAME
  2

  9
$UCSORG
 10
0.0
 20
0.0
 30
0.0
  9
$UCSXDIR
 10
1.0
 20
0.0
 30
0.0
  9
$UCSYDIR
 10
0.0
 20
1.0
 30
0.0
  9
$PUCSNAME
  2

  9
$PUCSORG
 10
0.0
 20
0.0
 30
0.0
  9
$PUCSXDIR
 10
1.0
 20
0.0
 30
0.0
  9
$PUCSYDIR
 10
0.0
 20
1.0
 30
0.0
  9
$USERI1
 70
     0
  9
$USERI2
 70
     0
  9
$USERI3
 70
     0
  9
$USERI4
 70
     0
  9
$USERI5
 70
     0
  9
$USERR1
 40
20.0
  9
$USERR2
 40
0.0
  9
$USERR3
 40
0.0
  9
$USERR4
 40
0.0
  9
$USERR5
 40
0.0
  9
$WORLDVIEW
 70
     1
  9
$SHADEDGE
 70
     3
  9
$SHADEDIF
 70
    70
  9
$TILEMODE
 70
     1
  9
$MAXACTVP
 70
    48
  9
$PINSBASE
 10
0.0
 20
0.0
 30
0.0
  9
$PLIMCHECK
 70
     0
  9
$PEXTMIN
 10
-100000000000000000000.0
 20
-100000000000000000000.0
 30
-100000000000000000000.0
  9
$PEXTMAX
 10
100000000000000000000.0
 20
100000000000000000000.0
 30
100000000000000000000.0
  9
$PLIMMIN
 10
0.0
 20
0.0
  9
$PLIMMAX
 10
12.0
 20
9.0
  9
$UNITMODE
 70
     0
  9
$VISRETAIN
 70
     0
  9
$PLINEGEN
 70
     0
  9
$PSLTSCALE
 70
     0
  9
$TREEDEPTH
 70
  3020
  9
$ATTDIA
 70
     0
  9
$ATTREQ
 70
     1
  9
$BLIPMODE
 70
     1
  9
$COORDS
 70
     1
  9
$DRAGMODE
 70
     2
  9
$OSMODE
 70
     0
  9
$HANDLING
 70
     0
  9
$HANDSEED
  5
327
  0
ENDSEC
  0
SECTION
  2
TABLES
  0
TABLE
  2
LTYPE
 70
     2
  0
LTYPE
  2
CONTINUOUS
 70
     0
  3
実線
 72
    65
 73
     0
 40
0.0
  0
LTYPE
  2
DASHDOT
 70
     0
  3
____ _ ____ _ ____ _ ____ _ ____ _ ____ _ ____
 72
    65
 73
     4
 40
5.5
 49
4.0
 49
-0.6
 49
0.3
 49
-0.6
  0
ENDTAB
  0
TABLE
  2
LAYER
 70
    12
  0
LAYER
  2
SIZE
 70
     0
 62
    30
  6
CONTINUOUS
  0
LAYER
  2
BASIS
 70
     0
 62
     6
  6
DASHDOT
  0
LAYER
  2
OUTLINE
 70
     0
 62
     3
  6
CONTINUOUS
  0
LAYER
  2
DETAIL
 70
     0
 62
     5
  6
CONTINUOUS
  0
LAYER
  2
ARRANGE
 70
     0
 62
     1
  6
CONTINUOUS
  0
LAYER
  2
ETC
 70
     0
 62
    61
  6
CONTINUOUS
  0
LAYER
  2
0
 70
    64
 62
     7
  6
CONTINUOUS
  0
LAYER
  2
DEFPOINTS
 70
    64
 62
     7
  6
CONTINUOUS
  0
LAYER
  2
FIX
 70
    64
 62
    11
  6
CONTINUOUS
  0
LAYER
  2
NOTE
 70
    64
 62
     4
  6
CONTINUOUS
  0
LAYER
  2
SERVICESPACE
 70
    64
 62
     2
  6
DASHDOT
  0
LAYER
  2
SYMBOLLINE
 70
    64
 62
    15
  6
CONTINUOUS
  0
ENDTAB
  0
TABLE
  2
STYLE
 70
     1
  0
STYLE
  2
STANDARD
 70
     0
 40
64.0
 41
0.9
 50
0.0
 71
     0
 42
64.0
  3
SIMPLEX.shx
  4
BIGFONT.shx
  0
ENDTAB
  0
TABLE
  2
APPID
 70
    20
  0
APPID
  2
ACAD
 70
     0
  0
APPID
  2
ACADANNOTATIVE
 70
     0
  0
APPID
  2
AUTOCAD_POSTSCRIPT_FIGURE
 70
     0
  0
APPID
  2
ACAD_EXEMPT_FROM_CAD_STANDARDS
 70
     0
  0
APPID
  2
ACAD_PSEXT
 70
     0
  0
APPID
  2
ACAUTHENVIRON
 70
     0
  0
APPID
  2
GENIUS_GENOENT_13
 70
     0
  0
APPID
  2
GENIUS_GENCFG_13
 70
     0
  0
APPID
  2
GENIUS_GENCFG0_13
 70
     0
  0
APPID
  2
GENIUS_GENCFG1_13
 70
     0
  0
APPID
  2
GENIUS_GENCFG2_13
 70
     0
  0
APPID
  2
GENIUS_GENCFG3_13
 70
     0
  0
APPID
  2
GENIUS_GENCFG4_13
 70
     0
  0
APPID
  2
GENIUS_GEVCFG0_13
 70
     0
  0
APPID
  2
CONTENTBLOCKICON
 70
     0
  0
APPID
  2
CONTENTBLOCKDESCRIPTION
 70
     0
  0
APPID
  2
ACAD_NAV_VCDISPLAY
 70
     0
  0
APPID
  2
ACAD_MLEADERVER
 70
     0
  0
APPID
  2
ACDBDYNAMICBLOCKTRUENAME
 70
     0
  0
APPID
  2
ACDBDYNAMICBLOCKGUID
 70
     0
  0
ENDTAB
  0
TABLE
  2
DIMSTYLE
 70
     1
  0
DIMSTYLE
  2
STANDARD
 70
     0
  3

  4

  5

  6

  7

 40
1.0
 41
12.0
 42
20.0
 43
200.0
 44
20.0
 45
0.0
 46
0.0
 47
0.0
 48
0.0
140
64.0
141
0.09
142
0.0
143
25.399999999999999
144
1.0
145
0.0
146
1.0
147
25.0
 71
     0
 72
     0
 73
     0
 74
     0
 75
     0
 76
     0
 77
     1
 78
     8
170
     0
171
     2
172
     1
173
     0
174
     1
175
     0
176
     7
177
     7
178
     7
  0
ENDTAB
  0
TABLE
  2
VIEW
 70
     1
  0
VIEW
  2
ALL
 70
     0
 40
4282.6198079999986
 10
0.0
 20
41.309904000000003
 41
5940.0
 11
0.0
 21
0.0
 31
1.0
 12
0.0
 22
0.0
 32
0.0
 42
50.0
 43
0.0
 44
0.0
 50
0.0
 71
     0
  0
ENDTAB
  0
TABLE
  2
UCS
 70
     0
  0
ENDTAB
  0
TABLE
  2
VPORT
 70
     1
  0
VPORT
  2
*ACTIVE
 70
     0
 10
0.0
 20
0.0
 11
1.0
 21
1.0
 12
282.10832104332172
 22
174.9572853731888
 13
0.0
 23
0.0
 14
1.0
 24
1.0
 15
0.0
 25
0.0
 16
0.0
 26
0.0
 36
1.0
 17
0.0
 27
0.0
 37
0.0
 40
1268.1883878616079
 41
1.767337807606264
 42
50.0
 43
0.0
 44
0.0
 50
0.0
 51
0.0
 71
     0
 72
  1000
 73
     1
 74
     3
 75
     0
 76
     0
 77
     0
 78
     0
  0
ENDTAB
  0
ENDSEC
  0
SECTION
  2
BLOCKS
  0
ENDSEC
  0
SECTION
  2
ENTITIES
  0
CIRCLE
  8
ARRANGE
  6
CONTINUOUS
 62
     1
 10
0.0
 20
0.0
 30
0.0
 40
40.0
  0
POINT
  8
ARRANGE
  6
CONTINUOUS
 62
     1
 10
0.0
 20
0.0
 30
0.0
  0
LINE
  8
BASIS
  6
DASHDOT
 62
     6
 10
-0.0000000000004547
 20
98.790098555058293
 30
0.0
 11
-0.0000000000006821
 21
-138.61196472027939
 31
0.0
  0
LINE
  8
OUTLINE
  6
CONTINUOUS
 62
     3
 10
-828.0
 20
-34.999999999999893
 30
0.0
 11
-827.94702553940022
 21
-38.034904812800157
 31
0.0
  0
LINE
  8
OUTLINE
  6
CONTINUOUS
 62
     3
 10
-815.8478757726001
 20
0.2743326734731681
 30
0.0
 11
-815.99127331820011
 21
-34.99999999999995
 31
0.0
  0
LINE
  8
OUTLINE
  6
CONTINUOUS
 62
     3
 10
825.94733014919984
 20
-39.999999999999893
 30
0.0
 11
-825.9473301492003
 21
-39.999999999999893
 31
0.0
  0
LINE
  8
OUTLINE
  6
CONTINUOUS
 62
     3
 10
-828.0
 20
-34.999999999999893
 30
0.0
 11
-815.99127331820011
 21
-34.99999999999995
 31
0.0
  0
LINE
  8
OUTLINE
  6
CONTINUOUS
 62
     3
 10
815.99127331840009
 20
-34.99999999999995
 30
0.0
 11
828.0
 21
-34.999999999999893
 31
0.0
  0
LINE
  8
OUTLINE
  6
CONTINUOUS
 62
     3
 10
-815.54091776486484
 20
0.5812906812089977
 30
0.0
 11
-737.45731182735426
 21
0.5812906812089977
 31
0.0
  0
LINE
  8
OUTLINE
  6
CONTINUOUS
 62
     3
 10
737.49968650182348
 20
0.5812906812089977
 30
0.0
 11
815.5517698156433
 21
0.5812906812089977
 31
0.0
  0
LINE
  8
OUTLINE
  6
CONTINUOUS
 62
     3
 10
815.85872782337901
 20
0.2743326734731681
 30
0.0
 11
815.99127331840009
 21
-34.99999999999995
 31
0.0
  0
LINE
  8
OUTLINE
  6
CONTINUOUS
 62
     3
 10
828.0
 20
-34.999999999999893
 30
0.0
 11
827.94702553939987
 21
-38.034904812800157
 31
0.0
  0
ARC
  8
OUTLINE
  6
CONTINUOUS
 62
     3
 10
-825.9473301492003
 20
-37.999999999999893
 30
0.0
 40
2.0
 50
181.00000000000179
 51
270.0
  0
ARC
  8
OUTLINE
  6
CONTINUOUS
 62
     3
 10
825.94733014919984
 20
-37.999999999999893
 30
0.0
 40
2.0
 50
270.0
 51
358.99999999999818
  0
LINE
  8
SIZE
  6
CONTINUOUS
 62
    30
 10
-815.86700537080037
 20
20.600000000000019
 30
0.0
 11
-815.86700537080037
 21
171.22298176388691
 31
0.0
  0
LINE
  8
SIZE
  6
CONTINUOUS
 62
    30
 10
815.86700537079992
 20
20.600000000000019
 30
0.0
 11
815.86700537079992
 21
171.22298176388691
 31
0.0
  0
LINE
  8
SIZE
  6
CONTINUOUS
 62
    30
 10
-803.86700537080037
 20
151.22298176388691
 30
0.0
 11
803.86700537079992
 21
151.22298176388691
 31
0.0
  0
CIRCLE
  8
SIZE
  6
CONTINUOUS
 62
    30
 10
-815.86700537080037
 20
151.22298176388691
 30
0.0
 40
6.0
  0
LINE
  8
SIZE
  6
CONTINUOUS
 62
    30
 10
-815.86700537080037
 20
151.22298176388691
 30
0.0
 11
-803.86700537080037
 21
151.22298176388691
 31
0.0
  0
CIRCLE
  8
SIZE
  6
CONTINUOUS
 62
    30
 10
815.86700537079992
 20
151.22298176388691
 30
0.0
 40
6.0
  0
LINE
  8
SIZE
  6
CONTINUOUS
 62
    30
 10
815.86700537079992
 20
151.22298176388691
 30
0.0
 11
803.86700537079992
 21
151.22298176388691
 31
0.0
  0
TEXT
  8
SIZE
  6
CONTINUOUS
 62
    30
 10
-96.000000000000426
 20
176.22298176388691
 30
0.0
 40
64.0
  1
1632
 41
0.9
 72
     1
 11
-0.0000000000004547
 21
176.22298176388691
 31
0.0
  0
LINE
  8
SIZE
  6
CONTINUOUS
 62
    30
 10
-828.0
 20
-54.999999999999893
 30
0.0
 11
-828.0
 21
-287.93772733771078
 31
0.0
  0
LINE
  8
SIZE
  6
CONTINUOUS
 62
    30
 10
828.0
 20
-54.999999999999893
 30
0.0
 11
828.0
 21
-287.93772733771078
 31
0.0
  0
LINE
  8
SIZE
  6
CONTINUOUS
 62
    30
 10
-816.0
 20
-267.93772733771078
 30
0.0
 11
816.0
 21
-267.93772733771078
 31
0.0
  0
CIRCLE
  8
SIZE
  6
CONTINUOUS
 62
    30
 10
-828.0
 20
-267.93772733771078
 30
0.0
 40
6.0
  0
LINE
  8
SIZE
  6
CONTINUOUS
 62
    30
 10
-828.0
 20
-267.93772733771078
 30
0.0
 11
-816.0
 21
-267.93772733771078
 31
0.0
  0
CIRCLE
  8
SIZE
  6
CONTINUOUS
 62
    30
 10
828.0
 20
-267.93772733771078
 30
0.0
 40
6.0
  0
LINE
  8
SIZE
  6
CONTINUOUS
 62
    30
 10
828.0
 20
-267.93772733771078
 30
0.0
 11
816.0
 21
-267.93772733771078
 31
0.0
  0
TEXT
  8
SIZE
  6
CONTINUOUS
 62
    30
 10
-94.628571428571419
 20
-242.9377273377107
 30
0.0
 40
64.0
  1
1656
 41
0.9
 72
     1
 11
0.0
 21
-242.9377273377107
 31
0.0
  0
LINE
  8
SIZE
  6
CONTINUOUS
 62
    30
 10
848.0
 20
-34.999999999999893
 30
0.0
 11
970.29678576156971
 21
-34.99999999999995
 31
0.0
  0
LINE
  8
SIZE
  6
CONTINUOUS
 62
    30
 10
845.94733014919984
 20
-39.999999999999893
 30
0.0
 11
970.29678576156971
 21
-39.999999999999943
 31
0.0
  0
LINE
  8
SIZE
  6
CONTINUOUS
 62
    30
 10
950.29678576156971
 20
-22.99999999999994
 30
0.0
 11
950.29678576156971
 21
-10.999999999999909
 31
0.0
  0
LINE
  8
SIZE
  6
CONTINUOUS
 62
    30
 10
950.29678576156971
 20
-51.999999999999943
 30
0.0
 11
950.29678576156971
 21
-160.40938755734149
 31
0.0
  0
LINE
  8
SIZE
  6
CONTINUOUS
 62
    30
 10
950.29678576156971
 20
-34.999999999999908
 30
0.0
 11
950.29678576156971
 21
-39.999999999999943
 31
0.0
  0
CIRCLE
  8
SIZE
  6
CONTINUOUS
 62
    30
 10
950.29678576156971
 20
-34.999999999999908
 30
0.0
 40
6.0
  0
LINE
  8
SIZE
  6
CONTINUOUS
 62
    30
 10
950.29678576156971
 20
-34.999999999999908
 30
0.0
 11
950.29678576156971
 21
-22.999999999999911
 31
0.0
  0
CIRCLE
  8
SIZE
  6
CONTINUOUS
 62
    30
 10
950.29678576156971
 20
-39.999999999999943
 30
0.0
 40
6.0
  0
LINE
  8
SIZE
  6
CONTINUOUS
 62
    30
 10
950.29678576156971
 20
-39.999999999999943
 30
0.0
 11
950.29678576156971
 21
-51.999999999999908
 31
0.0
  0
TEXT
  8
SIZE
  6
CONTINUOUS
 62
    30
 10
925.29678576156971
 20
-135.40938755734129
 30
0.0
 40
64.0
  1
5
 50
90.0
 41
0.9
 72
     1
 11
925.29678576156971
 21
-116.2093875573413
 31
0.0
  0
LINE
  8
SIZE
  6
CONTINUOUS
 62
    30
 10
845.94733014919984
 20
-39.999999999999893
 30
0.0
 11
1091.0638227594429
 21
-39.999999999999943
 31
0.0
  0
LINE
  8
SIZE
  6
CONTINUOUS
 62
    30
 10
835.86700537079992
 20
0.0
 30
0.0
 11
1091.0638227594429
 21
-0.0000000000000853
 31
0.0
  0
LINE
  8
SIZE
  6
CONTINUOUS
 62
    30
 10
1071.0638227594429
 20
11.99999999999994
 30
0.0
 11
1071.0638227594429
 21
23.99999999999994
 31
0.0
  0
LINE
  8
SIZE
  6
CONTINUOUS
 62
    30
 10
1071.0638227594429
 20
-51.999999999999957
 30
0.0
 11
1071.0638227594429
 21
-207.25714285714281
 31
0.0
  0
LINE
  8
SIZE
  6
CONTINUOUS
 62
    30
 10
1071.0638227594429
 20
-0.0000000000000568
 30
0.0
 11
1071.0638227594429
 21
-39.999999999999943
 31
0.0
  0
CIRCLE
  8
SIZE
  6
CONTINUOUS
 62
    30
 10
1071.0638227594429
 20
-0.0000000000000568
 30
0.0
 40
6.0
  0
LINE
  8
SIZE
  6
CONTINUOUS
 62
    30
 10
1071.0638227594429
 20
-0.0000000000000568
 30
0.0
 11
1071.0638227594429
 21
11.99999999999994
 31
0.0
  0
CIRCLE
  8
SIZE
  6
CONTINUOUS
 62
    30
 10
1071.0638227594429
 20
-39.999999999999943
 30
0.0
 40
6.0
  0
LINE
  8
SIZE
  6
CONTINUOUS
 62
    30
 10
1071.0638227594429
 20
-39.999999999999943
 30
0.0
 11
1071.0638227594429
 21
-51.999999999999957
 31
0.0
  0
TEXT
  8
SIZE
  6
CONTINUOUS
 62
    30
 10
1046.0638227594429
 20
-182.25714285714261
 30
0.0
 40
64.0
  1
40
 50
90.0
 41
0.9
 72
     1
 11
1046.0638227594429
 21
-135.62857142857121
 31
0.0
  0
LINE
  8
DETAIL
  6
CONTINUOUS
 62
     5
 10
-800.00491516458203
 20
-0.0217732834838671
 30
0.0
 11
-800.30102112153929
 21
-34.703894043042411
 31
0.0
  0
LINE
  8
DETAIL
  6
CONTINUOUS
 62
     5
 10
-801.80377177220521
 20
-34.999999999999893
 30
0.0
 11
-801.50766581524783
 21
-0.0217732834838671
 31
0.0
  0
LINE
  8
DETAIL
  6
CONTINUOUS
 62
     5
 10
-811.85793843635838
 20
0.5812906812089977
 30
0.0
 11
-812.00624979699774
 21
-34.999999999999893
 31
0.0
  0
LINE
  8
DETAIL
  6
CONTINUOUS
 62
     5
 10
-800.30102112153929
 20
-34.999999999999893
 30
0.0
 11
-800.30102112153929
 21
-34.703894043042411
 31
0.0
  0
LINE
  8
DETAIL
  6
CONTINUOUS
 62
     5
 10
-799.79304179223936
 20
-34.999999999999893
 30
0.0
 11
-799.79304179223936
 21
-34.703894043042411
 31
0.0
  0
LINE
  8
DETAIL
  6
CONTINUOUS
 62
     5
 10
-783.20904114534335
 20
-34.999999999999893
 30
0.0
 11
-783.20904114534335
 21
-34.703894043042411
 31
0.0
  0
LINE
  8
DETAIL
  6
CONTINUOUS
 62
     5
 10
-739.46804180731999
 20
0.5812906812089977
 30
0.0
 11
-739.46804180731999
 21
-0.0217732834838671
 31
0.0
  0
LINE
  8
DETAIL
  6
CONTINUOUS
 62
     5
 10
-578.15695786327319
 20
-24.10970866157675
 30
0.0
 11
-578.15695786327319
 21
-2.1492920003996692
 31
0.0
  0
LINE
  8
DETAIL
  6
CONTINUOUS
 62
     5
 10
-576.35810125565013
 20
-2.1492920003996692
 30
0.0
 11
-576.35810125565013
 21
-34.608292643327218
 31
0.0
  0
LINE
  8
DETAIL
  6
CONTINUOUS
 62
     5
 10
-520.55168850918471
 20
-34.608292643327218
 30
0.0
 11
-520.55168850918471
 21
-2.1492920003996692
 31
0.0
  0
LINE
  8
DETAIL
  6
CONTINUOUS
 62
     5
 10
-518.75283190156165
 20
-2.1492920003996692
 30
0.0
 11
-518.75283190156165
 21
-24.10970866157675
 31
0.0
  0
LINE
  8
DETAIL
  6
CONTINUOUS
 62
     5
 10
-74.961832663550908
 20
-1.006209318394099
 30
0.0
 11
-74.961832663550908
 21
-0.0217732834838671
 31
0.0
  0
LINE
  8
DETAIL
  6
CONTINUOUS
 62
     5
 10
-42.958101388999467
 20
-1.006209318394099
 30
0.0
 11
-42.958101388999467
 21
-0.0217732834838671
 31
0.0
  0
LINE
  8
DETAIL
  6
CONTINUOUS
 62
     5
 10
781.23035055339017
 20
-2.0009806397600869
 30
0.0
 11
-781.19831116537716
 21
-2.0009806397600869
 31
0.0
  0
LINE
  8
DETAIL
  6
CONTINUOUS
 62
     5
 10
781.98069235007813
 20
-24.204793296969338
 30
0.0
 11
577.59626857304897
 21
-24.204793296969338
 31
0.0
  0
LINE
  8
DETAIL
  6
CONTINUOUS
 62
     5
 10
519.39827054072407
 20
-24.204793296969338
 30
0.0
 11
-519.35589586625474
 21
-24.204793296969338
 31
0.0
  0
LINE
  8
DETAIL
  6
CONTINUOUS
 62
     5
 10
-577.5538938985801
 20
-24.204793296969338
 30
0.0
 11
-781.94968649071041
 21
-24.204793296969338
 31
0.0
  0
LINE
  8
DETAIL
  6
CONTINUOUS
 62
     5
 10
781.98069235007813
 20
-24.861083986909652
 30
0.0
 11
577.59626857304897
 21
-24.861083986909652
 31
0.0
  0
LINE
  8
DETAIL
  6
CONTINUOUS
 62
     5
 10
519.39827054072407
 20
-24.861083986909652
 30
0.0
 11
-519.35589586625474
 21
-24.861083986909652
 31
0.0
  0
LINE
  8
DETAIL
  6
CONTINUOUS
 62
     5
 10
-577.5538938985801
 20
-24.861083986909652
 30
0.0
 11
-781.94968649071041
 21
-24.861083986909652
 31
0.0
  0
LINE
  8
DETAIL
  6
CONTINUOUS
 62
     5
 10
815.85872782337901
 20
0.2743326734731681
 30
0.0
 11
799.53931050975086
 21
0.2743326734731681
 31
0.0
  0
LINE
  8
DETAIL
  6
CONTINUOUS
 62
     5
 10
-799.49693583528165
 20
0.2743326734731681
 30
0.0
 11
-815.8478757726001
 21
0.2743326734731681
 31
0.0
  0
LINE
  8
DETAIL
  6
CONTINUOUS
 62
     5
 10
23.039937331479901
 20
-1.006209318394099
 30
0.0
 11
23.039937331479901
 21
-0.0217732834838671
 31
0.0
  0
LINE
  8
DETAIL
  6
CONTINUOUS
 62
     5
 10
36.999291982937848
 20
-1.006209318394099
 30
0.0
 11
36.999291982937848
 21
-0.0217732834838671
 31
0.0
  0
LINE
  8
DETAIL
  6
CONTINUOUS
 62
     5
 10
-799.70829244330218
 20
-34.703894043042411
 30
0.0
 11
-801.80377177220521
 21
-34.703894043042411
 31
0.0
  0
LINE
  8
DETAIL
  6
CONTINUOUS
 62
     5
 10
783.240563769034
 20
-34.703894043042411
 30
0.0
 11
782.1088499021298
 21
-34.703894043042411
 31
0.0
  0
LINE
  8
DETAIL
  6
CONTINUOUS
 62
     5
 10
-782.0979978513501
 20
-34.703894043042411
 30
0.0
 11
-783.20904114534335
 21
-34.703894043042411
 31
0.0
  0
LINE
  8
DETAIL
  6
CONTINUOUS
 62
     5
 10
-799.49693583528165
 20
-36.862418619325922
 30
0.0
 11
-799.70829244330218
 21
-36.862418619325922
 31
0.0
  0
LINE
  8
DETAIL
  6
CONTINUOUS
 62
     5
 10
799.53931050975086
 20
-36.862418619325922
 30
0.0
 11
799.73981506699238
 21
-36.862418619325922
 31
0.0
  0
LINE
  8
DETAIL
  6
CONTINUOUS
 62
     5
 10
799.73981506699238
 20
-39.709273273562189
 30
0.0
 11
799.53931050975086
 21
-39.709273273562189
 31
0.0
  0
LINE
  8
DETAIL
  6
CONTINUOUS
 62
     5
 10
-799.49693583528165
 20
-39.709273273562189
 30
0.0
 11
-799.70829244330218
 21
-39.709273273562189
 31
0.0
  0
LINE
  8
DETAIL
  6
CONTINUOUS
 62
     5
 10
81.004874654228146
 20
-1.006209318394099
 30
0.0
 11
81.004874654228146
 21
-0.0217732834838671
 31
0.0
  0
LINE
  8
DETAIL
  6
CONTINUOUS
 62
     5
 10
95.048978654623625
 20
-1.006209318394099
 30
0.0
 11
95.048978654623625
 21
-0.0217732834838671
 31
0.0
  0
LINE
  8
DETAIL
  6
CONTINUOUS
 62
     5
 10
518.79468981170794
 20
-24.10970866157675
 30
0.0
 11
518.79468981170794
 21
-2.1492920003996692
 31
0.0
  0
LINE
  8
DETAIL
  6
CONTINUOUS
 62
     5
 10
520.5940631836537
 20
-2.1492920003996692
 30
0.0
 11
520.5940631836537
 21
-34.608292643327218
 31
0.0
  0
LINE
  8
DETAIL
  6
CONTINUOUS
 62
     5
 10
576.39944240147327
 20
-34.608292643327218
 30
0.0
 11
576.39944240147327
 21
-2.1492920003996692
 31
0.0
  0
LINE
  8
DETAIL
  6
CONTINUOUS
 62
     5
 10
578.19881577341903
 20
-2.1492920003996692
 30
0.0
 11
578.19881577341903
 21
-24.10970866157675
 31
0.0
  0
LINE
  8
DETAIL
  6
CONTINUOUS
 62
     5
 10
739.53160381902342
 20
0.5812906812089977
 30
0.0
 11
739.53160381902342
 21
-0.0217732834838671
 31
0.0
  0
LINE
  8
DETAIL
  6
CONTINUOUS
 62
     5
 10
783.240563769034
 20
-34.999999999999893
 30
0.0
 11
783.240563769034
 21
-34.703894043042411
 31
0.0
  0
LINE
  8
DETAIL
  6
CONTINUOUS
 62
     5
 10
799.80389384301816
 20
-34.999999999999893
 30
0.0
 11
799.80389384301816
 21
-34.703894043042411
 31
0.0
  0
LINE
  8
DETAIL
  6
CONTINUOUS
 62
     5
 10
800.34339579600828
 20
-34.999999999999893
 30
0.0
 11
800.34339579600828
 21
-34.703894043042411
 31
0.0
  0
LINE
  8
DETAIL
  6
CONTINUOUS
 62
     5
 10
811.8899778243715
 20
0.5812906812089977
 30
0.0
 11
812.04810770714403
 21
-34.999999999999893
 31
0.0
  0
LINE
  8
DETAIL
  6
CONTINUOUS
 62
     5
 10
800.04677307472809
 20
-0.0217732834838671
 30
0.0
 11
800.34339579600828
 21
-34.703894043042411
 31
0.0
  0
LINE
  8
DETAIL
  6
CONTINUOUS
 62
     5
 10
801.54952372539378
 20
-0.0217732834838671
 30
0.0
 11
801.84614644667454
 21
-34.703894043042411
 31
0.0
  0
LINE
  8
DETAIL
  6
CONTINUOUS
 62
     5
 10
-799.33828918818574
 20
-34.915250651063047
 30
0.0
 11
-799.32461828595569
 21
-34.933411225835158
 31
0.0
  0
LINE
  8
DETAIL
  6
CONTINUOUS
 62
     5
 10
-799.32461828595569
 20
-34.933411225835158
 30
0.0
 11
-799.31118241356319
 21
-34.951571800607333
 31
0.0
  0
LINE
  8
DETAIL
  6
CONTINUOUS
 62
     5
 10
-799.31118241356319
 20
-34.951571800607333
 30
0.0
 11
-799.29815332358226
 21
-34.96973237537955
 31
0.0
  0
LINE
  8
DETAIL
  6
CONTINUOUS
 62
     5
 10
-799.29815332358226
 20
-34.96973237537955
 30
0.0
 11
-799.28570276858693
 21
-34.987892950151831
 31
0.0
  0
LINE
  8
DETAIL
  6
CONTINUOUS
 62
     5
 10
-799.28570276858693
 20
-34.987892950151831
 30
0.0
 11
-799.27400250115011
 21
-35.006053524924141
 31
0.0
  0
LINE
  8
DETAIL
  6
CONTINUOUS
 62
     5
 10
-799.27400250115011
 20
-35.006053524924141
 30
0.0
 11
-799.26322427384616
 21
-35.024214099696557
 31
0.0
  0
LINE
  8
DETAIL
  6
CONTINUOUS
 62
     5
 10
-799.26322427384616
 20
-35.024214099696557
 30
0.0
 11
-799.25353983924879
 21
-35.042374674468988
 31
0.0
  0
LINE
  8
DETAIL
  6
CONTINUOUS
 62
     5
 10
-783.72787252542219
 20
-34.999999999999893
 30
0.0
 11
-783.70870263610414
 21
-34.974575195318721
 31
0.0
  0
LINE
  8
DETAIL
  6
CONTINUOUS
 62
     5
 10
-783.70870263610414
 20
-34.974575195318721
 30
0.0
 11
-783.68960716084837
 21
-34.949150390637641
 31
0.0
  0
LINE
  8
DETAIL
  6
CONTINUOUS
 62
     5
 10
-783.68960716084837
 20
-34.949150390637641
 30
0.0
 11
-783.67053649028014
 21
-34.923725585956497
 31
0.0
  0
LINE
  8
DETAIL
  6
CONTINUOUS
 62
     5
 10
-783.67053649028014
 20
-34.923725585956497
 30
0.0
 11
-783.6514410150246
 21
-34.89830078127531
 31
0.0
  0
LINE
  8
DETAIL
  6
CONTINUOUS
 62
     5
 10
-783.6514410150246
 20
-34.89830078127531
 30
0.0
 11
-783.63227112570632
 21
-34.872875976593953
 31
0.0
  0
LINE
  8
DETAIL
  6
CONTINUOUS
 62
     5
 10
-783.63227112570632
 20
-34.872875976593953
 30
0.0
 11
-783.55892366478747
 21
-34.814622168014751
 31
0.0
  0
LINE
  8
DETAIL
  6
CONTINUOUS
 62
     5
 10
-783.55892366478747
 20
-34.814622168014751
 30
0.0
 11
-783.4794494460574
 21
-34.767629687557758
 31
0.0
  0
LINE
  8
DETAIL
  6
CONTINUOUS
 62
     5
 10
-783.4794494460574
 20
-34.767629687557758
 30
0.0
 11
-783.39541116482803
 21
-34.732865918035188
 31
0.0
  0
LINE
  8
DETAIL
  6
CONTINUOUS
 62
     5
 10
-783.39541116482803
 20
-34.732865918035188
 30
0.0
 11
-783.30837151641231
 21
-34.711298242259318
 31
0.0
  0
LINE
  8
DETAIL
  6
CONTINUOUS
 62
     5
 10
-783.30837151641231
 20
-34.711298242259318
 30
0.0
 11
-783.21989319612157
 21
-34.703894043042411
 31
0.0
  0
LINE
  8
DETAIL
  6
CONTINUOUS
 62
     5
 10
-801.2746051056705
 20
-35.010335286455643
 30
0.0
 11
-801.2746051056705
 21
-35.010335286455643
 31
0.0
  0
LINE
  8
DETAIL
  6
CONTINUOUS
 62
     5
 10
799.28506246293932
 20
-34.999999999999893
 30
0.0
 11
799.29490961050112
 21
-34.982440559235791
 31
0.0
  0
LINE
  8
DETAIL
  6
CONTINUOUS
 62
     5
 10
799.29490961050112
 20
-34.982440559235791
 30
0.0
 11
799.30575111506914
 21
-34.965830277431913
 31
0.0
  0
LINE
  8
DETAIL
  6
CONTINUOUS
 62
     5
 10
799.30575111506914
 20
-34.965830277431913
 30
0.0
 11
799.3174423428967
 21
-34.949789491004204
 31
0.0
  0
LINE
  8
DETAIL
  6
CONTINUOUS
 62
     5
 10
799.3174423428967
 20
-34.949789491004204
 30
0.0
 11
799.32983866023744
 21
-34.933938536368537
 31
0.0
  0
LINE
  8
DETAIL
  6
CONTINUOUS
 62
     5
 10
799.32983866023744
 20
-34.933938536368537
 30
0.0
 11
799.34279543334515
 21
-34.917897749940892
 31
0.0
  0
LINE
  8
DETAIL
  6
CONTINUOUS
 62
     5
 10
799.34279543334515
 20
-34.917897749940892
 30
0.0
 11
799.3561680284738
 21
-34.901287468137163
 31
0.0
  0
LINE
  8
DETAIL
  6
CONTINUOUS
 62
     5
 10
799.3561680284738
 20
-34.901287468137163
 30
0.0
 11
799.3698118118765
 21
-34.883728027373188
 31
0.0
  0
LINE
  8
DETAIL
  6
CONTINUOUS
 62
     5
 10
783.240563769034
 20
-34.703894043042411
 30
0.0
 11
783.33553264921841
 21
-34.711298242259318
 31
0.0
  0
LINE
  8
DETAIL
  6
CONTINUOUS
 62
     5
 10
783.33553264921841
 20
-34.711298242259318
 30
0.0
 11
783.4278226231537
 21
-34.732865918035188
 31
0.0
  0
LINE
  8
DETAIL
  6
CONTINUOUS
 62
     5
 10
783.4278226231537
 20
-34.732865918035188
 30
0.0
 11
783.51500283146527
 21
-34.767629687557758
 31
0.0
  0
LINE
  8
DETAIL
  6
CONTINUOUS
 62
     5
 10
783.51500283146527
 20
-34.767629687557758
 30
0.0
 11
783.59464241477872
 21
-34.814622168014751
 31
0.0
  0
LINE
  8
DETAIL
  6
CONTINUOUS
 62
     5
 10
783.59464241477872
 20
-34.814622168014751
 30
0.0
 11
783.66431051371933
 21
-34.872875976593953
 31
0.0
  0
LINE
  8
DETAIL
  6
CONTINUOUS
 62
     5
 10
783.66431051371933
 20
-34.872875976593953
 30
0.0
 11
783.68838759704681
 21
-34.897258984400537
 31
0.0
  0
LINE
  8
DETAIL
  6
CONTINUOUS
 62
     5
 10
783.68838759704681
 20
-34.897258984400537
 30
0.0
 11
783.70983538349992
 21
-34.920600195332213
 31
0.0
  0
LINE
  8
DETAIL
  6
CONTINUOUS
 62
     5
 10
783.70983538349992
 20
-34.920600195332213
 30
0.0
 11
783.72875309182859
 21
-34.944462304701197
 31
0.0
  0
LINE
  8
DETAIL
  6
CONTINUOUS
 62
     5
 10
783.72875309182859
 20
-34.944462304701197
 30
0.0
 11
783.74523994078277
 21
-34.970408007819692
 31
0.0
  0
LINE
  8
DETAIL
  6
CONTINUOUS
 62
     5
 10
783.74523994078277
 20
-34.970408007819692
 30
0.0
 11
783.75939514911249
 21
-34.999999999999893
 31
0.0
  0
LINE
  8
DETAIL
  6
CONTINUOUS
 62
     5
 10
801.3169797801396
 20
-35.010335286455643
 30
0.0
 11
801.3169797801396
 21
-35.010335286455643
 31
0.0
  0
LINE
  8
DETAIL
  6
CONTINUOUS
 62
     5
 10
-827.99752176565721
 20
-34.999999999999893
 30
0.0
 11
-827.90243713026337
 21
-38.058728026578478
 31
0.0
  0
LINE
  8
DETAIL
  6
CONTINUOUS
 62
     5
 10
-782.0979978513501
 20
-34.999999999999893
 30
0.0
 11
-781.49441712233443
 21
-0.0217732834838671
 31
0.0
  0
LINE
  8
DETAIL
  6
CONTINUOUS
 62
     5
 10
-800.45966776863497
 20
-0.0217732834838671
 30
0.0
 11
-800.75629048991505
 21
-34.703894043042411
 31
0.0
  0
LINE
  8
DETAIL
  6
CONTINUOUS
 62
     5
 10
-799.70829244330218
 20
-40.016231281297557
 30
0.0
 11
-799.61320780790891
 21
-34.999999999999893
 31
0.0
  0
LINE
  8
DETAIL
  6
CONTINUOUS
 62
     5
 10
-815.8478757726001
 20
0.2743326734731681
 30
0.0
 11
-815.99618713324003
 21
-34.999999999999893
 31
0.0
  0
LINE
  8
DETAIL
  6
CONTINUOUS
 62
     5
 10
-799.49693583528165
 20
-40.016231281297557
 30
0.0
 11
-799.49693583528165
 21
-34.999999999999893
 31
0.0
  0
LINE
  8
DETAIL
  6
CONTINUOUS
 62
     5
 10
-799.49693583528165
 20
-0.0217732834838671
 30
0.0
 11
-799.49693583528165
 21
0.5812906812089977
 31
0.0
  0
LINE
  8
DETAIL
  6
CONTINUOUS
 62
     5
 10
-737.45731182735426
 20
0.5812906812089977
 30
0.0
 11
-737.45731182735426
 21
-0.0217732834838671
 31
0.0
  0
LINE
  8
DETAIL
  6
CONTINUOUS
 62
     5
 10
-592.49768458494827
 20
-4.0964599686634529
 30
0.0
 11
-592.49768458494827
 21
-22.098978681610671
 31
0.0
  0
LINE
  8
DETAIL
  6
CONTINUOUS
 62
     5
 10
-577.5538938985801
 20
-2.1492920003996692
 30
0.0
 11
-577.5538938985801
 21
-34.608292643327218
 31
0.0
  0
LINE
  8
DETAIL
  6
CONTINUOUS
 62
     5
 10
-519.35589586625474
 20
-34.608292643327218
 30
0.0
 11
-519.35589586625474
 21
-2.1492920003996692
 31
0.0
  0
LINE
  8
DETAIL
  6
CONTINUOUS
 62
     5
 10
-504.5077065796022
 20
-22.098978681610671
 30
0.0
 11
-504.5077065796022
 21
-4.0964599686634529
 31
0.0
  0
LINE
  8
DETAIL
  6
CONTINUOUS
 62
     5
 10
-575.99791652266686
 20
-34.999999999999893
 30
0.0
 11
-576.35810125565013
 21
-34.608292643327218
 31
0.0
  0
LINE
  8
DETAIL
  6
CONTINUOUS
 62
     5
 10
-520.55168850918471
 20
-34.608292643327218
 30
0.0
 11
-521.00695787756035
 21
-34.999999999999893
 31
0.0
  0
LINE
  8
DETAIL
  6
CONTINUOUS
 62
     5
 10
-80.010103332861732
 20
-0.0217732834838671
 30
0.0
 11
-80.010103332861732
 21
-1.006209318394099
 31
0.0
  0
LINE
  8
DETAIL
  6
CONTINUOUS
 62
     5
 10
-77.967333964882982
 20
-0.0217732834838671
 30
0.0
 11
-77.967333964882982
 21
-1.006209318394099
 31
0.0
  0
LINE
  8
DETAIL
  6
CONTINUOUS
 62
     5
 10
-39.952083323345043
 20
-0.0217732834838671
 30
0.0
 11
-39.952083323345043
 21
-1.006209318394099
 31
0.0
  0
LINE
  8
DETAIL
  6
CONTINUOUS
 62
     5
 10
-38.004915355081941
 20
-0.0217732834838671
 30
0.0
 11
-38.004915355081941
 21
-1.006209318394099
 31
0.0
  0
LINE
  8
DETAIL
  6
CONTINUOUS
 62
     5
 10
-737.45731182735426
 20
0.5812906812089977
 30
0.0
 11
-815.54091776486484
 21
0.5812906812089977
 31
0.0
  0
LINE
  8
DETAIL
  6
CONTINUOUS
 62
     5
 10
801.54952372539378
 20
-0.0217732834838671
 30
0.0
 11
-801.50766581524783
 21
-0.0217732834838671
 31
0.0
  0
LINE
  8
DETAIL
  6
CONTINUOUS
 62
     5
 10
-590.4549152169692
 20
-2.1492920003996692
 30
0.0
 11
-506.45487454786507
 21
-2.1492920003996692
 31
0.0
  0
LINE
  8
DETAIL
  6
CONTINUOUS
 62
     5
 10
506.49673245801142
 20
-2.1492920003996692
 30
0.0
 11
590.49677312711583
 21
-2.1492920003996692
 31
0.0
  0
LINE
  8
DETAIL
  6
CONTINUOUS
 62
     5
 10
-590.4549152169692
 20
-24.10970866157675
 30
0.0
 11
-577.5538938985801
 21
-24.10970866157675
 31
0.0
  0
LINE
  8
DETAIL
  6
CONTINUOUS
 62
     5
 10
-519.35589586625474
 20
-24.10970866157675
 30
0.0
 11
-506.45487454786507
 21
-24.10970866157675
 31
0.0
  0
LINE
  8
DETAIL
  6
CONTINUOUS
 62
     5
 10
506.49673245801142
 20
-24.10970866157675
 30
0.0
 11
519.39827054072407
 21
-24.10970866157675
 31
0.0
  0
LINE
  8
DETAIL
  6
CONTINUOUS
 62
     5
 10
577.59626857304897
 20
-24.10970866157675
 30
0.0
 11
590.49677312711583
 21
-24.10970866157675
 31
0.0
  0
LINE
  8
DETAIL
  6
CONTINUOUS
 62
     5
 10
18.002001948624638
 20
-0.0217732834838671
 30
0.0
 11
18.002001948624638
 21
-1.006209318394099
 31
0.0
  0
LINE
  8
DETAIL
  6
CONTINUOUS
 62
     5
 10
20.044771316603601
 20
-0.0217732834838671
 30
0.0
 11
20.044771316603601
 21
-1.006209318394099
 31
0.0
  0
LINE
  8
DETAIL
  6
CONTINUOUS
 62
     5
 10
39.994457997813917
 20
-0.0217732834838671
 30
0.0
 11
39.994457997813917
 21
-1.006209318394099
 31
0.0
  0
LINE
  8
DETAIL
  6
CONTINUOUS
 62
     5
 10
42.005187977780217
 20
-0.0217732834838671
 30
0.0
 11
42.005187977780217
 21
-1.006209318394099
 31
0.0
  0
LINE
  8
DETAIL
  6
CONTINUOUS
 62
     5
 10
577.59626857304897
 20
-34.608292643327218
 30
0.0
 11
576.39944240147327
 21
-34.608292643327218
 31
0.0
  0
LINE
  8
DETAIL
  6
CONTINUOUS
 62
     5
 10
-519.35589586625474
 20
-34.608292643327218
 30
0.0
 11
-520.55168850918471
 21
-34.608292643327218
 31
0.0
  0
LINE
  8
DETAIL
  6
CONTINUOUS
 62
     5
 10
-577.5538938985801
 20
-34.608292643327218
 30
0.0
 11
-576.35810125565013
 21
-34.608292643327218
 31
0.0
  0
LINE
  8
DETAIL
  6
CONTINUOUS
 62
     5
 10
519.39827054072407
 20
-34.608292643327218
 30
0.0
 11
520.5940631836537
 21
-34.608292643327218
 31
0.0
  0
LINE
  8
DETAIL
  6
CONTINUOUS
 62
     5
 10
-827.99752176565721
 20
-34.999999999999893
 30
0.0
 11
828.03989644012518
 21
-34.999999999999893
 31
0.0
  0
LINE
  8
DETAIL
  6
CONTINUOUS
 62
     5
 10
-799.49693583528165
 20
-38.810103351912289
 30
0.0
 11
-799.70829244330218
 21
-38.810103351912289
 31
0.0
  0
LINE
  8
DETAIL
  6
CONTINUOUS
 62
     5
 10
799.53931050975086
 20
-38.810103351912289
 30
0.0
 11
799.73981506699238
 21
-38.810103351912289
 31
0.0
  0
LINE
  8
DETAIL
  6
CONTINUOUS
 62
     5
 10
-825.9552691620006
 20
-40.016231281297557
 30
0.0
 11
825.99764383646971
 21
-40.016231281297557
 31
0.0
  0
LINE
  8
DETAIL
  6
CONTINUOUS
 62
     5
 10
75.998978659386012
 20
-0.0217732834838671
 30
0.0
 11
75.998978659386012
 21
-1.006209318394099
 31
0.0
  0
LINE
  8
DETAIL
  6
CONTINUOUS
 62
     5
 10
78.00970863935207
 20
-0.0217732834838671
 30
0.0
 11
78.00970863935207
 21
-1.006209318394099
 31
0.0
  0
LINE
  8
DETAIL
  6
CONTINUOUS
 62
     5
 10
98.044144669499488
 20
-0.0217732834838671
 30
0.0
 11
98.044144669499488
 21
-1.006209318394099
 31
0.0
  0
LINE
  8
DETAIL
  6
CONTINUOUS
 62
     5
 10
99.991312637762789
 20
-0.0217732834838671
 30
0.0
 11
99.991312637762789
 21
-1.006209318394099
 31
0.0
  0
LINE
  8
DETAIL
  6
CONTINUOUS
 62
     5
 10
521.04881578770653
 20
-34.999999999999893
 30
0.0
 11
520.5940631836537
 21
-34.608292643327218
 31
0.0
  0
LINE
  8
DETAIL
  6
CONTINUOUS
 62
     5
 10
576.39944240147327
 20
-34.608292643327218
 30
0.0
 11
576.02943914635762
 21
-34.999999999999893
 31
0.0
  0
LINE
  8
DETAIL
  6
CONTINUOUS
 62
     5
 10
504.54956448974832
 20
-4.0964599686634529
 30
0.0
 11
504.54956448974832
 21
-22.098978681610671
 31
0.0
  0
LINE
  8
DETAIL
  6
CONTINUOUS
 62
     5
 10
519.39827054072407
 20
-2.1492920003996692
 30
0.0
 11
519.39827054072407
 21
-34.608292643327218
 31
0.0
  0
LINE
  8
DETAIL
  6
CONTINUOUS
 62
     5
 10
577.59626857304897
 20
-34.608292643327218
 30
0.0
 11
577.59626857304897
 21
-2.1492920003996692
 31
0.0
  0
LINE
  8
DETAIL
  6
CONTINUOUS
 62
     5
 10
592.53902573077175
 20
-22.098978681610671
 30
0.0
 11
592.53902573077175
 21
-4.0964599686634529
 31
0.0
  0
LINE
  8
DETAIL
  6
CONTINUOUS
 62
     5
 10
799.53931050975086
 20
0.5812906812089977
 30
0.0
 11
799.53931050975086
 21
-0.0217732834838671
 31
0.0
  0
LINE
  8
DETAIL
  6
CONTINUOUS
 62
     5
 10
828.03989644012518
 20
-34.999999999999893
 30
0.0
 11
827.94481180473281
 21
-38.058728026578478
 31
0.0
  0
LINE
  8
DETAIL
  6
CONTINUOUS
 62
     5
 10
801.84614644667454
 20
-34.703894043042411
 30
0.0
 11
801.84614644667454
 21
-34.999999999999893
 31
0.0
  0
LINE
  8
DETAIL
  6
CONTINUOUS
 62
     5
 10
737.49968650182348
 20
0.5812906812089977
 30
0.0
 11
737.49968650182348
 21
-0.0217732834838671
 31
0.0
  0
LINE
  8
DETAIL
  6
CONTINUOUS
 62
     5
 10
799.53931050975086
 20
-34.999999999999893
 30
0.0
 11
799.53931050975086
 21
-40.016231281297557
 31
0.0
  0
LINE
  8
DETAIL
  6
CONTINUOUS
 62
     5
 10
815.85872782337901
 20
0.2743326734731681
 30
0.0
 11
816.03856180770924
 21
-34.999999999999893
 31
0.0
  0
LINE
  8
DETAIL
  6
CONTINUOUS
 62
     5
 10
799.68710510606786
 20
-34.999999999999893
 30
0.0
 11
799.73981506699238
 21
-40.016231281297557
 31
0.0
  0
LINE
  8
DETAIL
  6
CONTINUOUS
 62
     5
 10
800.49119039232539
 20
-0.0217732834838671
 30
0.0
 11
800.79814840006043
 21
-34.703894043042411
 31
0.0
  0
LINE
  8
DETAIL
  6
CONTINUOUS
 62
     5
 10
781.5362750324806
 20
-0.0217732834838671
 30
0.0
 11
782.1088499021298
 21
-34.999999999999893
 31
0.0
  0
LINE
  8
DETAIL
  6
CONTINUOUS
 62
     5
 10
-592.49768458494827
 20
-4.0964599686634529
 30
0.0
 11
-592.47147429849645
 21
-3.7761777096287692
 31
0.0
  0
LINE
  8
DETAIL
  6
CONTINUOUS
 62
     5
 10
-592.47147429849645
 20
-3.7761777096287692
 30
0.0
 11
-592.39491049643232
 21
-3.4664870521540929
 31
0.0
  0
LINE
  8
DETAIL
  6
CONTINUOUS
 62
     5
 10
-592.39491049643232
 20
-3.4664870521540929
 30
0.0
 11
-592.27109376469252
 21
-3.1730186603004431
 31
0.0
  0
LINE
  8
DETAIL
  6
CONTINUOUS
 62
     5
 10
-592.27109376469252
 20
-3.1730186603004431
 30
0.0
 11
-592.1031246892137
 21
-2.901403198128889
 31
0.0
  0
LINE
  8
DETAIL
  6
CONTINUOUS
 62
     5
 10
-592.1031246892137
 20
-2.901403198128889
 30
0.0
 11
-591.89410385593237
 21
-2.6572713297003929
 31
0.0
  0
LINE
  8
DETAIL
  6
CONTINUOUS
 62
     5
 10
-591.89410385593237
 20
-2.6572713297003929
 30
0.0
 11
-591.64997198750393
 21
-2.4493791097003168
 31
0.0
  0
LINE
  8
DETAIL
  6
CONTINUOUS
 62
     5
 10
-591.64997198750393
 20
-2.4493791097003168
 30
0.0
 11
-591.37835652533215
 21
-2.28410134281458
 31
0.0
  0
LINE
  8
DETAIL
  6
CONTINUOUS
 62
     5
 10
-591.37835652533215
 20
-2.28410134281458
 30
0.0
 11
-591.08488813347844
 21
-2.163496818105187
 31
0.0
  0
LINE
  8
DETAIL
  6
CONTINUOUS
 62
     5
 10
-591.08488813347844
 20
-2.163496818105187
 30
0.0
 11
-590.77519747600377
 21
-2.0896243246340869
 31
0.0
  0
LINE
  8
DETAIL
  6
CONTINUOUS
 62
     5
 10
-590.77519747600377
 20
-2.0896243246340869
 30
0.0
 11
-590.4549152169692
 21
-2.064542651463285
 31
0.0
  0
LINE
  8
DETAIL
  6
CONTINUOUS
 62
     5
 10
-506.45487454786507
 20
-2.1492920003996692
 30
0.0
 11
-506.14730469117131
 21
-2.174154565497616
 31
0.0
  0
LINE
  8
DETAIL
  6
CONTINUOUS
 62
     5
 10
-506.14730469117131
 20
-2.174154565497616
 30
0.0
 11
-505.85032643603722
 21
-2.2467413493337181
 31
0.0
  0
LINE
  8
DETAIL
  6
CONTINUOUS
 62
     5
 10
-505.85032643603722
 20
-2.2467413493337181
 30
0.0
 11
-505.56957044652432
 21
-2.364050984721132
 31
0.0
  0
LINE
  8
DETAIL
  6
CONTINUOUS
 62
     5
 10
-505.56957044652432
 20
-2.364050984721132
 30
0.0
 11
-505.31066738669313
 21
-2.5230821044731901
 31
0.0
  0
LINE
  8
DETAIL
  6
CONTINUOUS
 62
     5
 10
-505.31066738669313
 20
-2.5230821044731901
 30
0.0
 11
-505.07924792060521
 21
-2.7208333414031358
 31
0.0
  0
LINE
  8
DETAIL
  6
CONTINUOUS
 62
     5
 10
-505.07924792060521
 20
-2.7208333414031358
 30
0.0
 11
-504.87752793367639
 21
-2.9574121824896049
 31
0.0
  0
LINE
  8
DETAIL
  6
CONTINUOUS
 62
     5
 10
-504.87752793367639
 20
-2.9574121824896049
 30
0.0
 11
-504.71800072017481
 21
-3.2188205157575571
 31
0.0
  0
LINE
  8
DETAIL
  6
CONTINUOUS
 62
     5
 10
-504.71800072017481
 20
-3.2188205157575571
 30
0.0
 11
-504.60217936603692
 21
-3.499502091208285
 31
0.0
  0
LINE
  8
DETAIL
  6
CONTINUOUS
 62
     5
 10
-504.60217936603692
 20
-3.499502091208285
 30
0.0
 11
-504.5315769572004
 21
-3.793900658843143
 31
0.0
  0
LINE
  8
DETAIL
  6
CONTINUOUS
 62
     5
 10
-504.5315769572004
 20
-3.793900658843143
 30
0.0
 11
-504.5077065796022
 21
-4.0964599686634529
 31
0.0
  0
LINE
  8
DETAIL
  6
CONTINUOUS
 62
     5
 10
-815.8478757726001
 20
0.2743326734731681
 30
0.0
 11
-815.84408892364286
 21
0.3237973544502211
 31
0.0
  0
LINE
  8
DETAIL
  6
CONTINUOUS
 62
     5
 10
-815.84408892364286
 20
0.3237973544502211
 30
0.0
 11
-815.8327118403123
 21
0.3701614494905812
 31
0.0
  0
LINE
  8
DETAIL
  6
CONTINUOUS
 62
     5
 10
-815.8327118403123
 20
0.3701614494905812
 30
0.0
 11
-815.81371971792146
 21
0.4129288648444458
 31
0.0
  0
LINE
  8
DETAIL
  6
CONTINUOUS
 62
     5
 10
-815.81371971792146
 20
0.4129288648444458
 30
0.0
 11
-815.78708775178222
 21
0.4516035067618418
 31
0.0
  0
LINE
  8
DETAIL
  6
CONTINUOUS
 62
     5
 10
-815.78708775178222
 20
0.4516035067618418
 30
0.0
 11
-815.75279113720762
 21
0.4856892814929097
 31
0.0
  0
LINE
  8
DETAIL
  6
CONTINUOUS
 62
     5
 10
-815.75279113720762
 20
0.4856892814929097
 30
0.0
 11
-815.718651618987
 21
0.5202380770572859
 31
0.0
  0
LINE
  8
DETAIL
  6
CONTINUOUS
 62
     5
 10
-815.718651618987
 20
0.5202380770572859
 30
0.0
 11
-815.67984881951702
 21
0.5470230054361309
 31
0.0
  0
LINE
  8
DETAIL
  6
CONTINUOUS
 62
     5
 10
-815.67984881951702
 20
0.5470230054361309
 30
0.0
 11
-815.63692844192383
 21
0.5660936760043569
 31
0.0
  0
LINE
  8
DETAIL
  6
CONTINUOUS
 62
     5
 10
-815.63692844192383
 20
0.5660936760043569
 30
0.0
 11
-815.59043618933151
 21
0.5774996981369895
 31
0.0
  0
LINE
  8
DETAIL
  6
CONTINUOUS
 62
     5
 10
-815.59043618933151
 20
0.5774996981369895
 30
0.0
 11
-815.54091776486484
 21
0.5812906812089977
 31
0.0
  0
LINE
  8
DETAIL
  6
CONTINUOUS
 62
     5
 10
-113.1042073284946
 20
-32.142293294984817
 30
0.0
 11
-113.0951571731389
 21
-32.187694731915613
 31
0.0
  0
LINE
  8
DETAIL
  6
CONTINUOUS
 62
     5
 10
-113.0951571731389
 20
-32.187694731915613
 30
0.0
 11
-113.08628780996619
 21
-32.233096168846373
 31
0.0
  0
LINE
  8
DETAIL
  6
CONTINUOUS
 62
     5
 10
-113.08628780996619
 20
-32.233096168846373
 30
0.0
 11
-113.07778003115919
 21
-32.278497605777119
 31
0.0
  0
LINE
  8
DETAIL
  6
CONTINUOUS
 62
     5
 10
-113.07778003115919
 20
-32.278497605777119
 30
0.0
 11
-113.0698146289009
 21
-32.323899042707808
 31
0.0
  0
LINE
  8
DETAIL
  6
CONTINUOUS
 62
     5
 10
-113.0698146289009
 20
-32.323899042707808
 30
0.0
 11
-113.0625723953743
 21
-32.36930047963844
 31
0.0
  0
LINE
  8
DETAIL
  6
CONTINUOUS
 62
     5
 10
-113.0625723953743
 20
-32.36930047963844
 30
0.0
 11
-113.05623412276211
 21
-32.414701916569022
 31
0.0
  0
LINE
  8
DETAIL
  6
CONTINUOUS
 62
     5
 10
-113.05623412276211
 20
-32.414701916569022
 30
0.0
 11
-113.0509806032474
 21
-32.460103353499449
 31
0.0
  0
LINE
  8
DETAIL
  6
CONTINUOUS
 62
     5
 10
-126.9684773445595
 20
-32.438916016265352
 30
0.0
 11
-126.96322382504469
 21
-32.389687811463197
 31
0.0
  0
LINE
  8
DETAIL
  6
CONTINUOUS
 62
     5
 10
-126.96322382504469
 20
-32.389687811463197
 30
0.0
 11
-126.95688555243269
 21
-32.341544359758529
 31
0.0
  0
LINE
  8
DETAIL
  6
CONTINUOUS
 62
     5
 10
-126.95688555243269
 20
-32.341544359758529
 30
0.0
 11
-126.9496433189061
 21
-32.294304868968368
 31
0.0
  0
LINE
  8
DETAIL
  6
CONTINUOUS
 62
     5
 10
-126.9496433189061
 20
-32.294304868968368
 30
0.0
 11
-126.9416779166479
 21
-32.247788546909852
 31
0.0
  0
LINE
  8
DETAIL
  6
CONTINUOUS
 62
     5
 10
-126.9416779166479
 20
-32.247788546909852
 30
0.0
 11
-126.933170137841
 21
-32.201814601400031
 31
0.0
  0
LINE
  8
DETAIL
  6
CONTINUOUS
 62
     5
 10
-126.933170137841
 20
-32.201814601400031
 30
0.0
 11
-126.9243007746683
 21
-32.15620224025605
 31
0.0
  0
LINE
  8
DETAIL
  6
CONTINUOUS
 62
     5
 10
-126.9243007746683
 20
-32.15620224025605
 30
0.0
 11
-126.9152506193127
 21
-32.110770671294972
 31
0.0
  0
LINE
  8
DETAIL
  6
CONTINUOUS
 62
     5
 10
-825.9552691620006
 20
-40.037418618532122
 30
0.0
 11
-826.27555142103483
 21
-40.012386554736338
 31
0.0
  0
LINE
  8
DETAIL
  6
CONTINUOUS
 62
     5
 10
-826.27555142103483
 20
-40.012386554736338
 30
0.0
 11
-826.58524207850962
 21
-39.938613280015261
 31
0.0
  0
LINE
  8
DETAIL
  6
CONTINUOUS
 62
     5
 10
-826.58524207850962
 20
-39.938613280015261
 30
0.0
 11
-826.87871047036333
 21
-39.818083169368379
 31
0.0
  0
LINE
  8
DETAIL
  6
CONTINUOUS
 62
     5
 10
-826.87871047036333
 20
-39.818083169368379
 30
0.0
 11
-827.15032593253522
 21
-39.652780597795143
 31
0.0
  0
LINE
  8
DETAIL
  6
CONTINUOUS
 62
     5
 10
-827.15032593253522
 20
-39.652780597795143
 30
0.0
 11
-827.39445780096344
 21
-39.444689940295007
 31
0.0
  0
LINE
  8
DETAIL
  6
CONTINUOUS
 62
     5
 10
-827.39445780096344
 20
-39.444689940295007
 30
0.0
 11
-827.60243270325532
 21
-39.207065168218953
 31
0.0
  0
LINE
  8
DETAIL
  6
CONTINUOUS
 62
     5
 10
-827.60243270325532
 20
-39.207065168218953
 30
0.0
 11
-827.76828924618292
 21
-38.941931997712352
 31
0.0
  0
LINE
  8
DETAIL
  6
CONTINUOUS
 62
     5
 10
-827.76828924618292
 20
-38.941931997712352
 30
0.0
 11
-827.89046473443364
 21
-38.654896288148727
 31
0.0
  0
LINE
  8
DETAIL
  6
CONTINUOUS
 62
     5
 10
-827.89046473443364
 20
-38.654896288148727
 30
0.0
 11
-827.96739647269567
 21
-38.351563898901688
 31
0.0
  0
LINE
  8
DETAIL
  6
CONTINUOUS
 62
     5
 10
-827.96739647269567
 20
-38.351563898901688
 30
0.0
 11
-827.99752176565721
 21
-38.037540689344837
 31
0.0
  0
LINE
  8
DETAIL
  6
CONTINUOUS
 62
     5
 10
-590.4549152169692
 20
-24.141231285266599
 30
0.0
 11
-590.77519747600388
 21
-24.11620335558538
 31
0.0
  0
LINE
  8
DETAIL
  6
CONTINUOUS
 62
     5
 10
-590.77519747600388
 20
-24.11620335558538
 30
0.0
 11
-591.08488813347844
 21
-24.04245901966641
 31
0.0
  0
LINE
  8
DETAIL
  6
CONTINUOUS
 62
     5
 10
-591.08488813347844
 20
-24.04245901966641
 30
0.0
 11
-591.37835652533215
 21
-23.922007457196631
 31
0.0
  0
LINE
  8
DETAIL
  6
CONTINUOUS
 62
     5
 10
-591.37835652533215
 20
-23.922007457196631
 30
0.0
 11
-591.64997198750393
 21
-23.756857847863021
 31
0.0
  0
LINE
  8
DETAIL
  6
CONTINUOUS
 62
     5
 10
-591.64997198750393
 20
-23.756857847863021
 30
0.0
 11
-591.89410385593237
 21
-23.549019371352529
 31
0.0
  0
LINE
  8
DETAIL
  6
CONTINUOUS
 62
     5
 10
-591.89410385593237
 20
-23.549019371352529
 30
0.0
 11
-592.10312468921359
 21
-23.299591702143768
 31
0.0
  0
LINE
  8
DETAIL
  6
CONTINUOUS
 62
     5
 10
-592.10312468921359
 20
-23.299591702143768
 30
0.0
 11
-592.27109376469252
 21
-23.024764032941562
 31
0.0
  0
LINE
  8
DETAIL
  6
CONTINUOUS
 62
     5
 10
-592.27109376469252
 20
-23.024764032941562
 30
0.0
 11
-592.39491049643232
 21
-22.729646129369549
 31
0.0
  0
LINE
  8
DETAIL
  6
CONTINUOUS
 62
     5
 10
-592.39491049643232
 20
-22.729646129369549
 30
0.0
 11
-592.47147429849645
 21
-22.419347757051359
 31
0.0
  0
LINE
  8
DETAIL
  6
CONTINUOUS
 62
     5
 10
-592.47147429849645
 20
-22.419347757051359
 30
0.0
 11
-592.49768458494827
 21
-22.098978681610671
 31
0.0
  0
LINE
  8
DETAIL
  6
CONTINUOUS
 62
     5
 10
-504.5077065796022
 20
-22.098978681610671
 30
0.0
 11
-504.5315769572004
 21
-22.406635354710769
 31
0.0
  0
LINE
  8
DETAIL
  6
CONTINUOUS
 62
     5
 10
-504.5315769572004
 20
-22.406635354710769
 30
0.0
 11
-504.60217936603692
 21
-22.704221324688518
 31
0.0
  0
LINE
  8
DETAIL
  6
CONTINUOUS
 62
     5
 10
-504.60217936603692
 20
-22.704221324688518
 30
0.0
 11
-504.7180007201747
 21
-22.986626825920069
 31
0.0
  0
LINE
  8
DETAIL
  6
CONTINUOUS
 62
     5
 10
-504.7180007201747
 20
-22.986626825920069
 30
0.0
 11
-504.87752793367639
 21
-23.248742092781612
 31
0.0
  0
LINE
  8
DETAIL
  6
CONTINUOUS
 62
     5
 10
-504.87752793367639
 20
-23.248742092781612
 30
0.0
 11
-505.07924792060521
 21
-23.485457359649331
 31
0.0
  0
LINE
  8
DETAIL
  6
CONTINUOUS
 62
     5
 10
-505.07924792060521
 20
-23.485457359649331
 30
0.0
 11
-505.31066738669313
 21
-23.68188154579801
 31
0.0
  0
LINE
  8
DETAIL
  6
CONTINUOUS
 62
     5
 10
-505.31066738669313
 20
-23.68188154579801
 30
0.0
 11
-505.56957044652432
 21
-23.83819655226927
 31
0.0
  0
LINE
  8
DETAIL
  6
CONTINUOUS
 62
     5
 10
-505.56957044652432
 20
-23.83819655226927
 30
0.0
 11
-505.85032643603722
 21
-23.952368394688609
 31
0.0
  0
LINE
  8
DETAIL
  6
CONTINUOUS
 62
     5
 10
-505.85032643603722
 20
-23.952368394688609
 30
0.0
 11
-506.14730469117131
 21
-24.022363088681569
 31
0.0
  0
LINE
  8
DETAIL
  6
CONTINUOUS
 62
     5
 10
-506.14730469117131
 20
-24.022363088681569
 30
0.0
 11
-506.45487454786507
 21
-24.046146649873549
 31
0.0
  0
LINE
  8
DETAIL
  6
CONTINUOUS
 62
     5
 10
-800.75629048991505
 20
-34.703894043042411
 30
0.0
 11
-800.75999465658094
 21
-34.749191536520669
 31
0.0
  0
LINE
  8
DETAIL
  6
CONTINUOUS
 62
     5
 10
-800.75999465658094
 20
-34.749191536520669
 30
0.0
 11
-800.77079296386978
 21
-34.795034733123913
 31
0.0
  0
LINE
  8
DETAIL
  6
CONTINUOUS
 62
     5
 10
-800.77079296386978
 20
-34.795034733123913
 30
0.0
 11
-800.78821412271986
 21
-34.839364843790072
 31
0.0
  0
LINE
  8
DETAIL
  6
CONTINUOUS
 62
     5
 10
-800.78821412271986
 20
-34.839364843790072
 30
0.0
 11
-800.81178684406814
 21
-34.88012307945715
 31
0.0
  0
LINE
  8
DETAIL
  6
CONTINUOUS
 62
     5
 10
-800.81178684406814
 20
-34.88012307945715
 30
0.0
 11
-800.84103983885234
 21
-34.915250651063047
 31
0.0
  0
LINE
  8
DETAIL
  6
CONTINUOUS
 62
     5
 10
-800.84103983885234
 20
-34.915250651063047
 30
0.0
 11
-800.87616741045792
 21
-34.944503645847128
 31
0.0
  0
LINE
  8
DETAIL
  6
CONTINUOUS
 62
     5
 10
-800.87616741045792
 20
-34.944503645847128
 30
0.0
 11
-800.9169256461247
 21
-34.968076367195323
 31
0.0
  0
LINE
  8
DETAIL
  6
CONTINUOUS
 62
     5
 10
-800.9169256461247
 20
-34.968076367195323
 30
0.0
 11
-800.96125575679082
 21
-34.98549752604513
 31
0.0
  0
LINE
  8
DETAIL
  6
CONTINUOUS
 62
     5
 10
-800.96125575679082
 20
-34.98549752604513
 30
0.0
 11
-801.00709895339389
 21
-34.996295833334109
 31
0.0
  0
LINE
  8
DETAIL
  6
CONTINUOUS
 62
     5
 10
-801.00709895339389
 20
-34.996295833334109
 30
0.0
 11
-801.05239644687197
 21
-34.999999999999893
 31
0.0
  0
LINE
  8
DETAIL
  6
CONTINUOUS
 62
     5
 10
504.54956448974832
 20
-4.0964599686634529
 30
0.0
 11
504.57340179442991
 21
-3.793900658843143
 31
0.0
  0
LINE
  8
DETAIL
  6
CONTINUOUS
 62
     5
 10
504.57340179442991
 20
-3.793900658843143
 30
0.0
 11
504.64352464597482
 21
-3.499502091208285
 31
0.0
  0
LINE
  8
DETAIL
  6
CONTINUOUS
 62
     5
 10
504.64352464597482
 20
-3.499502091208285
 30
0.0
 11
504.75784945063378
 21
-3.2188205157575571
 31
0.0
  0
LINE
  8
DETAIL
  6
CONTINUOUS
 62
     5
 10
504.75784945063378
 20
-3.2188205157575571
 30
0.0
 11
504.91429261465743
 21
-2.9574121824896049
 31
0.0
  0
LINE
  8
DETAIL
  6
CONTINUOUS
 62
     5
 10
504.91429261465743
 20
-2.9574121824896049
 30
0.0
 11
505.11077054429552
 21
-2.7208333414031358
 31
0.0
  0
LINE
  8
DETAIL
  6
CONTINUOUS
 62
     5
 10
505.11077054429552
 20
-2.7208333414031358
 30
0.0
 11
505.3472832395488
 21
-2.5230821044731901
 31
0.0
  0
LINE
  8
DETAIL
  6
CONTINUOUS
 62
     5
 10
505.3472832395488
 20
-2.5230821044731901
 30
0.0
 11
505.60934476292078
 21
-2.364050984721132
 31
0.0
  0
LINE
  8
DETAIL
  6
CONTINUOUS
 62
     5
 10
505.60934476292078
 20
-2.364050984721132
 30
0.0
 11
505.89174613003757
 21
-2.2467413493337181
 31
0.0
  0
LINE
  8
DETAIL
  6
CONTINUOUS
 62
     5
 10
505.89174613003757
 20
-2.2467413493337181
 30
0.0
 11
506.18927835652568
 21
-2.1741545654976449
 31
0.0
  0
LINE
  8
DETAIL
  6
CONTINUOUS
 62
     5
 10
506.18927835652568
 20
-2.1741545654976449
 30
0.0
 11
506.49673245801142
 21
-2.1492920003996692
 31
0.0
  0
LINE
  8
DETAIL
  6
CONTINUOUS
 62
     5
 10
590.49677312711583
 20
-2.1492920003996692
 30
0.0
 11
590.8045496895387
 21
-2.174154565497616
 31
0.0
  0
LINE
  8
DETAIL
  6
CONTINUOUS
 62
     5
 10
590.8045496895387
 20
-2.174154565497616
 30
0.0
 11
591.10161062696432
 21
-2.2467413493337181
 31
0.0
  0
LINE
  8
DETAIL
  6
CONTINUOUS
 62
     5
 10
591.10161062696432
 20
-2.2467413493337181
 30
0.0
 11
591.38244929876896
 21
-2.364050984721132
 31
0.0
  0
LINE
  8
DETAIL
  6
CONTINUOUS
 62
     5
 10
591.38244929876896
 20
-2.364050984721132
 30
0.0
 11
591.64155906432927
 21
-2.5230821044731901
 31
0.0
  0
LINE
  8
DETAIL
  6
CONTINUOUS
 62
     5
 10
591.64155906432927
 20
-2.5230821044731901
 30
0.0
 11
591.8734332830212
 21
-2.7208333414031358
 31
0.0
  0
LINE
  8
DETAIL
  6
CONTINUOUS
 62
     5
 10
591.8734332830212
 20
-2.7208333414031358
 30
0.0
 11
592.07484734547086
 21
-2.9574121824896049
 31
0.0
  0
LINE
  8
DETAIL
  6
CONTINUOUS
 62
     5
 10
592.07484734547086
 20
-2.9574121824896049
 30
0.0
 11
592.23409343918104
 21
-3.2188205157575571
 31
0.0
  0
LINE
  8
DETAIL
  6
CONTINUOUS
 62
     5
 10
592.23409343918104
 20
-3.2188205157575571
 30
0.0
 11
592.34968328290233
 21
-3.499502091208285
 31
0.0
  0
LINE
  8
DETAIL
  6
CONTINUOUS
 62
     5
 10
592.34968328290233
 20
-3.499502091208285
 30
0.0
 11
592.42012859538488
 21
-3.793900658843143
 31
0.0
  0
LINE
  8
DETAIL
  6
CONTINUOUS
 62
     5
 10
592.42012859538488
 20
-3.793900658843143
 30
0.0
 11
592.44394109537893
 21
-4.0964599686634529
 31
0.0
  0
LINE
  8
DETAIL
  6
CONTINUOUS
 62
     5
 10
815.5517698156433
 20
0.5812906812089977
 30
0.0
 11
815.60128824011031
 21
0.5774996981369895
 31
0.0
  0
LINE
  8
DETAIL
  6
CONTINUOUS
 62
     5
 10
815.60128824011031
 20
0.5774996981369895
 30
0.0
 11
815.64778049270274
 21
0.5660936760043569
 31
0.0
  0
LINE
  8
DETAIL
  6
CONTINUOUS
 62
     5
 10
815.64778049270274
 20
0.5660936760043569
 30
0.0
 11
815.69070087029615
 21
0.5470230054361309
 31
0.0
  0
LINE
  8
DETAIL
  6
CONTINUOUS
 62
     5
 10
815.69070087029615
 20
0.5470230054361309
 30
0.0
 11
815.7295036697659
 21
0.5202380770572859
 31
0.0
  0
LINE
  8
DETAIL
  6
CONTINUOUS
 62
     5
 10
815.7295036697659
 20
0.5202380770572859
 30
0.0
 11
815.76364318798642
 21
0.4856892814929097
 31
0.0
  0
LINE
  8
DETAIL
  6
CONTINUOUS
 62
     5
 10
815.76364318798642
 20
0.4856892814929097
 30
0.0
 11
815.79774136506114
 21
0.4516903231680658
 31
0.0
  0
LINE
  8
DETAIL
  6
CONTINUOUS
 62
     5
 10
815.79774136506114
 20
0.4516903231680658
 30
0.0
 11
815.82434852651261
 21
0.4136233960942377
 31
0.0
  0
LINE
  8
DETAIL
  6
CONTINUOUS
 62
     5
 10
815.82434852651261
 20
0.4136233960942377
 30
0.0
 11
815.8434150629663
 21
0.3725054924587141
 31
0.0
  0
LINE
  8
DETAIL
  6
CONTINUOUS
 62
     5
 10
815.8434150629663
 20
0.3725054924587141
 30
0.0
 11
815.85489136504668
 21
0.3293536044487269
 31
0.0
  0
LINE
  8
DETAIL
  6
CONTINUOUS
 62
     5
 10
815.85489136504668
 20
0.3293536044487269
 30
0.0
 11
815.85872782337901
 21
0.2851847242515078
 31
0.0
  0
LINE
  8
DETAIL
  6
CONTINUOUS
 62
     5
 10
827.94481180473281
 20
-38.079398599490901
 30
0.0
 11
827.91057306776213
 21
-38.368422818168497
 31
0.0
  0
LINE
  8
DETAIL
  6
CONTINUOUS
 62
     5
 10
827.91057306776213
 20
-38.368422818168497
 30
0.0
 11
827.83486089330165
 21
-38.647698794661117
 31
0.0
  0
LINE
  8
DETAIL
  6
CONTINUOUS
 62
     5
 10
827.83486089330165
 20
-38.647698794661117
 30
0.0
 11
827.71911395322672
 21
-38.912687271157317
 31
0.0
  0
LINE
  8
DETAIL
  6
CONTINUOUS
 62
     5
 10
827.71911395322672
 20
-38.912687271157317
 30
0.0
 11
827.56477091941099
 21
-39.158848989845687
 31
0.0
  0
LINE
  8
DETAIL
  6
CONTINUOUS
 62
     5
 10
827.56477091941099
 20
-39.158848989845687
 30
0.0
 11
827.37327046372957
 21
-39.381644692914847
 31
0.0
  0
LINE
  8
DETAIL
  6
CONTINUOUS
 62
     5
 10
827.37327046372957
 20
-39.381644692914847
 30
0.0
 11
827.13783263826781
 21
-39.57919749234452
 31
0.0
  0
LINE
  8
DETAIL
  6
CONTINUOUS
 62
     5
 10
827.13783263826781
 20
-39.57919749234452
 30
0.0
 11
826.87833426593704
 21
-39.738203807408922
 31
0.0
  0
LINE
  8
DETAIL
  6
CONTINUOUS
 62
     5
 10
826.87833426593704
 20
-39.738203807408922
 30
0.0
 11
826.59899214361099
 21
-39.855587856858811
 31
0.0
  0
LINE
  8
DETAIL
  6
CONTINUOUS
 62
     5
 10
826.59899214361099
 20
-39.855587856858811
 30
0.0
 11
826.30402306816404
 21
-39.928273859444893
 31
0.0
  0
LINE
  8
DETAIL
  6
CONTINUOUS
 62
     5
 10
826.30402306816404
 20
-39.928273859444893
 30
0.0
 11
825.99764383646971
 21
-39.953186033917852
 31
0.0
  0
LINE
  8
DETAIL
  6
CONTINUOUS
 62
     5
 10
506.49673245801142
 20
-24.141231285266599
 30
0.0
 11
506.1763633825708
 21
-24.11620335558538
 31
0.0
  0
LINE
  8
DETAIL
  6
CONTINUOUS
 62
     5
 10
506.1763633825708
 20
-24.11620335558538
 30
0.0
 11
505.86606501025261
 21
-24.04245901966641
 31
0.0
  0
LINE
  8
DETAIL
  6
CONTINUOUS
 62
     5
 10
505.86606501025261
 20
-24.04245901966641
 30
0.0
 11
505.57094710668048
 21
-23.922007457196631
 31
0.0
  0
LINE
  8
DETAIL
  6
CONTINUOUS
 62
     5
 10
505.57094710668048
 20
-23.922007457196631
 30
0.0
 11
505.29611943747841
 21
-23.756857847863021
 31
0.0
  0
LINE
  8
DETAIL
  6
CONTINUOUS
 62
     5
 10
505.29611943747841
 20
-23.756857847863021
 30
0.0
 11
505.04669176826968
 21
-23.549019371352529
 31
0.0
  0
LINE
  8
DETAIL
  6
CONTINUOUS
 62
     5
 10
505.04669176826968
 20
-23.549019371352529
 30
0.0
 11
504.83905172925921
 21
-23.299591702143768
 31
0.0
  0
LINE
  8
DETAIL
  6
CONTINUOUS
 62
     5
 10
504.83905172925921
 20
-23.299591702143768
 30
0.0
 11
504.67392692461311
 21
-23.024764032941562
 31
0.0
  0
LINE
  8
DETAIL
  6
CONTINUOUS
 62
     5
 10
504.67392692461311
 20
-23.024764032941562
 30
0.0
 11
504.55340094808059
 21
-22.729646129369549
 31
0.0
  0
LINE
  8
DETAIL
  6
CONTINUOUS
 62
     5
 10
504.55340094808059
 20
-22.729646129369549
 30
0.0
 11
504.47955739341171
 21
-22.419347757051359
 31
0.0
  0
LINE
  8
DETAIL
  6
CONTINUOUS
 62
     5
 10
504.47955739341171
 20
-22.419347757051359
 30
0.0
 11
504.45447985435538
 21
-22.098978681610671
 31
0.0
  0
LINE
  8
DETAIL
  6
CONTINUOUS
 62
     5
 10
592.53902573077175
 20
-22.098978681610671
 30
0.0
 11
592.51297254067413
 21
-22.41934775705138
 31
0.0
  0
LINE
  8
DETAIL
  6
CONTINUOUS
 62
     5
 10
592.51297254067413
 20
-22.41934775705138
 30
0.0
 11
592.43676427246396
 21
-22.729646129369549
 31
0.0
  0
LINE
  8
DETAIL
  6
CONTINUOUS
 62
     5
 10
592.43676427246396
 20
-22.729646129369549
 30
0.0
 11
592.31332787926556
 21
-23.024764032941562
 31
0.0
  0
LINE
  8
DETAIL
  6
CONTINUOUS
 62
     5
 10
592.31332787926556
 20
-23.024764032941562
 30
0.0
 11
592.14559031420345
 21
-23.299591702143768
 31
0.0
  0
LINE
  8
DETAIL
  6
CONTINUOUS
 62
     5
 10
592.14559031420345
 20
-23.299591702143768
 30
0.0
 11
591.93647853040159
 21
-23.549019371352529
 31
0.0
  0
LINE
  8
DETAIL
  6
CONTINUOUS
 62
     5
 10
591.93647853040159
 20
-23.549019371352529
 30
0.0
 11
591.69209448098331
 21
-23.756857847863021
 31
0.0
  0
LINE
  8
DETAIL
  6
CONTINUOUS
 62
     5
 10
591.69209448098331
 20
-23.756857847863021
 30
0.0
 11
591.42032605657209
 21
-23.922007457196631
 31
0.0
  0
LINE
  8
DETAIL
  6
CONTINUOUS
 62
     5
 10
591.42032605657209
 20
-23.922007457196631
 30
0.0
 11
591.12677911654157
 21
-24.04245901966641
 31
0.0
  0
LINE
  8
DETAIL
  6
CONTINUOUS
 62
     5
 10
591.12677911654157
 20
-24.04245901966641
 30
0.0
 11
590.81705952026471
 21
-24.11620335558538
 31
0.0
  0
LINE
  8
DETAIL
  6
CONTINUOUS
 62
     5
 10
590.81705952026471
 20
-24.11620335558538
 30
0.0
 11
590.49677312711583
 21
-24.141231285266599
 31
0.0
  0
LINE
  8
DETAIL
  6
CONTINUOUS
 62
     5
 10
801.09477112134095
 20
-34.999999999999893
 30
0.0
 11
801.0452526968744
 21
-34.996295833334109
 31
0.0
  0
LINE
  8
DETAIL
  6
CONTINUOUS
 62
     5
 10
801.0452526968744
 20
-34.996295833334109
 30
0.0
 11
800.99876044428174
 21
-34.98549752604513
 31
0.0
  0
LINE
  8
DETAIL
  6
CONTINUOUS
 62
     5
 10
800.99876044428174
 20
-34.98549752604513
 30
0.0
 11
800.9558400666881
 21
-34.968076367195323
 31
0.0
  0
LINE
  8
DETAIL
  6
CONTINUOUS
 62
     5
 10
800.9558400666881
 20
-34.968076367195323
 30
0.0
 11
800.9170372672188
 21
-34.944503645847128
 31
0.0
  0
LINE
  8
DETAIL
  6
CONTINUOUS
 62
     5
 10
800.9170372672188
 20
-34.944503645847128
 30
0.0
 11
800.88289774899806
 21
-34.915250651063047
 31
0.0
  0
LINE
  8
DETAIL
  6
CONTINUOUS
 62
     5
 10
800.88289774899806
 20
-34.915250651063047
 30
0.0
 11
800.85384319171374
 21
-34.88012307945715
 31
0.0
  0
LINE
  8
DETAIL
  6
CONTINUOUS
 62
     5
 10
800.85384319171374
 20
-34.88012307945715
 30
0.0
 11
800.830295275053
 21
-34.839364843790072
 31
0.0
  0
LINE
  8
DETAIL
  6
CONTINUOUS
 62
     5
 10
800.830295275053
 20
-34.839364843790072
 30
0.0
 11
800.81279970214052
 21
-34.795034733123913
 31
0.0
  0
LINE
  8
DETAIL
  6
CONTINUOUS
 62
     5
 10
800.81279970214052
 20
-34.795034733123913
 30
0.0
 11
800.80190217610152
 21
-34.749191536520669
 31
0.0
  0
LINE
  8
DETAIL
  6
CONTINUOUS
 62
     5
 10
800.80190217610152
 20
-34.749191536520669
 30
0.0
 11
800.79814840006043
 21
-34.703894043042411
 31
0.0
  0
LINE
  8
DETAIL
  6
CONTINUOUS
 62
     5
 10
-781.19831116537716
 20
-0.0217732834838671
 30
0.0
 11
-781.19831116537716
 21
-16.997481287052661
 31
0.0
  0
LINE
  8
DETAIL
  6
CONTINUOUS
 62
     5
 10
815.5517698156433
 20
0.5812906812089977
 30
0.0
 11
737.49968650182348
 21
0.5812906812089977
 31
0.0
  0
LINE
  8
DETAIL
  6
CONTINUOUS
 62
     5
 10
-781.49441712233443
 20
-1.006209318394099
 30
0.0
 11
781.5362750324806
 21
-1.006209318394099
 31
0.0
  0
LINE
  8
DETAIL
  6
CONTINUOUS
 62
     5
 10
-781.19831116537716
 20
-16.997481287052661
 30
0.0
 11
-781.79103984361484
 21
-16.997481287052661
 31
0.0
  0
LINE
  8
DETAIL
  6
CONTINUOUS
 62
     5
 10
781.23035055339017
 20
-16.997481287052661
 30
0.0
 11
781.80085836574779
 21
-16.997481287052661
 31
0.0
  0
LINE
  8
DETAIL
  6
CONTINUOUS
 62
     5
 10
781.23035055339017
 20
-0.0217732834838671
 30
0.0
 11
781.23035055339017
 21
-16.997481287052661
 31
0.0
  0
LINE
  8
DETAIL
  6
CONTINUOUS
 62
     5
 10
-799.34862447464172
 20
-34.915250651063047
 30
0.0
 11
-799.40133443556624
 21
-34.851688639359388
 31
0.0
  0
LINE
  8
DETAIL
  6
CONTINUOUS
 62
     5
 10
-799.40133443556624
 20
-34.851688639359388
 30
0.0
 11
-799.49693583528165
 21
-34.851688639359388
 31
0.0
  0
LINE
  8
DETAIL
  6
CONTINUOUS
 62
     5
 10
-799.49693583528165
 20
-34.851688639359388
 30
0.0
 11
-799.49693583528165
 21
-34.7566040039668
 31
0.0
  0
LINE
  8
DETAIL
  6
CONTINUOUS
 62
     5
 10
-799.49693583528165
 20
-34.7566040039668
 30
0.0
 11
-799.70829244330218
 21
-34.7566040039668
 31
0.0
  0
LINE
  8
DETAIL
  6
CONTINUOUS
 62
     5
 10
-799.70829244330218
 20
-34.7566040039668
 30
0.0
 11
-799.70829244330218
 21
-34.703894043042411
 31
0.0
  0
LINE
  8
DETAIL
  6
CONTINUOUS
 62
     5
 10
-801.80377177220521
 20
-34.703894043042411
 30
0.0
 11
-801.74072652482528
 21
-34.7566040039668
 31
0.0
  0
LINE
  8
DETAIL
  6
CONTINUOUS
 62
     5
 10
-801.74072652482528
 20
-34.7566040039668
 30
0.0
 11
-801.6559771758881
 21
-34.7566040039668
 31
0.0
  0
LINE
  8
DETAIL
  6
CONTINUOUS
 62
     5
 10
-801.6559771758881
 20
-34.7566040039668
 30
0.0
 11
-801.59241516418513
 21
-34.851688639359388
 31
0.0
  0
LINE
  8
DETAIL
  6
CONTINUOUS
 62
     5
 10
-801.59241516418513
 20
-34.851688639359388
 30
0.0
 11
-801.44410380354464
 21
-34.851688639359388
 31
0.0
  0
LINE
  8
DETAIL
  6
CONTINUOUS
 62
     5
 10
-801.44410380354464
 20
-34.851688639359388
 30
0.0
 11
-801.44410380354464
 21
-34.915250651063047
 31
0.0
  0
LINE
  8
DETAIL
  6
CONTINUOUS
 62
     5
 10
-801.44410380354464
 20
-34.915250651063047
 30
0.0
 11
-801.35935445460768
 21
-34.915250651063047
 31
0.0
  0
LINE
  8
DETAIL
  6
CONTINUOUS
 62
     5
 10
-801.35935445460768
 20
-34.915250651063047
 30
0.0
 11
-801.29579244290517
 21
-34.999999999999893
 31
0.0
  0
LINE
  8
DETAIL
  6
CONTINUOUS
 62
     5
 10
-801.74072652482528
 20
-34.7566040039668
 30
0.0
 11
-801.74072652482528
 21
-34.851688639359388
 31
0.0
  0
LINE
  8
DETAIL
  6
CONTINUOUS
 62
     5
 10
-801.74072652482528
 20
-34.851688639359388
 30
0.0
 11
-801.6559771758881
 21
-34.851688639359388
 31
0.0
  0
LINE
  8
DETAIL
  6
CONTINUOUS
 62
     5
 10
-801.6559771758881
 20
-34.851688639359388
 30
0.0
 11
-801.6559771758881
 21
-34.999999999999893
 31
0.0
  0
LINE
  8
DETAIL
  6
CONTINUOUS
 62
     5
 10
-801.80377177220521
 20
-34.703894043042411
 30
0.0
 11
-801.80377177220521
 21
-34.999999999999893
 31
0.0
  0
LINE
  8
DETAIL
  6
CONTINUOUS
 62
     5
 10
801.84614644667454
 20
-34.703894043042411
 30
0.0
 11
799.73981506699238
 21
-34.703894043042411
 31
0.0
  0
LINE
  8
DETAIL
  6
CONTINUOUS
 62
     5
 10
799.73981506699238
 20
-34.703894043042411
 30
0.0
 11
799.73981506699238
 21
-34.7566040039668
 31
0.0
  0
LINE
  8
DETAIL
  6
CONTINUOUS
 62
     5
 10
799.73981506699238
 20
-34.7566040039668
 30
0.0
 11
799.53931050975086
 21
-34.7566040039668
 31
0.0
  0
LINE
  8
DETAIL
  6
CONTINUOUS
 62
     5
 10
799.53931050975086
 20
-34.7566040039668
 30
0.0
 11
799.53931050975086
 21
-34.851688639359388
 31
0.0
  0
LINE
  8
DETAIL
  6
CONTINUOUS
 62
     5
 10
799.53931050975086
 20
-34.851688639359388
 30
0.0
 11
799.4431923457123
 21
-34.851688639359388
 31
0.0
  0
LINE
  8
DETAIL
  6
CONTINUOUS
 62
     5
 10
799.4431923457123
 20
-34.851688639359388
 30
0.0
 11
799.35947652542063
 21
-34.915250651063047
 31
0.0
  0
LINE
  8
DETAIL
  6
CONTINUOUS
 62
     5
 10
801.30664449368453
 20
-34.999999999999893
 30
0.0
 11
801.39139384262114
 21
-34.915250651063047
 31
0.0
  0
LINE
  8
DETAIL
  6
CONTINUOUS
 62
     5
 10
801.39139384262114
 20
-34.915250651063047
 30
0.0
 11
801.48647847801374
 21
-34.915250651063047
 31
0.0
  0
LINE
  8
DETAIL
  6
CONTINUOUS
 62
     5
 10
801.48647847801374
 20
-34.915250651063047
 30
0.0
 11
801.48647847801374
 21
-34.851688639359388
 31
0.0
  0
LINE
  8
DETAIL
  6
CONTINUOUS
 62
     5
 10
801.48647847801374
 20
-34.851688639359388
 30
0.0
 11
801.60326721496358
 21
-34.851688639359388
 31
0.0
  0
LINE
  8
DETAIL
  6
CONTINUOUS
 62
     5
 10
801.60326721496358
 20
-34.851688639359388
 30
0.0
 11
801.69835185035663
 21
-34.7566040039668
 31
0.0
  0
LINE
  8
DETAIL
  6
CONTINUOUS
 62
     5
 10
801.69835185035663
 20
-34.7566040039668
 30
0.0
 11
801.78310119929381
 21
-34.7566040039668
 31
0.0
  0
LINE
  8
DETAIL
  6
CONTINUOUS
 62
     5
 10
801.78310119929381
 20
-34.7566040039668
 30
0.0
 11
801.84614644667454
 21
-34.703894043042411
 31
0.0
  0
LINE
  8
DETAIL
  6
CONTINUOUS
 62
     5
 10
801.69835185035663
 20
-34.999999999999893
 30
0.0
 11
801.69835185035663
 21
-34.851688639359388
 31
0.0
  0
LINE
  8
DETAIL
  6
CONTINUOUS
 62
     5
 10
801.69835185035663
 20
-34.851688639359388
 30
0.0
 11
801.78310119929381
 21
-34.851688639359388
 31
0.0
  0
LINE
  8
DETAIL
  6
CONTINUOUS
 62
     5
 10
801.78310119929381
 20
-34.851688639359388
 30
0.0
 11
801.78310119929381
 21
-34.703894043042411
 31
0.0
  0
LINE
  8
DETAIL
  6
CONTINUOUS
 62
     5
 10
827.94481180473281
 20
-38.058728026578478
 30
0.0
 11
827.94481180473281
 21
-38.058728026578478
 31
0.0
  0
LINE
  8
DETAIL
  6
CONTINUOUS
 62
     5
 10
-126.95762529378089
 20
-31.54956461674772
 30
0.0
 11
-126.95762529378089
 21
-32.597562663360691
 31
0.0
  0
LINE
  8
DETAIL
  6
CONTINUOUS
 62
     5
 10
-126.95762529378089
 20
-32.597562663360691
 30
0.0
 11
-126.8625406583878
 21
-32.90452067109652
 31
0.0
  0
LINE
  8
DETAIL
  6
CONTINUOUS
 62
     5
 10
-126.8625406583878
 20
-32.90452067109652
 30
0.0
 11
-126.8093139331411
 21
-33.20062662805401
 31
0.0
  0
LINE
  8
DETAIL
  6
CONTINUOUS
 62
     5
 10
-126.8093139331411
 20
-33.20062662805401
 30
0.0
 11
-126.7142292977483
 21
-33.41250000039679
 31
0.0
  0
LINE
  8
DETAIL
  6
CONTINUOUS
 62
     5
 10
-126.7142292977483
 20
-33.41250000039679
 30
0.0
 11
-126.6506672860457
 21
-33.655895996429877
 31
0.0
  0
LINE
  8
DETAIL
  6
CONTINUOUS
 62
     5
 10
-126.6506672860457
 20
-33.655895996429877
 30
0.0
 11
-126.5023559254055
 21
-33.856917317994323
 31
0.0
  0
LINE
  8
DETAIL
  6
CONTINUOUS
 62
     5
 10
-126.5023559254055
 20
-33.856917317994323
 30
0.0
 11
-126.354561329088
 21
-34.163875325729691
 31
0.0
  0
LINE
  8
DETAIL
  6
CONTINUOUS
 62
     5
 10
-126.354561329088
 20
-34.163875325729691
 30
0.0
 11
-126.2062499684484
 21
-34.396936035306567
 31
0.0
  0
LINE
  8
DETAIL
  6
CONTINUOUS
 62
     5
 10
-126.2062499684484
 20
-34.396936035306567
 30
0.0
 11
-125.9628539724156
 21
-34.608292643327218
 31
0.0
  0
LINE
  8
DETAIL
  6
CONTINUOUS
 62
     5
 10
-125.9628539724156
 20
-34.608292643327218
 30
0.0
 11
-125.7509806000724
 21
-34.915250651063047
 31
0.0
  0
LINE
  8
DETAIL
  6
CONTINUOUS
 62
     5
 10
-125.7509806000724
 20
-34.915250651063047
 30
0.0
 11
-125.6031860037554
 21
-34.999999999999893
 31
0.0
  0
LINE
  8
DETAIL
  6
CONTINUOUS
 62
     5
 10
-114.353226696672
 20
-34.999999999999893
 30
0.0
 11
-114.2049153360319
 21
-34.915250651063047
 31
0.0
  0
LINE
  8
DETAIL
  6
CONTINUOUS
 62
     5
 10
-114.2049153360319
 20
-34.915250651063047
 30
0.0
 11
-113.9615193399991
 21
-34.608292643327218
 31
0.0
  0
LINE
  8
DETAIL
  6
CONTINUOUS
 62
     5
 10
-113.9615193399991
 20
-34.608292643327218
 30
0.0
 11
-113.7604980184346
 21
-34.396936035306567
 31
0.0
  0
LINE
  8
DETAIL
  6
CONTINUOUS
 62
     5
 10
-113.7604980184346
 20
-34.396936035306567
 30
0.0
 11
-113.6018513713389
 21
-34.163875325729691
 31
0.0
  0
LINE
  8
DETAIL
  6
CONTINUOUS
 62
     5
 10
-113.6018513713389
 20
-34.163875325729691
 30
0.0
 11
-113.4535400106988
 21
-33.856917317994323
 31
0.0
  0
LINE
  8
DETAIL
  6
CONTINUOUS
 62
     5
 10
-113.4535400106988
 20
-33.856917317994323
 30
0.0
 11
-113.30522865005879
 21
-33.655895996429877
 31
0.0
  0
LINE
  8
DETAIL
  6
CONTINUOUS
 62
     5
 10
-113.30522865005879
 20
-33.655895996429877
 30
0.0
 11
-113.2101440146662
 21
-33.41250000039679
 31
0.0
  0
LINE
  8
DETAIL
  6
CONTINUOUS
 62
     5
 10
-113.2101440146662
 20
-33.41250000039679
 30
0.0
 11
-113.1569172894187
 21
-33.20062662805401
 31
0.0
  0
LINE
  8
DETAIL
  6
CONTINUOUS
 62
     5
 10
-113.1569172894187
 20
-33.20062662805401
 30
0.0
 11
-113.06183265402591
 21
-32.90452067109652
 31
0.0
  0
LINE
  8
DETAIL
  6
CONTINUOUS
 62
     5
 10
-113.06183265402591
 20
-32.90452067109652
 30
0.0
 11
-113.00860592877891
 21
-32.597562663360691
 31
0.0
  0
LINE
  8
DETAIL
  6
CONTINUOUS
 62
     5
 10
-113.00860592877891
 20
-32.597562663360691
 30
0.0
 11
-113.00860592877891
 21
-31.54956461674772
 31
0.0
  0
LINE
  8
DETAIL
  6
CONTINUOUS
 62
     5
 10
-113.00860592877891
 20
-31.54956461674772
 30
0.0
 11
-113.06183265402591
 21
-31.253458659791139
 31
0.0
  0
LINE
  8
DETAIL
  6
CONTINUOUS
 62
     5
 10
-113.06183265402591
 20
-31.253458659791139
 30
0.0
 11
-113.06183265402591
 21
-31.105147299150641
 31
0.0
  0
LINE
  8
DETAIL
  6
CONTINUOUS
 62
     5
 10
-113.06183265402591
 20
-31.105147299150641
 30
0.0
 11
-113.2101440146662
 21
-30.861751303118009
 31
0.0
  0
LINE
  8
DETAIL
  6
CONTINUOUS
 62
     5
 10
-113.2101440146662
 20
-30.861751303118009
 30
0.0
 11
-113.30522865005879
 21
-30.565645346160981
 31
0.0
  0
LINE
  8
DETAIL
  6
CONTINUOUS
 62
     5
 10
-113.30522865005879
 20
-30.565645346160981
 30
0.0
 11
-113.4535400106988
 21
-30.353771973818201
 31
0.0
  0
LINE
  8
DETAIL
  6
CONTINUOUS
 62
     5
 10
-113.4535400106988
 20
-30.353771973818201
 30
0.0
 11
-113.54862464609189
 21
-30.20597737750029
 31
0.0
  0
LINE
  8
DETAIL
  6
CONTINUOUS
 62
     5
 10
-113.54862464609189
 20
-30.20597737750029
 30
0.0
 11
-113.6969360067319
 21
-29.96206461714462
 31
0.0
  0
LINE
  8
DETAIL
  6
CONTINUOUS
 62
     5
 10
-113.6969360067319
 20
-29.96206461714462
 30
0.0
 11
-113.81320797935901
 21
-29.665958660188039
 31
0.0
  0
LINE
  8
DETAIL
  6
CONTINUOUS
 62
     5
 10
-113.81320797935901
 20
-29.665958660188039
 30
0.0
 11
-114.05660397539189
 21
-29.454085287844801
 31
0.0
  0
LINE
  8
DETAIL
  6
CONTINUOUS
 62
     5
 10
-114.05660397539189
 20
-29.454085287844801
 30
0.0
 11
-114.12016598709469
 21
-29.35900065245221
 31
0.0
  0
LINE
  8
DETAIL
  6
CONTINUOUS
 62
     5
 10
-114.12016598709469
 20
-29.35900065245221
 30
0.0
 11
-114.4483113320648
 21
-29.147644044431559
 31
0.0
  0
LINE
  8
DETAIL
  6
CONTINUOUS
 62
     5
 10
-114.4483113320648
 20
-29.147644044431559
 30
0.0
 11
-114.660184704408
 21
-28.85102132315194
 31
0.0
  0
LINE
  8
DETAIL
  6
CONTINUOUS
 62
     5
 10
-114.660184704408
 20
-28.85102132315194
 30
0.0
 11
-114.9562906613648
 21
-28.702709962511449
 31
0.0
  0
LINE
  8
DETAIL
  6
CONTINUOUS
 62
     5
 10
-114.9562906613648
 20
-28.702709962511449
 30
0.0
 11
-115.0410400103021
 21
-28.607625327118399
 31
0.0
  0
LINE
  8
DETAIL
  6
CONTINUOUS
 62
     5
 10
-115.0410400103021
 20
-28.607625327118399
 30
0.0
 11
-115.31595863002509
 21
-28.40660400555441
 31
0.0
  0
LINE
  8
DETAIL
  6
CONTINUOUS
 62
     5
 10
-115.31595863002509
 20
-28.40660400555441
 30
0.0
 11
-115.707665986698
 21
-28.163208009521789
 31
0.0
  0
LINE
  8
DETAIL
  6
CONTINUOUS
 62
     5
 10
-115.707665986698
 20
-28.163208009521789
 30
0.0
 11
-116.003771943655
 21
-28.014896648881749
 31
0.0
  0
LINE
  8
DETAIL
  6
CONTINUOUS
 62
     5
 10
-116.003771943655
 20
-28.014896648881749
 30
0.0
 11
-116.3639566766381
 21
-27.856250001785948
 31
0.0
  0
LINE
  8
DETAIL
  6
CONTINUOUS
 62
     5
 10
-116.3639566766381
 20
-27.856250001785948
 30
0.0
 11
-116.7551472689879
 21
-27.707938641145461
 31
0.0
  0
LINE
  8
DETAIL
  6
CONTINUOUS
 62
     5
 10
-116.7551472689879
 20
-27.707938641145461
 30
0.0
 11
-117.115332001971
 21
-27.560144044828451
 31
0.0
  0
LINE
  8
DETAIL
  6
CONTINUOUS
 62
     5
 10
-117.115332001971
 20
-27.560144044828451
 30
0.0
 11
-117.2951659863011
 21
-27.496065268802681
 31
0.0
  0
LINE
  8
DETAIL
  6
CONTINUOUS
 62
     5
 10
-117.2951659863011
 20
-27.496065268802681
 30
0.0
 11
-117.71839596666381
 21
-27.411832684188429
 31
0.0
  0
LINE
  8
DETAIL
  6
CONTINUOUS
 62
     5
 10
-117.71839596666381
 20
-27.411832684188429
 30
0.0
 11
-118.194852672274
 21
-27.348270672485679
 31
0.0
  0
LINE
  8
DETAIL
  6
CONTINUOUS
 62
     5
 10
-118.194852672274
 20
-27.348270672485679
 30
0.0
 11
-118.618082652637
 21
-27.26352132354884
 31
0.0
  0
LINE
  8
DETAIL
  6
CONTINUOUS
 62
     5
 10
-118.618082652637
 20
-27.26352132354884
 30
0.0
 11
-119.0624999702341
 21
-27.19995931184565
 31
0.0
  0
LINE
  8
DETAIL
  6
CONTINUOUS
 62
     5
 10
-119.0624999702341
 20
-27.19995931184565
 30
0.0
 11
-119.5492919623
 21
-27.115209962908349
 31
0.0
  0
LINE
  8
DETAIL
  6
CONTINUOUS
 62
     5
 10
-119.5492919623
 20
-27.115209962908349
 30
0.0
 11
-120.4489786482732
 21
-27.115209962908349
 31
0.0
  0
LINE
  8
DETAIL
  6
CONTINUOUS
 62
     5
 10
-120.4489786482732
 20
-27.115209962908349
 30
0.0
 11
-120.8618733421799
 21
-27.19995931184565
 31
0.0
  0
LINE
  8
DETAIL
  6
CONTINUOUS
 62
     5
 10
-120.8618733421799
 20
-27.19995931184565
 30
0.0
 11
-121.3166259462332
 21
-27.26352132354884
 31
0.0
  0
LINE
  8
DETAIL
  6
CONTINUOUS
 62
     5
 10
-121.3166259462332
 20
-27.26352132354884
 30
0.0
 11
-121.79308265184299
 21
-27.348270672485679
 31
0.0
  0
LINE
  8
DETAIL
  6
CONTINUOUS
 62
     5
 10
-121.79308265184299
 20
-27.348270672485679
 30
0.0
 11
-122.2163126322062
 21
-27.411832684188429
 31
0.0
  0
LINE
  8
DETAIL
  6
CONTINUOUS
 62
     5
 10
-122.2163126322062
 20
-27.411832684188429
 30
0.0
 11
-122.6927693378161
 21
-27.496065268802681
 31
0.0
  0
LINE
  8
DETAIL
  6
CONTINUOUS
 62
     5
 10
-122.6927693378161
 20
-27.496065268802681
 30
0.0
 11
-122.8198933612218
 21
-27.560144044828451
 31
0.0
  0
LINE
  8
DETAIL
  6
CONTINUOUS
 62
     5
 10
-122.8198933612218
 20
-27.560144044828451
 30
0.0
 11
-123.2007486671162
 21
-27.707938641145461
 31
0.0
  0
LINE
  8
DETAIL
  6
CONTINUOUS
 62
     5
 10
-123.2007486671162
 20
-27.707938641145461
 30
0.0
 11
-123.56041663577641
 21
-27.856250001785948
 31
0.0
  0
LINE
  8
DETAIL
  6
CONTINUOUS
 62
     5
 10
-123.56041663577641
 20
-27.856250001785948
 30
0.0
 11
-123.9521239924493
 21
-28.014896648881749
 31
0.0
  0
LINE
  8
DETAIL
  6
CONTINUOUS
 62
     5
 10
-123.9521239924493
 20
-28.014896648881749
 30
0.0
 11
-124.2590820001849
 21
-28.163208009521789
 31
0.0
  0
LINE
  8
DETAIL
  6
CONTINUOUS
 62
     5
 10
-124.2590820001849
 20
-28.163208009521789
 30
0.0
 11
-124.6187499688449
 21
-28.40660400555441
 31
0.0
  0
LINE
  8
DETAIL
  6
CONTINUOUS
 62
     5
 10
-124.6187499688449
 20
-28.40660400555441
 30
0.0
 11
-124.94689531381501
 21
-28.607625327118399
 31
0.0
  0
LINE
  8
DETAIL
  6
CONTINUOUS
 62
     5
 10
-124.94689531381501
 20
-28.607625327118399
 30
0.0
 11
-125.010457325518
 21
-28.702709962511449
 31
0.0
  0
LINE
  8
DETAIL
  6
CONTINUOUS
 62
     5
 10
-125.010457325518
 20
-28.702709962511449
 30
0.0
 11
-125.30656328247549
 21
-28.85102132315194
 31
0.0
  0
LINE
  8
DETAIL
  6
CONTINUOUS
 62
     5
 10
-125.30656328247549
 20
-28.85102132315194
 30
0.0
 11
-125.5499592785079
 21
-29.147644044431559
 31
0.0
  0
LINE
  8
DETAIL
  6
CONTINUOUS
 62
     5
 10
-125.5499592785079
 20
-29.147644044431559
 30
0.0
 11
-125.81454261177529
 21
-29.35900065245221
 31
0.0
  0
LINE
  8
DETAIL
  6
CONTINUOUS
 62
     5
 10
-125.81454261177529
 20
-29.35900065245221
 30
0.0
 11
-125.910144011491
 21
-29.454085287844801
 31
0.0
  0
LINE
  8
DETAIL
  6
CONTINUOUS
 62
     5
 10
-125.910144011491
 20
-29.454085287844801
 30
0.0
 11
-126.1111653330554
 21
-29.665958660188039
 31
0.0
  0
LINE
  8
DETAIL
  6
CONTINUOUS
 62
     5
 10
-126.1111653330554
 20
-29.665958660188039
 30
0.0
 11
-126.2909993173853
 21
-29.96206461714462
 31
0.0
  0
LINE
  8
DETAIL
  6
CONTINUOUS
 62
     5
 10
-126.2909993173853
 20
-29.96206461714462
 30
0.0
 11
-126.44964596448111
 21
-30.20597737750029
 31
0.0
  0
LINE
  8
DETAIL
  6
CONTINUOUS
 62
     5
 10
-126.44964596448111
 20
-30.20597737750029
 30
0.0
 11
-126.5023559254055
 21
-30.353771973818201
 31
0.0
  0
LINE
  8
DETAIL
  6
CONTINUOUS
 62
     5
 10
-126.5023559254055
 20
-30.353771973818201
 30
0.0
 11
-126.6506672860457
 21
-30.565645346160981
 31
0.0
  0
LINE
  8
DETAIL
  6
CONTINUOUS
 62
     5
 10
-126.6506672860457
 20
-30.565645346160981
 30
0.0
 11
-126.7142292977483
 21
-30.861751303118009
 31
0.0
  0
LINE
  8
DETAIL
  6
CONTINUOUS
 62
     5
 10
-126.7142292977483
 20
-30.861751303118009
 30
0.0
 11
-126.8625406583878
 21
-31.105147299150641
 31
0.0
  0
LINE
  8
DETAIL
  6
CONTINUOUS
 62
     5
 10
-126.8625406583878
 20
-31.105147299150641
 30
0.0
 11
-126.8625406583878
 21
-31.253458659791139
 31
0.0
  0
LINE
  8
DETAIL
  6
CONTINUOUS
 62
     5
 10
-126.8625406583878
 20
-31.253458659791139
 30
0.0
 11
-126.95762529378089
 21
-31.54956461674772
 31
0.0
  0
TEXT
  8
ETC
  6
CONTINUOUS
 62
    61
 10
737.44079777181889
 20
573.66547908302175
 30
0.0
 40
64.0
  1
AS-GB1515B2_2
 41
0.9
  0
TEXT
  8
ETC
  6
CONTINUOUS
 62
    61
 10
733.25480377181839
 20
455.71016906819051
 30
0.0
 40
64.0
  1
システム部材
 41
0.9
  0
TEXT
  8
ETC
  6
CONTINUOUS
 62
    61
 10
783.95620202037435
 20
347.56139618196528
 30
0.0
 40
40.0
  1
AS-GB1515B2
 41
0.9
  0
TEXT
  8
ETC
  6
CONTINUOUS
 62
    61
 10
783.95620202037435
 20
281.56139618196528
 30
0.0
 40
40.0
  1
AS-GB1515B2-BK
 41
0.9
  0
LINE
  8
OUTLINE
  6
CONTINUOUS
 62
     3
 10
815.5517698156433
 20
0.5812906812089977
 30
0.0
 11
815.60128824011031
 21
0.5774996981369895
 31
0.0
  0
LINE
  8
OUTLINE
  6
CONTINUOUS
 62
     3
 10
815.60128824011031
 20
0.5774996981369895
 30
0.0
 11
815.64778049270274
 21
0.5660936760043569
 31
0.0
  0
LINE
  8
OUTLINE
  6
CONTINUOUS
 62
     3
 10
815.64778049270274
 20
0.5660936760043569
 30
0.0
 11
815.69070087029615
 21
0.5470230054361309
 31
0.0
  0
LINE
  8
OUTLINE
  6
CONTINUOUS
 62
     3
 10
815.69070087029615
 20
0.5470230054361309
 30
0.0
 11
815.7295036697659
 21
0.5202380770572859
 31
0.0
  0
LINE
  8
OUTLINE
  6
CONTINUOUS
 62
     3
 10
815.7295036697659
 20
0.5202380770572859
 30
0.0
 11
815.76364318798642
 21
0.4856892814929097
 31
0.0
  0
LINE
  8
OUTLINE
  6
CONTINUOUS
 62
     3
 10
815.76364318798642
 20
0.4856892814929097
 30
0.0
 11
815.79774136506114
 21
0.4516903231680658
 31
0.0
  0
LINE
  8
OUTLINE
  6
CONTINUOUS
 62
     3
 10
815.79774136506114
 20
0.4516903231680658
 30
0.0
 11
815.82434852651261
 21
0.4136233960942377
 31
0.0
  0
LINE
  8
OUTLINE
  6
CONTINUOUS
 62
     3
 10
815.82434852651261
 20
0.4136233960942377
 30
0.0
 11
815.8434150629663
 21
0.3725054924587141
 31
0.0
  0
LINE
  8
OUTLINE
  6
CONTINUOUS
 62
     3
 10
815.8434150629663
 20
0.3725054924587141
 30
0.0
 11
815.85489136504668
 21
0.3293536044487269
 31
0.0
  0
LINE
  8
OUTLINE
  6
CONTINUOUS
 62
     3
 10
815.85489136504668
 20
0.3293536044487269
 30
0.0
 11
815.85872782337901
 21
0.2851847242515078
 31
0.0
  0
LINE
  8
OUTLINE
  6
CONTINUOUS
 62
     3
 10
-815.8478757726001
 20
0.2743326734731681
 30
0.0
 11
-815.84408892364286
 21
0.3237973544502211
 31
0.0
  0
LINE
  8
OUTLINE
  6
CONTINUOUS
 62
     3
 10
-815.84408892364286
 20
0.3237973544502211
 30
0.0
 11
-815.8327118403123
 21
0.3701614494905812
 31
0.0
  0
LINE
  8
OUTLINE
  6
CONTINUOUS
 62
     3
 10
-815.8327118403123
 20
0.3701614494905812
 30
0.0
 11
-815.81371971792146
 21
0.4129288648444458
 31
0.0
  0
LINE
  8
OUTLINE
  6
CONTINUOUS
 62
     3
 10
-815.81371971792146
 20
0.4129288648444458
 30
0.0
 11
-815.78708775178222
 21
0.4516035067618418
 31
0.0
  0
LINE
  8
OUTLINE
  6
CONTINUOUS
 62
     3
 10
-815.78708775178222
 20
0.4516035067618418
 30
0.0
 11
-815.75279113720762
 21
0.4856892814929097
 31
0.0
  0
LINE
  8
OUTLINE
  6
CONTINUOUS
 62
     3
 10
-815.75279113720762
 20
0.4856892814929097
 30
0.0
 11
-815.718651618987
 21
0.5202380770572859
 31
0.0
  0
LINE
  8
OUTLINE
  6
CONTINUOUS
 62
     3
 10
-815.718651618987
 20
0.5202380770572859
 30
0.0
 11
-815.67984881951702
 21
0.5470230054361309
 31
0.0
  0
LINE
  8
OUTLINE
  6
CONTINUOUS
 62
     3
 10
-815.67984881951702
 20
0.5470230054361309
 30
0.0
 11
-815.63692844192383
 21
0.5660936760043569
 31
0.0
  0
LINE
  8
OUTLINE
  6
CONTINUOUS
 62
     3
 10
-815.63692844192383
 20
0.5660936760043569
 30
0.0
 11
-815.59043618933151
 21
0.5774996981369895
 31
0.0
  0
LINE
  8
OUTLINE
  6
CONTINUOUS
 62
     3
 10
-815.59043618933151
 20
0.5774996981369895
 30
0.0
 11
-815.54091776486484
 21
0.5812906812089977
 31
0.0
  0
LINE
  8
OUTLINE
  6
CONTINUOUS
 62
     3
 10
-737.45731182735426
 20
-0.0217732834838671
 30
0.0
 11
-737.45731182735426
 21
0.5812906812089977
 31
0.0
  0
LINE
  8
OUTLINE
  6
CONTINUOUS
 62
     3
 10
-737.45731182735426
 20
-0.0217732834838671
 30
0.0
 11
737.49968650182348
 21
-0.0217732834838671
 31
0.0
  0
LINE
  8
OUTLINE
  6
CONTINUOUS
 62
     3
 10
737.49969070294526
 20
-0.0217752037468699
 30
0.0
 11
737.49969070294526
 21
0.5812887609459949
 31
0.0
  0
ENDSEC
  0
EOF
