  0
SECTION
  2
HEADER
  9
$ACADVER
  1
AC1009
  9
$INSBASE
 10
0.0
 20
0.0
 30
0.0
  9
$EXTMIN
 10
-968.70228900000006
 20
-549.95986900000003
 30
0.0
  9
$EXTMAX
 10
799.63003036660905
 20
650.78853565107602
 30
0.0
  9
$LIMMIN
 10
-2970.0
 20
-2100.0
  9
$LIMMAX
 10
2970.0
 20
2100.0
  9
$ORTHOMODE
 70
     1
  9
$REGENMODE
 70
     0
  9
$FILLMODE
 70
     1
  9
$QTEXTMODE
 70
     0
  9
$MIRRTEXT
 70
     0
  9
$DRAGMODE
 70
     2
  9
$LTSCALE
 40
20.0
  9
$OSMODE
 70
    37
  9
$ATTMODE
 70
     1
  9
$TEXTSIZE
 40
64.0
  9
$TRACEWID
 40
0.05
  9
$TEXTSTYLE
  7
STANDARD
  9
$CLAYER
  8
SIZE
  9
$CELTYPE
  6
CONTINUOUS
  9
$CECOLOR
 62
    30
  9
$DIMSCALE
 40
1.0
  9
$DIMASZ
 40
12.0
  9
$DIMEXO
 40
20.0
  9
$DIMDLI
 40
200.0
  9
$DIMRND
 40
0.0
  9
$DIMDLE
 40
0.0
  9
$DIMEXE
 40
20.0
  9
$DIMTP
 40
0.0
  9
$DIMTM
 40
0.0
  9
$DIMTXT
 40
64.0
  9
$DIMCEN
 40
0.09
  9
$DIMTSZ
 40
0.0
  9
$DIMTOL
 70
     0
  9
$DIMLIM
 70
     0
  9
$DIMTIH
 70
     0
  9
$DIMTOH
 70
     0
  9
$DIMSE1
 70
     0
  9
$DIMSE2
 70
     0
  9
$DIMTAD
 70
     1
  9
$DIMZIN
 70
     8
  9
$DIMBLK
  1
DOT1
  9
$DIMASO
 70
     1
  9
$DIMSHO
 70
     0
  9
$DIMPOST
  1

  9
$DIMAPOST
  1

  9
$DIMALT
 70
     0
  9
$DIMALTD
 70
     2
  9
$DIMALTF
 40
25.399999999999999
  9
$DIMLFAC
 40
1.0
  9
$DIMTOFL
 70
     1
  9
$DIMTVP
 40
0.0
  9
$DIMTIX
 70
     1
  9
$DIMSOXD
 70
     0
  9
$DIMSAH
 70
     1
  9
$DIMBLK1
  1
ORIGIN
  9
$DIMBLK2
  1
ORIGIN
  9
$DIMSTYLE
  2
STANDARD
  9
$DIMCLRD
 70
     0
  9
$DIMCLRE
 70
     0
  9
$DIMCLRT
 70
     0
  9
$DIMTFAC
 40
1.0
  9
$DIMGAP
 40
0.09
  9
$LUNITS
 70
     2
  9
$LUPREC
 70
     4
  9
$SKETCHINC
 40
0.1
  9
$FILLETRAD
 40
4.0
  9
$AUNITS
 70
     1
  9
$AUPREC
 70
     3
  9
$MENU
  1
ACAD
  9
$ELEVATION
 40
0.0
  9
$PELEVATION
 40
0.0
  9
$THICKNESS
 40
50.0
  9
$LIMCHECK
 70
     0
  9
$BLIPMODE
 70
     0
  9
$CHAMFERA
 40
0.0
  9
$CHAMFERB
 40
0.0
  9
$SKPOLY
 70
     0
  9
$TDCREATE
 40
2452321.3961996529
  9
$TDUPDATE
 40
2454922.6218786808
  9
$TDINDWG
 40
0.0978128356
  9
$TDUSRTIMER
 40
0.0978128356
  9
$USRTIMER
 70
     1
  9
$ANGBASE
 50
0.0
  9
$ANGDIR
 70
     0
  9
$PDMODE
 70
     3
  9
$PDSIZE
 40
-2.0
  9
$PLINEWID
 40
0.0
  9
$COORDS
 70
     0
  9
$SPLFRAME
 70
     0
  9
$SPLINETYPE
 70
     6
  9
$SPLINESEGS
 70
     8
  9
$ATTDIA
 70
     0
  9
$ATTREQ
 70
     1
  9
$HANDLING
 70
     1
  9
$HANDSEED
  5
1C6
  9
$SURFTAB1
 70
     6
  9
$SURFTAB2
 70
     6
  9
$SURFTYPE
 70
     6
  9
$SURFU
 70
     6
  9
$SURFV
 70
     6
  9
$UCSNAME
  2

  9
$UCSORG
 10
0.0
 20
0.0
 30
0.0
  9
$UCSXDIR
 10
1.0
 20
0.0
 30
0.0
  9
$UCSYDIR
 10
0.0
 20
1.0
 30
0.0
  9
$PUCSNAME
  2

  9
$PUCSORG
 10
0.0
 20
0.0
 30
0.0
  9
$PUCSXDIR
 10
1.0
 20
0.0
 30
0.0
  9
$PUCSYDIR
 10
0.0
 20
1.0
 30
0.0
  9
$USERI1
 70
     0
  9
$USERI2
 70
     0
  9
$USERI3
 70
     0
  9
$USERI4
 70
     0
  9
$USERI5
 70
     0
  9
$USERR1
 40
20.0
  9
$USERR2
 40
0.0
  9
$USERR3
 40
0.0
  9
$USERR4
 40
0.0
  9
$USERR5
 40
0.0
  9
$WORLDVIEW
 70
     1
  9
$SHADEDGE
 70
     3
  9
$SHADEDIF
 70
    70
  9
$TILEMODE
 70
     1
  9
$MAXACTVP
 70
    64
  9
$PLIMCHECK
 70
     0
  9
$PEXTMIN
 10
1.0000000000000000E+020
 20
1.0000000000000000E+020
 30
1.0000000000000000E+020
  9
$PEXTMAX
 10
-1.0000000000000000E+020
 20
-1.0000000000000000E+020
 30
-1.0000000000000000E+020
  9
$PLIMMIN
 10
0.0
 20
0.0
  9
$PLIMMAX
 10
12.0
 20
9.0
  9
$UNITMODE
 70
     0
  9
$VISRETAIN
 70
     1
  9
$PLINEGEN
 70
     0
  9
$PSLTSCALE
 70
     1
  0
ENDSEC
  0
SECTION
  2
TABLES
  0
TABLE
  2
VPORT
 70
     1
  0
VPORT
  2
*ACTIVE
 70
     0
 10
0.0
 20
0.0
 11
1.0
 21
1.0
 12
86.173541489304171
 22
124.9843330870553
 13
0.0
 23
0.0
 14
1.0
 24
1.0
 15
0.0
 25
0.0
 16
0.0
 26
0.0
 36
1.0
 17
0.0
 27
0.0
 37
0.0
 40
1221.2704823743391
 41
1.3387096774193541
 42
50.0
 43
0.0
 44
0.0
 50
0.0
 51
0.0
 71
     0
 72
   100
 73
     1
 74
     0
 75
     0
 76
     0
 77
     0
 78
     0
  0
ENDTAB
  0
TABLE
  2
LTYPE
 70
     3
  0
LTYPE
  2
CONTINUOUS
 70
     0
  3
実線
 72
    65
 73
     0
 40
0.0
  0
LTYPE
  2
DASHDOT
 70
     0
  3
____ _ ____ _ ____ _ ____ _ ____ _ ____ _ ____
 72
    65
 73
     4
 40
5.5
 49
4.0
 49
-0.6
 49
0.3
 49
-0.6
  0
ENDTAB
  0
TABLE
  2
LAYER
 70
    12
  0
LAYER
  2
0
 70
     0
 62
     7
  6
CONTINUOUS
  0
LAYER
  2
SIZE
 70
     0
 62
     4
  6
CONTINUOUS
  0
LAYER
  2
BASIS
 70
     0
 62
     6
  6
DASHDOT
  0
LAYER
  2
OUTLINE
 70
     0
 62
     3
  6
CONTINUOUS
  0
LAYER
  2
DETAIL
 70
     0
 62
     5
  6
CONTINUOUS
  0
LAYER
  2
ARRANGE
 70
     0
 62
     1
  6
CONTINUOUS
  0
LAYER
  2
DEFPOINTS
 70
     0
 62
     7
  6
CONTINUOUS
  0
LAYER
  2
ETC
 70
     0
 62
    61
  6
CONTINUOUS
  0
LAYER
  2
FIX
 70
     0
 62
     7
  6
CONTINUOUS
  0
LAYER
  2
NOTE
 70
     0
 62
     4
  6
CONTINUOUS
  0
LAYER
  2
SERVICESPACE
 70
     0
 62
     2
  6
DASHDOT
  0
LAYER
  2
SYMBOLLINE
 70
     0
 62
    15
  6
CONTINUOUS
  0
ENDTAB
  0
TABLE
  2
STYLE
 70
     2
  0
STYLE
  2
STANDARD
 70
     0
 40
64.0
 41
0.9
 50
0.0
 71
     0
 42
64.0
  3
SIMPLEX.shx
  4
BIGFONT.shx
  0
STYLE
  2
ANNOTATIVE
 70
     0
 40
0.0
 41
1.0
 50
0.0
 71
     0
 42
0.2
  3
txt
  4

  0
ENDTAB
  0
TABLE
  2
VIEW
 70
     1
  0
VIEW
  2
ALL
 70
     0
 40
4282.6198079999986
 10
0.0
 20
41.309903999999989
 41
5940.0
 11
0.0
 21
0.0
 31
1.0
 12
0.0
 22
0.0
 32
0.0
 42
50.0
 43
0.0
 44
0.0
 50
0.0
 71
     0
  0
ENDTAB
  0
TABLE
  2
UCS
 70
     0
  0
ENDTAB
  0
TABLE
  2
APPID
 70
     4
  0
APPID
  2
ACAD
 70
     0
  0
APPID
  2
ACADANNOTATIVE
 70
     0
  0
APPID
  2
ACAD_MLEADERVER
 70
     0
  0
APPID
  2
ACAD_EXEMPT_FROM_CAD_STANDARDS
 70
     0
  0
ENDTAB
  0
TABLE
  2
DIMSTYLE
 70
     2
  0
DIMSTYLE
  2
STANDARD
 70
     0
  3

  4

  5

  6

  7

 40
1.0
 41
0.18
 42
0.0625
 43
0.38
 44
0.18
 45
0.0
 46
0.0
 47
0.0
 48
0.0
140
0.18
141
0.09
142
0.0
143
25.399999999999999
144
1.0
145
0.0
146
1.0
147
0.09
 71
     0
 72
     0
 73
     1
 74
     1
 75
     0
 76
     0
 77
     0
 78
     0
170
     0
171
     2
172
     0
173
     0
174
     0
175
     0
176
     0
177
     0
178
     0
  0
DIMSTYLE
  2
ANNOTATIVE
 70
     0
  3

  4

  5

  6

  7

 40
1.0
 41
0.18
 42
0.0625
 43
0.38
 44
0.18
 45
0.0
 46
0.0
 47
0.0
 48
0.0
140
0.18
141
0.09
142
0.0
143
25.399999999999999
144
1.0
145
0.0
146
1.0
147
0.09
 71
     0
 72
     0
 73
     1
 74
     1
 75
     0
 76
     0
 77
     0
 78
     0
170
     0
171
     2
172
     0
173
     0
174
     0
175
     0
176
     0
177
     0
178
     0
  0
ENDTAB
  0
ENDSEC
  0
SECTION
  2
BLOCKS
  0
BLOCK
  8
0
  2
$MODEL_SPACE
 70
     0
 10
0.0
 20
0.0
 30
0.0
  3
$MODEL_SPACE
  1

  0
ENDBLK
  5
76
  8
0
  0
BLOCK
 67
     1
  8
0
  2
$PAPER_SPACE
 70
     0
 10
0.0
 20
0.0
 30
0.0
  3
$PAPER_SPACE
  1

  0
ENDBLK
  5
72
 67
     1
  8
0
  0
BLOCK
  8
0
  2
DOT1
 70
     0
 10
0.0
 20
0.0
 30
0.0
  3
DOT1
  1

  0
CIRCLE
  5
8B
  8
SIZE
  6
CONTINUOUS
 62
     7
 10
0.0
 20
0.0
 30
0.0
 40
3.0
  0
ENDBLK
  5
8C
  8
0
  0
BLOCK
  8
0
  2
_ORIGIN
 70
     0
 10
0.0
 20
0.0
 30
0.0
  3
_ORIGIN
  1

  0
CIRCLE
  5
8F
  8
0
  6
CONTINUOUS
 62
     7
 10
0.0
 20
0.0
 30
0.0
 40
0.5
  0
LINE
  5
90
  8
0
  6
CONTINUOUS
 62
     7
 10
0.0
 20
0.0
 30
0.0
 11
-1.0
 21
0.0
 31
0.0
  0
ENDBLK
  5
91
  8
0
  0
ENDSEC
  0
SECTION
  2
ENTITIES
  0
LINE
  5
93
  8
DETAIL
  6
CONTINUOUS
 62
     5
 10
52.5
 20
100.0
 30
0.0
 11
72.5
 21
100.0
 31
0.0
  0
LINE
  5
94
  8
DETAIL
  6
CONTINUOUS
 62
     5
 10
-52.5
 20
75.0
 30
0.0
 11
52.5
 21
75.0
 31
0.0
  0
LINE
  5
95
  8
DETAIL
  6
CONTINUOUS
 62
     5
 10
-52.5
 20
-75.0
 30
0.0
 11
52.5
 21
-75.0
 31
0.0
  0
LINE
  5
96
  8
DETAIL
  6
CONTINUOUS
 62
     5
 10
52.5
 20
-100.0
 30
0.0
 11
52.5
 21
100.0
 31
0.0
  0
LINE
  5
97
  8
DETAIL
  6
CONTINUOUS
 62
     5
 10
-52.5
 20
-100.0
 30
0.0
 11
-52.5
 21
100.0
 31
0.0
  0
LINE
  5
98
  8
DETAIL
  6
CONTINUOUS
 62
     5
 10
72.5
 20
-100.0
 30
0.0
 11
72.5
 21
100.0
 31
0.0
  0
LINE
  5
99
  8
DETAIL
  6
CONTINUOUS
 62
     5
 10
-72.5
 20
-100.0
 30
0.0
 11
-72.5
 21
100.0
 31
0.0
  0
LINE
  5
9A
  8
BASIS
  6
DASHDOT
 62
     6
 10
0.0
 20
-165.74840599999999
 30
0.0
 11
0.0
 21
126.394086
 31
0.0
  0
LINE
  5
9B
  8
DETAIL
  6
CONTINUOUS
 62
     5
 10
-72.5
 20
100.0
 30
0.0
 11
-52.5
 21
100.0
 31
0.0
  0
LINE
  5
9C
  8
DETAIL
  6
CONTINUOUS
 62
     5
 10
-72.5
 20
-100.0
 30
0.0
 11
72.5
 21
-100.0
 31
0.0
  0
LINE
  5
9D
  8
BASIS
  6
DASHDOT
 62
     6
 10
-162.04537199999999
 20
0.0
 30
0.0
 11
125.185669
 21
0.0
 31
0.0
  0
LINE
  5
9E
  8
SIZE
  6
CONTINUOUS
 62
    30
 10
-72.5
 20
-120.0
 30
0.0
 11
-72.5
 21
-355.89988099999999
 31
0.0
  0
LINE
  5
9F
  8
SIZE
  6
CONTINUOUS
 62
    30
 10
72.5
 20
-120.0
 30
0.0
 11
72.5
 21
-355.89988099999999
 31
0.0
  0
LINE
  5
A0
  8
SIZE
  6
CONTINUOUS
 62
    30
 10
-60.5
 20
-335.89988099999999
 30
0.0
 11
60.5
 21
-335.89988099999999
 31
0.0
  0
TEXT
  5
A1
  8
SIZE
  6
CONTINUOUS
 62
    30
 10
-68.571428571428569
 20
-310.89988099999999
 30
0.0
 40
64.0
  1
145
 41
0.9
 72
     1
 11
0.0
 21
-310.89988099999999
 31
0.0
  0
CIRCLE
  5
A2
  8
SIZE
  6
CONTINUOUS
 62
    30
 10
-72.5
 20
-335.89988099999999
 30
0.0
 40
6.0
  0
LINE
  5
A3
  8
SIZE
  6
CONTINUOUS
 62
    30
 10
-72.5
 20
-335.89988099999999
 30
0.0
 11
-60.5
 21
-335.89988099999999
 31
0.0
  0
CIRCLE
  5
A4
  8
SIZE
  6
CONTINUOUS
 62
    30
 10
72.5
 20
-335.89988099999999
 30
0.0
 40
6.0
  0
LINE
  5
A5
  8
SIZE
  6
CONTINUOUS
 62
    30
 10
72.5
 20
-335.89988099999999
 30
0.0
 11
60.5
 21
-335.89988099999999
 31
0.0
  0
POINT
  5
A6
  8
DEFPOINTS
  6
CONTINUOUS
 62
    30
 10
-72.5
 20
-100.0
 30
0.0
  0
POINT
  5
A7
  8
DEFPOINTS
  6
CONTINUOUS
 62
    30
 10
72.5
 20
-100.0
 30
0.0
  0
POINT
  5
A8
  8
DEFPOINTS
  6
CONTINUOUS
 62
    30
 10
72.5
 20
-335.89988099999999
 30
0.0
  0
LINE
  5
A9
  8
DETAIL
  6
CONTINUOUS
 62
     5
 10
-90.0
 20
-102.0
 30
0.0
 11
-90.0
 21
-100.0
 31
0.0
  0
LINE
  5
AA
  8
DETAIL
  6
CONTINUOUS
 62
     5
 10
90.0
 20
-102.0
 30
0.0
 11
90.0
 21
-100.0
 31
0.0
  0
LINE
  5
AB
  8
DETAIL
  6
CONTINUOUS
 62
     5
 10
-72.5
 20
-100.0
 30
0.0
 11
-90.0
 21
-100.0
 31
0.0
  0
LINE
  5
AC
  8
DETAIL
  6
CONTINUOUS
 62
     5
 10
72.5
 20
-100.0
 30
0.0
 11
90.0
 21
-100.0
 31
0.0
  0
CIRCLE
  5
AD
  8
FIX
  6
CONTINUOUS
 62
    11
 10
-62.5
 20
-81.0
 30
0.0
 40
3.0
  0
ARC
  5
AE
  8
DETAIL
  6
CONTINUOUS
 62
     5
 10
-62.5
 20
-81.0
 30
0.0
 40
5.0
 50
53.130102000000001
 51
126.86989800000001
  0
ARC
  5
AF
  8
DETAIL
  6
CONTINUOUS
 62
     5
 10
-62.5
 20
-81.0
 30
0.0
 40
5.0
 50
233.13010199999999
 51
306.86989799999998
  0
LINE
  5
B0
  8
DETAIL
  6
CONTINUOUS
 62
     5
 10
-59.5
 20
-85.0
 30
0.0
 11
-59.5
 21
-77.0
 31
0.0
  0
LINE
  5
B1
  8
DETAIL
  6
CONTINUOUS
 62
     5
 10
-65.5
 20
-85.0
 30
0.0
 11
-65.5
 21
-77.0
 31
0.0
  0
LINE
  5
B2
  8
NOTE
  6
CONTINUOUS
 62
     4
 10
-62.5
 20
-101.0
 30
0.0
 11
-62.5
 21
-61.0
 31
0.0
  0
LINE
  5
B3
  8
NOTE
  6
CONTINUOUS
 62
     4
 10
-42.5
 20
-81.0
 30
0.0
 11
-82.5
 21
-81.0
 31
0.0
  0
LINE
  5
B4
  8
NOTE
  6
CONTINUOUS
 62
     4
 10
-62.5
 20
61.0
 30
0.0
 11
-62.5
 21
101.0
 31
0.0
  0
LINE
  5
B5
  8
NOTE
  6
CONTINUOUS
 62
     4
 10
-42.5
 20
81.0
 30
0.0
 11
-82.5
 21
81.0
 31
0.0
  0
LINE
  5
B6
  8
DETAIL
  6
CONTINUOUS
 62
     5
 10
-65.5
 20
77.0
 30
0.0
 11
-65.5
 21
85.0
 31
0.0
  0
LINE
  5
B7
  8
DETAIL
  6
CONTINUOUS
 62
     5
 10
-59.5
 20
77.0
 30
0.0
 11
-59.5
 21
85.0
 31
0.0
  0
ARC
  5
B8
  8
DETAIL
  6
CONTINUOUS
 62
     5
 10
-62.5
 20
81.0
 30
0.0
 40
5.0
 50
233.13010199999999
 51
306.86989799999998
  0
ARC
  5
B9
  8
DETAIL
  6
CONTINUOUS
 62
     5
 10
-62.5
 20
81.0
 30
0.0
 40
5.0
 50
53.130102000000001
 51
126.86989800000001
  0
CIRCLE
  5
BA
  8
FIX
  6
CONTINUOUS
 62
    11
 10
-62.5
 20
81.0
 30
0.0
 40
3.0
  0
LINE
  5
BB
  8
DETAIL
  6
CONTINUOUS
 62
     5
 10
-96.5
 20
68.055973999999992
 30
0.0
 11
-72.5
 21
68.055973999999992
 31
0.0
  0
LINE
  5
BC
  8
DETAIL
  6
CONTINUOUS
 62
     5
 10
-96.5
 20
-81.944026000000008
 30
0.0
 11
-72.5
 21
-81.944026000000008
 31
0.0
  0
LINE
  5
BD
  8
DETAIL
  6
CONTINUOUS
 62
     5
 10
-131.0
 20
41.700000000000003
 30
0.0
 11
-101.5
 21
41.700000000000003
 31
0.0
  0
LINE
  5
BE
  8
DETAIL
  6
CONTINUOUS
 62
     5
 10
-128.5
 20
-67.455337
 30
0.0
 11
-101.5
 21
-67.455337
 31
0.0
  0
LINE
  5
BF
  8
DETAIL
  6
CONTINUOUS
 62
     5
 10
-133.5
 20
-62.455337
 30
0.0
 11
-133.5
 21
-8.4553370000000001
 31
0.0
  0
LINE
  5
C0
  8
DETAIL
  6
CONTINUOUS
 62
     5
 10
-101.5
 20
-76.944025999999994
 30
0.0
 11
-101.5
 21
63.055973999999992
 31
0.0
  0
ARC
  5
C1
  8
DETAIL
  6
CONTINUOUS
 62
     5
 10
-96.5
 20
-76.944025999999994
 30
0.0
 40
5.0
 50
180.0
 51
270.0
  0
ARC
  5
C2
  8
DETAIL
  6
CONTINUOUS
 62
     5
 10
-96.5
 20
63.055973999999992
 30
0.0
 40
5.0
 50
90.0
 51
180.0
  0
ARC
  5
C3
  8
DETAIL
  6
CONTINUOUS
 62
     5
 10
-128.5
 20
-62.455337
 30
0.0
 40
5.0
 50
180.0
 51
270.0
  0
LINE
  5
C4
  8
DETAIL
  6
CONTINUOUS
 62
     5
 10
-133.5
 20
-8.4553370000000001
 30
0.0
 11
-133.5
 21
39.200000000000003
 31
0.0
  0
ARC
  5
C5
  8
DETAIL
  6
CONTINUOUS
 62
     5
 10
-131.0
 20
39.200000000000003
 30
0.0
 40
2.5
 50
90.0
 51
180.0
  0
LINE
  5
C6
  8
SIZE
  6
CONTINUOUS
 62
    30
 10
92.5
 20
100.0
 30
0.0
 11
467.9160819999999
 21
100.0
 31
0.0
  0
LINE
  5
C7
  8
SIZE
  6
CONTINUOUS
 62
    30
 10
92.5
 20
-100.0
 30
0.0
 11
467.9160819999999
 21
-100.0
 31
0.0
  0
LINE
  5
C8
  8
SIZE
  6
CONTINUOUS
 62
    30
 10
447.91608200000002
 20
88.0
 30
0.0
 11
447.91608200000002
 21
-88.0
 31
0.0
  0
TEXT
  5
C9
  8
SIZE
  6
CONTINUOUS
 62
    30
 10
419.4441809999999
 20
-83.452254857142847
 30
0.0
 40
64.0
  1
200
 50
90.0
 41
0.9
 72
     1
 11
419.4441809999999
 21
-9.3951119999999992
 31
0.0
  0
CIRCLE
  5
CA
  8
SIZE
  6
CONTINUOUS
 62
    30
 10
447.91608200000002
 20
100.0
 30
0.0
 40
6.0
  0
LINE
  5
CB
  8
SIZE
  6
CONTINUOUS
 62
    30
 10
447.91608200000002
 20
100.0
 30
0.0
 11
447.91608200000002
 21
88.0
 31
0.0
  0
CIRCLE
  5
CC
  8
SIZE
  6
CONTINUOUS
 62
    30
 10
447.91608200000002
 20
-100.0
 30
0.0
 40
6.0
  0
LINE
  5
CD
  8
SIZE
  6
CONTINUOUS
 62
    30
 10
447.91608200000002
 20
-100.0
 30
0.0
 11
447.91608200000002
 21
-88.0
 31
0.0
  0
POINT
  5
CE
  8
DEFPOINTS
  6
CONTINUOUS
 62
    30
 10
72.5
 20
100.0
 30
0.0
  0
POINT
  5
CF
  8
DEFPOINTS
  6
CONTINUOUS
 62
    30
 10
72.5
 20
-100.0
 30
0.0
  0
POINT
  5
D0
  8
DEFPOINTS
  6
CONTINUOUS
 62
    30
 10
447.91608200000002
 20
-100.0
 30
0.0
  0
LINE
  5
D1
  8
SIZE
  6
CONTINUOUS
 62
    30
 10
-133.5
 20
59.200000000000003
 30
0.0
 11
-133.5
 21
447.336117
 31
0.0
  0
LINE
  5
D2
  8
SIZE
  6
CONTINUOUS
 62
    30
 10
72.5
 20
120.0
 30
0.0
 11
72.5
 21
447.336117
 31
0.0
  0
LINE
  5
D3
  8
SIZE
  6
CONTINUOUS
 62
    30
 10
-121.5
 20
427.336117
 30
0.0
 11
60.5
 21
427.336117
 31
0.0
  0
TEXT
  5
D4
  8
SIZE
  6
CONTINUOUS
 62
    30
 10
-70.196208285714278
 20
452.336117
 30
0.0
 40
64.0
  1
206
 41
0.9
 72
     1
 11
2.4895059999999991
 21
452.336117
 31
0.0
  0
CIRCLE
  5
D5
  8
SIZE
  6
CONTINUOUS
 62
    30
 10
-133.5
 20
427.336117
 30
0.0
 40
6.0
  0
LINE
  5
D6
  8
SIZE
  6
CONTINUOUS
 62
    30
 10
-133.5
 20
427.336117
 30
0.0
 11
-121.5
 21
427.336117
 31
0.0
  0
CIRCLE
  5
D7
  8
SIZE
  6
CONTINUOUS
 62
    30
 10
72.5
 20
427.336117
 30
0.0
 40
6.0
  0
LINE
  5
D8
  8
SIZE
  6
CONTINUOUS
 62
    30
 10
72.5
 20
427.336117
 30
0.0
 11
60.5
 21
427.336117
 31
0.0
  0
POINT
  5
D9
  8
DEFPOINTS
  6
CONTINUOUS
 62
    30
 10
-133.5
 20
39.200000000000003
 30
0.0
  0
POINT
  5
DA
  8
DEFPOINTS
  6
CONTINUOUS
 62
    30
 10
72.5
 20
100.0
 30
0.0
  0
POINT
  5
DB
  8
DEFPOINTS
  6
CONTINUOUS
 62
    30
 10
72.5
 20
427.336117
 30
0.0
  0
CIRCLE
  5
DC
  8
FIX
  6
CONTINUOUS
 62
    11
 10
-62.5
 20
100.0
 30
0.0
 40
3.0
  0
LINE
  5
DD
  8
NOTE
  6
CONTINUOUS
 62
     4
 10
-62.5
 20
80.0
 30
0.0
 11
-62.5
 21
120.0
 31
0.0
  0
LINE
  5
DE
  8
NOTE
  6
CONTINUOUS
 62
     4
 10
-42.5
 20
100.0
 30
0.0
 11
-82.5
 21
100.0
 31
0.0
  0
CIRCLE
  5
DF
  8
FIX
  6
CONTINUOUS
 62
    11
 10
62.5
 20
100.0
 30
0.0
 40
3.0
  0
LINE
  5
E0
  8
NOTE
  6
CONTINUOUS
 62
     4
 10
62.5
 20
80.0
 30
0.0
 11
62.5
 21
120.0
 31
0.0
  0
LINE
  5
E1
  8
NOTE
  6
CONTINUOUS
 62
     4
 10
82.5
 20
100.0
 30
0.0
 11
42.5
 21
100.0
 31
0.0
  0
TEXT
  5
E2
  8
NOTE
  6
CONTINUOUS
 62
     4
 10
-792.05486699999994
 20
227.75254200000001
 30
0.0
 40
64.0
  1
12-φ6×10
 41
0.9
  0
LINE
  5
E3
  8
NOTE
  6
CONTINUOUS
 62
     4
 10
-517.97559099999989
 20
194.45399699999999
 30
0.0
 11
-968.70228900000006
 21
194.45399699999999
 31
0.0
  0
ARC
  5
E4
  8
OUTLINE
  6
CONTINUOUS
 62
     3
 10
-131.0
 20
39.200000000000003
 30
0.0
 40
2.5
 50
90.0
 51
180.0
  0
LINE
  5
E5
  8
OUTLINE
  6
CONTINUOUS
 62
     3
 10
-133.5
 20
-8.4553370000000001
 30
0.0
 11
-133.5
 21
39.200000000000003
 31
0.0
  0
ARC
  5
E6
  8
OUTLINE
  6
CONTINUOUS
 62
     3
 10
-128.5
 20
-62.455337
 30
0.0
 40
5.0
 50
180.0
 51
270.0
  0
ARC
  5
E7
  8
OUTLINE
  6
CONTINUOUS
 62
     3
 10
-96.5
 20
63.055973999999992
 30
0.0
 40
5.0
 50
90.0
 51
180.0
  0
ARC
  5
E8
  8
OUTLINE
  6
CONTINUOUS
 62
     3
 10
-96.5
 20
-76.944025999999994
 30
0.0
 40
5.0
 50
180.0
 51
270.0
  0
LINE
  5
E9
  8
OUTLINE
  6
CONTINUOUS
 62
     3
 10
-101.5
 20
-76.944025999999994
 30
0.0
 11
-101.5
 21
63.055973999999992
 31
0.0
  0
LINE
  5
EA
  8
OUTLINE
  6
CONTINUOUS
 62
     3
 10
-133.5
 20
-62.455337
 30
0.0
 11
-133.5
 21
-8.4553370000000001
 31
0.0
  0
LINE
  5
EB
  8
OUTLINE
  6
CONTINUOUS
 62
     3
 10
-128.5
 20
-67.455337
 30
0.0
 11
-101.5
 21
-67.455337
 31
0.0
  0
LINE
  5
EC
  8
OUTLINE
  6
CONTINUOUS
 62
     3
 10
-131.0
 20
41.700000000000003
 30
0.0
 11
-101.5
 21
41.700000000000003
 31
0.0
  0
LINE
  5
ED
  8
OUTLINE
  6
CONTINUOUS
 62
     3
 10
-96.5
 20
-81.944026000000008
 30
0.0
 11
-72.5
 21
-81.944026000000008
 31
0.0
  0
LINE
  5
EE
  8
OUTLINE
  6
CONTINUOUS
 62
     3
 10
-96.5
 20
68.055973999999992
 30
0.0
 11
-72.5
 21
68.055973999999992
 31
0.0
  0
LINE
  5
EF
  8
OUTLINE
  6
CONTINUOUS
 62
     3
 10
-72.5
 20
-100.0
 30
0.0
 11
72.5
 21
-100.0
 31
0.0
  0
LINE
  5
F0
  8
OUTLINE
  6
CONTINUOUS
 62
     3
 10
-72.5
 20
100.0
 30
0.0
 11
-52.5
 21
100.0
 31
0.0
  0
LINE
  5
F1
  8
OUTLINE
  6
CONTINUOUS
 62
     3
 10
-72.5
 20
-100.0
 30
0.0
 11
-72.5
 21
100.0
 31
0.0
  0
LINE
  5
F2
  8
OUTLINE
  6
CONTINUOUS
 62
     3
 10
72.5
 20
-100.0
 30
0.0
 11
72.5
 21
100.0
 31
0.0
  0
LINE
  5
F3
  8
OUTLINE
  6
CONTINUOUS
 62
     3
 10
-52.5
 20
-100.0
 30
0.0
 11
-52.5
 21
100.0
 31
0.0
  0
LINE
  5
F4
  8
OUTLINE
  6
CONTINUOUS
 62
     3
 10
52.5
 20
-100.0
 30
0.0
 11
52.5
 21
100.0
 31
0.0
  0
LINE
  5
F5
  8
OUTLINE
  6
CONTINUOUS
 62
     3
 10
-52.5
 20
-75.0
 30
0.0
 11
52.5
 21
-75.0
 31
0.0
  0
LINE
  5
F6
  8
OUTLINE
  6
CONTINUOUS
 62
     3
 10
-52.5
 20
75.0
 30
0.0
 11
52.5
 21
75.0
 31
0.0
  0
LINE
  5
F7
  8
OUTLINE
  6
CONTINUOUS
 62
     3
 10
52.5
 20
100.0
 30
0.0
 11
72.5
 21
100.0
 31
0.0
  0
POINT
  5
F8
  8
ARRANGE
  6
CONTINUOUS
 62
     1
 10
0.0
 20
0.0
 30
0.0
  0
CIRCLE
  5
F9
  8
ARRANGE
  6
CONTINUOUS
 62
     1
 10
0.0
 20
0.0
 30
0.0
 40
40.0
  0
LINE
  5
FA
  8
DETAIL
  6
CONTINUOUS
 62
     5
 10
-90.0
 20
-102.0
 30
0.0
 11
90.0
 21
-102.0
 31
0.0
  0
LINE
  5
FB
  8
SIZE
  6
CONTINUOUS
 62
    30
 10
-90.0
 20
-122.0
 30
0.0
 11
-90.0
 21
-549.95986900000003
 31
0.0
  0
LINE
  5
FC
  8
SIZE
  6
CONTINUOUS
 62
    30
 10
90.0
 20
-122.0
 30
0.0
 11
90.0
 21
-549.95986900000003
 31
0.0
  0
LINE
  5
FD
  8
SIZE
  6
CONTINUOUS
 62
    30
 10
-78.0
 20
-529.95986900000003
 30
0.0
 11
78.0
 21
-529.95986900000003
 31
0.0
  0
TEXT
  5
FE
  8
SIZE
  6
CONTINUOUS
 62
    30
 10
-108.89142857142851
 20
-505.01178199999998
 30
0.0
 40
64.0
  1
φ180
 41
0.9
 72
     1
 11
0.0
 21
-505.01178199999998
 31
0.0
  0
CIRCLE
  5
FF
  8
SIZE
  6
CONTINUOUS
 62
    30
 10
-90.0
 20
-529.95986900000003
 30
0.0
 40
6.0
  0
LINE
  5
100
  8
SIZE
  6
CONTINUOUS
 62
    30
 10
-90.0
 20
-529.95986900000003
 30
0.0
 11
-78.0
 21
-529.95986900000003
 31
0.0
  0
CIRCLE
  5
101
  8
SIZE
  6
CONTINUOUS
 62
    30
 10
90.0
 20
-529.95986900000003
 30
0.0
 40
6.0
  0
LINE
  5
102
  8
SIZE
  6
CONTINUOUS
 62
    30
 10
90.0
 20
-529.95986900000003
 30
0.0
 11
78.0
 21
-529.95986900000003
 31
0.0
  0
POINT
  5
103
  8
DEFPOINTS
  6
CONTINUOUS
 62
    30
 10
-90.0
 20
-102.0
 30
0.0
  0
POINT
  5
104
  8
DEFPOINTS
  6
CONTINUOUS
 62
    30
 10
90.0
 20
-102.0
 30
0.0
  0
POINT
  5
105
  8
DEFPOINTS
  6
CONTINUOUS
 62
    30
 10
90.0
 20
-529.95986900000003
 30
0.0
  0
LINE
  5
106
  8
SIZE
  6
CONTINUOUS
 62
    30
 10
-72.5
 20
120.0
 30
0.0
 11
-72.5
 21
232.650971
 31
0.0
  0
LINE
  5
107
  8
SIZE
  6
CONTINUOUS
 62
    30
 10
-52.5
 20
120.0
 30
0.0
 11
-52.5
 21
232.650971
 31
0.0
  0
LINE
  5
108
  8
SIZE
  6
CONTINUOUS
 62
    30
 10
-84.500000000000014
 20
212.650971
 30
0.0
 11
-96.5
 21
212.650971
 31
0.0
  0
LINE
  5
109
  8
SIZE
  6
CONTINUOUS
 62
    30
 10
-40.499999999999993
 20
212.650971
 30
0.0
 11
-28.5
 21
212.650971
 31
0.0
  0
LINE
  5
10A
  8
SIZE
  6
CONTINUOUS
 62
    30
 10
-283.49671699999999
 20
212.650971
 30
0.0
 11
-72.5
 21
212.650971
 31
0.0
  0
TEXT
  5
10B
  8
SIZE
  6
CONTINUOUS
 62
    30
 10
-258.49671642857152
 20
237.650971
 30
0.0
 40
64.0
  1
20
 41
0.9
 72
     1
 11
-211.868145
 21
237.650971
 31
0.0
  0
LINE
  5
10C
  8
SIZE
  6
CONTINUOUS
 62
    30
 10
-72.5
 20
212.650971
 30
0.0
 11
-52.5
 21
212.650971
 31
0.0
  0
LINE
  5
10D
  8
SIZE
  6
CONTINUOUS
 62
    30
 10
-72.5
 20
212.650971
 30
0.0
 11
-52.5
 21
212.650971
 31
0.0
  0
CIRCLE
  5
10E
  8
SIZE
  6
CONTINUOUS
 62
    30
 10
-72.5
 20
212.650971
 30
0.0
 40
6.0
  0
LINE
  5
10F
  8
SIZE
  6
CONTINUOUS
 62
    30
 10
-72.5
 20
212.650971
 30
0.0
 11
-84.500000000000014
 21
212.650971
 31
0.0
  0
CIRCLE
  5
110
  8
SIZE
  6
CONTINUOUS
 62
    30
 10
-52.5
 20
212.650971
 30
0.0
 40
6.0
  0
LINE
  5
111
  8
SIZE
  6
CONTINUOUS
 62
    30
 10
-52.5
 20
212.650971
 30
0.0
 11
-40.499999999999993
 21
212.650971
 31
0.0
  0
POINT
  5
112
  8
DEFPOINTS
  6
CONTINUOUS
 62
    30
 10
-72.5
 20
100.0
 30
0.0
  0
POINT
  5
113
  8
DEFPOINTS
  6
CONTINUOUS
 62
    30
 10
-52.5
 20
100.0
 30
0.0
  0
POINT
  5
114
  8
DEFPOINTS
  6
CONTINUOUS
 62
    30
 10
-52.5
 20
212.650971
 30
0.0
  0
LINE
  5
115
  8
SIZE
  6
CONTINUOUS
 62
    30
 10
52.5
 20
120.0
 30
0.0
 11
52.5
 21
232.650971
 31
0.0
  0
LINE
  5
116
  8
SIZE
  6
CONTINUOUS
 62
    30
 10
72.5
 20
120.0
 30
0.0
 11
72.5
 21
232.650971
 31
0.0
  0
LINE
  5
117
  8
SIZE
  6
CONTINUOUS
 62
    30
 10
40.499999999999993
 20
212.650971
 30
0.0
 11
28.5
 21
212.650971
 31
0.0
  0
LINE
  5
118
  8
SIZE
  6
CONTINUOUS
 62
    30
 10
84.500000000000014
 20
212.650971
 30
0.0
 11
96.5
 21
212.650971
 31
0.0
  0
LINE
  5
119
  8
SIZE
  6
CONTINUOUS
 62
    30
 10
246.76684499999999
 20
212.650971
 30
0.0
 11
72.5
 21
212.650971
 31
0.0
  0
TEXT
  5
11A
  8
SIZE
  6
CONTINUOUS
 62
    30
 10
128.50970257142859
 20
237.650971
 30
0.0
 40
64.0
  1
20
 41
0.9
 72
     1
 11
175.138274
 21
237.650971
 31
0.0
  0
LINE
  5
11B
  8
SIZE
  6
CONTINUOUS
 62
    30
 10
52.5
 20
212.650971
 30
0.0
 11
72.5
 21
212.650971
 31
0.0
  0
LINE
  5
11C
  8
SIZE
  6
CONTINUOUS
 62
    30
 10
52.5
 20
212.650971
 30
0.0
 11
72.5
 21
212.650971
 31
0.0
  0
CIRCLE
  5
11D
  8
SIZE
  6
CONTINUOUS
 62
    30
 10
52.5
 20
212.650971
 30
0.0
 40
6.0
  0
LINE
  5
11E
  8
SIZE
  6
CONTINUOUS
 62
    30
 10
52.5
 20
212.650971
 30
0.0
 11
40.499999999999993
 21
212.650971
 31
0.0
  0
CIRCLE
  5
11F
  8
SIZE
  6
CONTINUOUS
 62
    30
 10
72.5
 20
212.650971
 30
0.0
 40
6.0
  0
LINE
  5
120
  8
SIZE
  6
CONTINUOUS
 62
    30
 10
72.5
 20
212.650971
 30
0.0
 11
84.500000000000014
 21
212.650971
 31
0.0
  0
POINT
  5
121
  8
DEFPOINTS
  6
CONTINUOUS
 62
    30
 10
52.5
 20
100.0
 30
0.0
  0
POINT
  5
122
  8
DEFPOINTS
  6
CONTINUOUS
 62
    30
 10
72.5
 20
100.0
 30
0.0
  0
POINT
  5
123
  8
DEFPOINTS
  6
CONTINUOUS
 62
    30
 10
72.5
 20
212.650971
 30
0.0
  0
LINE
  5
124
  8
SIZE
  6
CONTINUOUS
 62
    30
 10
-74.5
 20
212.650971
 30
0.0
 11
-263.97716400000002
 21
212.650971
 31
0.0
  0
LINE
  5
125
  8
SIZE
  6
CONTINUOUS
 62
    30
 10
72.5
 20
212.650971
 30
0.0
 11
234.32476399999999
 21
212.650971
 31
0.0
  0
LINE
  5
126
  8
SIZE
  6
CONTINUOUS
 62
    30
 10
-62.5
 20
140.0
 30
0.0
 11
-62.5
 21
362.96337499999998
 31
0.0
  0
LINE
  5
127
  8
SIZE
  6
CONTINUOUS
 62
    30
 10
62.5
 20
140.0
 30
0.0
 11
62.5
 21
362.96337499999998
 31
0.0
  0
LINE
  5
128
  8
SIZE
  6
CONTINUOUS
 62
    30
 10
-50.5
 20
342.96337499999998
 30
0.0
 11
50.5
 21
342.96337499999998
 31
0.0
  0
LINE
  5
129
  8
SIZE
  6
CONTINUOUS
 62
    30
 10
277.95072800000003
 20
342.96337499999998
 30
0.0
 11
62.5
 21
342.96337499999998
 31
0.0
  0
TEXT
  5
12A
  8
SIZE
  6
CONTINUOUS
 62
    30
 10
115.80787042857141
 20
367.96337499999998
 30
0.0
 40
64.0
  1
125
 41
0.9
 72
     1
 11
184.379299
 21
367.96337499999998
 31
0.0
  0
CIRCLE
  5
12B
  8
SIZE
  6
CONTINUOUS
 62
    30
 10
-62.5
 20
342.96337499999998
 30
0.0
 40
6.0
  0
LINE
  5
12C
  8
SIZE
  6
CONTINUOUS
 62
    30
 10
-62.5
 20
342.96337499999998
 30
0.0
 11
-50.5
 21
342.96337499999998
 31
0.0
  0
CIRCLE
  5
12D
  8
SIZE
  6
CONTINUOUS
 62
    30
 10
62.5
 20
342.96337499999998
 30
0.0
 40
6.0
  0
LINE
  5
12E
  8
SIZE
  6
CONTINUOUS
 62
    30
 10
62.5
 20
342.96337499999998
 30
0.0
 11
50.5
 21
342.96337499999998
 31
0.0
  0
POINT
  5
12F
  8
DEFPOINTS
  6
CONTINUOUS
 62
    30
 10
-62.5
 20
120.0
 30
0.0
  0
POINT
  5
130
  8
DEFPOINTS
  6
CONTINUOUS
 62
    30
 10
62.5
 20
120.0
 30
0.0
  0
POINT
  5
131
  8
DEFPOINTS
  6
CONTINUOUS
 62
    30
 10
62.5
 20
342.96337499999998
 30
0.0
  0
LINE
  5
132
  8
SIZE
  6
CONTINUOUS
 62
    30
 10
64.5
 20
342.96337499999998
 30
0.0
 11
258.507003
 21
342.96337499999998
 31
0.0
  0
LINE
  5
133
  8
BASIS
  6
DASHDOT
 62
     6
 10
-149.43306999999999
 20
1.0
 30
0.0
 11
-90.178916000000001
 21
1.0
 31
0.0
  0
LINE
  5
134
  8
BASIS
  6
DASHDOT
 62
     6
 10
60.098241999999999
 20
5.5
 30
0.0
 11
107.591449
 21
5.5
 31
0.0
  0
LINE
  5
135
  8
SIZE
  6
CONTINUOUS
 62
    30
 10
-169.43306999999999
 20
1.0
 30
0.0
 11
-216.655126
 21
1.0
 31
0.0
  0
LINE
  5
136
  8
SIZE
  6
CONTINUOUS
 62
    30
 10
-110.0
 20
-100.0
 30
0.0
 11
-216.655126
 21
-100.0
 31
0.0
  0
LINE
  5
137
  8
SIZE
  6
CONTINUOUS
 62
    30
 10
-196.655126
 20
-11.0
 30
0.0
 11
-196.655126
 21
-88.0
 31
0.0
  0
LINE
  5
138
  8
SIZE
  6
CONTINUOUS
 62
    30
 10
-196.655126
 20
-297.85910999999999
 30
0.0
 11
-196.655126
 21
-100.0
 31
0.0
  0
TEXT
  5
139
  8
SIZE
  6
CONTINUOUS
 62
    30
 10
-221.655126
 20
-272.8591104285714
 30
0.0
 40
64.0
  1
101
 50
90.0
 41
0.9
 72
     1
 11
-221.655126
 21
-216.630539
 31
0.0
  0
CIRCLE
  5
13A
  8
SIZE
  6
CONTINUOUS
 62
    30
 10
-196.655126
 20
1.0
 30
0.0
 40
6.0
  0
LINE
  5
13B
  8
SIZE
  6
CONTINUOUS
 62
    30
 10
-196.655126
 20
1.0
 30
0.0
 11
-196.655126
 21
-11.0
 31
0.0
  0
CIRCLE
  5
13C
  8
SIZE
  6
CONTINUOUS
 62
    30
 10
-196.655126
 20
-100.0
 30
0.0
 40
6.0
  0
LINE
  5
13D
  8
SIZE
  6
CONTINUOUS
 62
    30
 10
-196.655126
 20
-100.0
 30
0.0
 11
-196.655126
 21
-88.0
 31
0.0
  0
POINT
  5
13E
  8
DEFPOINTS
  6
CONTINUOUS
 62
    30
 10
-149.43306999999999
 20
1.0
 30
0.0
  0
POINT
  5
13F
  8
DEFPOINTS
  6
CONTINUOUS
 62
    30
 10
-90.0
 20
-100.0
 30
0.0
  0
POINT
  5
140
  8
DEFPOINTS
  6
CONTINUOUS
 62
    30
 10
-196.655126
 20
-100.0
 30
0.0
  0
LINE
  5
141
  8
SIZE
  6
CONTINUOUS
 62
    30
 10
-196.655126
 20
-100.0
 30
0.0
 11
-196.655126
 21
-280.73162600000001
 31
0.0
  0
LINE
  5
142
  8
NOTE
  6
CONTINUOUS
 62
     4
 10
-62.5
 20
81.0
 30
0.0
 11
-346.866446
 21
194.45399699999999
 31
0.0
  0
LINE
  5
143
  8
NOTE
  6
CONTINUOUS
 62
     4
 10
-94.528598000000002
 20
104.961822
 30
0.0
 11
-62.5
 21
81.0
 31
0.0
  0
LINE
  5
144
  8
NOTE
  6
CONTINUOUS
 62
     4
 10
-62.5
 20
81.0
 30
0.0
 11
-102.218491
 21
85.737246999999996
 31
0.0
  0
LINE
  5
146
  8
OUTLINE
  6
CONTINUOUS
 62
     3
 10
-131.0
 20
-39.700000000000003
 30
0.0
 11
-101.5
 21
-39.700000000000003
 31
0.0
  0
ARC
  5
147
  8
OUTLINE
  6
CONTINUOUS
 62
     3
 10
-131.0
 20
-37.20000000000001
 30
0.0
 40
2.5
 50
180.0
 51
270.0
  0
LINE
  5
148
  8
SIZE
  6
CONTINUOUS
 62
    30
 10
-151.0
 20
41.700000000000003
 30
0.0
 11
-344.7814029999999
 21
41.700000000000003
 31
0.0
  0
LINE
  5
149
  8
SIZE
  6
CONTINUOUS
 62
    30
 10
-151.0
 20
-39.700000000000003
 30
0.0
 11
-344.7814029999999
 21
-39.700000000000003
 31
0.0
  0
LINE
  5
14A
  8
SIZE
  6
CONTINUOUS
 62
    30
 10
-324.78140300000001
 20
29.699999999999999
 30
0.0
 11
-324.78140300000001
 21
-27.699999999999999
 31
0.0
  0
LINE
  5
14B
  8
SIZE
  6
CONTINUOUS
 62
    30
 10
-324.78140300000001
 20
-408.248673
 30
0.0
 11
-324.78140300000001
 21
-39.700000000000003
 31
0.0
  0
TEXT
  5
14C
  8
SIZE
  6
CONTINUOUS
 62
    30
 10
-349.78140300000001
 20
-394.7686728571428
 30
0.0
 40
64.0
  1
φ81.4
 50
90.0
 41
0.9
 72
     1
 11
-349.78140300000001
 21
-270.79153000000002
 31
0.0
  0
CIRCLE
  5
14D
  8
SIZE
  6
CONTINUOUS
 62
    30
 10
-324.78140300000001
 20
41.700000000000003
 30
0.0
 40
6.0
  0
LINE
  5
14E
  8
SIZE
  6
CONTINUOUS
 62
    30
 10
-324.78140300000001
 20
41.700000000000003
 30
0.0
 11
-324.78140300000001
 21
29.699999999999999
 31
0.0
  0
CIRCLE
  5
14F
  8
SIZE
  6
CONTINUOUS
 62
    30
 10
-324.78140300000001
 20
-39.700000000000003
 30
0.0
 40
6.0
  0
LINE
  5
150
  8
SIZE
  6
CONTINUOUS
 62
    30
 10
-324.78140300000001
 20
-39.700000000000003
 30
0.0
 11
-324.78140300000001
 21
-27.699999999999999
 31
0.0
  0
POINT
  5
151
  8
DEFPOINTS
  6
CONTINUOUS
 62
    30
 10
-131.0
 20
41.700000000000003
 30
0.0
  0
POINT
  5
152
  8
DEFPOINTS
  6
CONTINUOUS
 62
    30
 10
-131.0
 20
-39.700000000000003
 30
0.0
  0
POINT
  5
153
  8
DEFPOINTS
  6
CONTINUOUS
 62
    30
 10
-324.78140300000001
 20
-39.700000000000003
 30
0.0
  0
LINE
  5
154
  8
SIZE
  6
CONTINUOUS
 62
    30
 10
-324.78140300000001
 20
-39.700000000000003
 30
0.0
 11
-324.78140300000001
 21
-378.29798299999999
 31
0.0
  0
LINE
  5
155
  8
DETAIL
  6
CONTINUOUS
 62
     5
 10
-131.0
 20
-39.700000000000003
 30
0.0
 11
-101.5
 21
-39.700000000000003
 31
0.0
  0
ARC
  5
156
  8
DETAIL
  6
CONTINUOUS
 62
     5
 10
-131.0
 20
-37.20000000000001
 30
0.0
 40
2.5
 50
180.0
 51
270.0
  0
TEXT
  5
157
  8
NOTE
  6
CONTINUOUS
 62
     4
 10
172.630585
 20
-64.043827000000007
 30
0.0
 40
64.0
  1
入口
 50
90.0
 41
0.9
  0
TEXT
  5
158
  8
NOTE
  6
CONTINUOUS
 62
     4
 10
-61.675775000000002
 20
-206.699938
 30
0.0
 40
64.0
  1
出口
 41
0.9
  0
TEXT
  5
159
  8
NOTE
  6
CONTINUOUS
 62
     4
 10
-963.1489140000001
 20
226.35016999999999
 30
0.0
 40
64.0
  1
AH
 41
0.9
  0
LINE
  5
15A
  8
NOTE
  6
CONTINUOUS
 62
     4
 10
-515.97559100000001
 20
194.45399699999999
 30
0.0
 11
-346.866446
 21
194.45399699999999
 31
0.0
  0
LINE
  5
15B
  8
DETAIL
  6
CONTINUOUS
 62
     5
 10
65.5
 20
-85.0
 30
0.0
 11
65.5
 21
-77.0
 31
0.0
  0
LINE
  5
15C
  8
DETAIL
  6
CONTINUOUS
 62
     5
 10
59.5
 20
-85.0
 30
0.0
 11
59.5
 21
-77.0
 31
0.0
  0
ARC
  5
15D
  8
DETAIL
  6
CONTINUOUS
 62
     5
 10
62.5
 20
-81.0
 30
0.0
 40
5.0
 50
233.13010199999999
 51
306.86989799999998
  0
ARC
  5
15E
  8
DETAIL
  6
CONTINUOUS
 62
     5
 10
62.5
 20
-81.0
 30
0.0
 40
5.0
 50
53.130102000000001
 51
126.86989800000001
  0
CIRCLE
  5
15F
  8
FIX
  6
CONTINUOUS
 62
    11
 10
62.5
 20
-81.0
 30
0.0
 40
3.0
  0
LINE
  5
160
  8
NOTE
  6
CONTINUOUS
 62
     4
 10
62.5
 20
-101.0
 30
0.0
 11
62.5
 21
-61.0
 31
0.0
  0
LINE
  5
161
  8
NOTE
  6
CONTINUOUS
 62
     4
 10
42.5
 20
-81.0
 30
0.0
 11
82.5
 21
-81.0
 31
0.0
  0
CIRCLE
  5
162
  8
FIX
  6
CONTINUOUS
 62
    11
 10
62.5
 20
81.0
 30
0.0
 40
3.0
  0
ARC
  5
163
  8
DETAIL
  6
CONTINUOUS
 62
     5
 10
62.5
 20
81.0
 30
0.0
 40
5.0
 50
53.130102000000001
 51
126.86989800000001
  0
ARC
  5
164
  8
DETAIL
  6
CONTINUOUS
 62
     5
 10
62.5
 20
81.0
 30
0.0
 40
5.0
 50
233.13010199999999
 51
306.86989799999998
  0
LINE
  5
165
  8
DETAIL
  6
CONTINUOUS
 62
     5
 10
59.5
 20
77.0
 30
0.0
 11
59.5
 21
85.0
 31
0.0
  0
LINE
  5
166
  8
DETAIL
  6
CONTINUOUS
 62
     5
 10
65.5
 20
77.0
 30
0.0
 11
65.5
 21
85.0
 31
0.0
  0
LINE
  5
167
  8
NOTE
  6
CONTINUOUS
 62
     4
 10
62.5
 20
61.0
 30
0.0
 11
62.5
 21
101.0
 31
0.0
  0
LINE
  5
168
  8
NOTE
  6
CONTINUOUS
 62
     4
 10
42.5
 20
81.0
 30
0.0
 11
82.5
 21
81.0
 31
0.0
  0
LINE
  5
169
  8
SIZE
  6
CONTINUOUS
 62
    30
 10
-102.5
 20
81.0
 30
0.0
 11
-413.43610999999993
 21
81.0
 31
0.0
  0
LINE
  5
16A
  8
SIZE
  6
CONTINUOUS
 62
    30
 10
-102.5
 20
-81.0
 30
0.0
 11
-413.43610999999993
 21
-81.0
 31
0.0
  0
LINE
  5
16B
  8
SIZE
  6
CONTINUOUS
 62
    30
 10
-393.43610999999999
 20
69.0
 30
0.0
 11
-393.43610999999999
 21
-69.0
 31
0.0
  0
TEXT
  5
16C
  8
SIZE
  6
CONTINUOUS
 62
    30
 10
-421.2069469999999
 20
-68.571428571428569
 30
0.0
 40
64.0
  1
162
 50
90.0
 41
0.9
 72
     1
 11
-421.2069469999999
 21
0.0
 31
0.0
  0
CIRCLE
  5
16D
  8
SIZE
  6
CONTINUOUS
 62
    30
 10
-393.43610999999999
 20
81.0
 30
0.0
 40
6.0
  0
LINE
  5
16E
  8
SIZE
  6
CONTINUOUS
 62
    30
 10
-393.43610999999999
 20
81.0
 30
0.0
 11
-393.43610999999999
 21
69.0
 31
0.0
  0
CIRCLE
  5
16F
  8
SIZE
  6
CONTINUOUS
 62
    30
 10
-393.43610999999999
 20
-81.0
 30
0.0
 40
6.0
  0
LINE
  5
170
  8
SIZE
  6
CONTINUOUS
 62
    30
 10
-393.43610999999999
 20
-81.0
 30
0.0
 11
-393.43610999999999
 21
-69.0
 31
0.0
  0
POINT
  5
171
  8
DEFPOINTS
  6
CONTINUOUS
 62
    30
 10
-82.5
 20
81.0
 30
0.0
  0
POINT
  5
172
  8
DEFPOINTS
  6
CONTINUOUS
 62
    30
 10
-82.5
 20
-81.0
 30
0.0
  0
POINT
  5
173
  8
DEFPOINTS
  6
CONTINUOUS
 62
    30
 10
-393.43610999999999
 20
-81.0
 30
0.0
  0
LINE
  5
174
  8
SIZE
  6
CONTINUOUS
 62
    30
 10
92.5
 20
-100.0
 30
0.0
 11
300.04763400000002
 21
-100.0
 31
0.0
  0
LINE
  5
175
  8
SIZE
  6
CONTINUOUS
 62
    30
 10
127.591449
 20
5.5
 30
0.0
 11
300.04763400000002
 21
5.5
 31
0.0
  0
LINE
  5
176
  8
SIZE
  6
CONTINUOUS
 62
    30
 10
280.0476339999999
 20
-88.0
 30
0.0
 11
280.0476339999999
 21
-6.5
 31
0.0
  0
LINE
  5
177
  8
SIZE
  6
CONTINUOUS
 62
    30
 10
280.0476339999999
 20
-441.78845899999988
 30
0.0
 11
280.0476339999999
 21
-100.0
 31
0.0
  0
TEXT
  5
178
  8
SIZE
  6
CONTINUOUS
 62
    30
 10
255.04763399999999
 20
-416.78845871428558
 30
0.0
 40
64.0
  1
105.5
 50
90.0
 41
0.9
 72
     1
 11
255.04763399999999
 21
-307.07417299999997
 31
0.0
  0
CIRCLE
  5
179
  8
SIZE
  6
CONTINUOUS
 62
    30
 10
280.0476339999999
 20
-100.0
 30
0.0
 40
6.0
  0
LINE
  5
17A
  8
SIZE
  6
CONTINUOUS
 62
    30
 10
280.0476339999999
 20
-100.0
 30
0.0
 11
280.0476339999999
 21
-88.0
 31
0.0
  0
CIRCLE
  5
17B
  8
SIZE
  6
CONTINUOUS
 62
    30
 10
280.0476339999999
 20
5.5
 30
0.0
 40
6.0
  0
LINE
  5
17C
  8
SIZE
  6
CONTINUOUS
 62
    30
 10
280.0476339999999
 20
5.5
 30
0.0
 11
280.0476339999999
 21
-6.5
 31
0.0
  0
POINT
  5
17D
  8
DEFPOINTS
  6
CONTINUOUS
 62
    30
 10
72.5
 20
-100.0
 30
0.0
  0
POINT
  5
17E
  8
DEFPOINTS
  6
CONTINUOUS
 62
    30
 10
107.591449
 20
5.5
 30
0.0
  0
POINT
  5
17F
  8
DEFPOINTS
  6
CONTINUOUS
 62
    30
 10
280.0476339999999
 20
5.5
 30
0.0
  0
TEXT
  5
187
  8
ETC
  6
CONTINUOUS
 62
    61
 10
316.23372693803748
 20
475.44390565107528
 30
0.0
 40
64.0
  1
産業扇
 41
0.9
  0
TEXT
  5
188
  8
ETC
  6
CONTINUOUS
 62
    61
 10
311.40145893803748
 20
586.78853565107534
 30
0.0
 40
64.0
  1
BF-12S3_6
 41
0.9
  0
TEXT
  5
189
  8
ETC
  6
CONTINUOUS
 62
    61
 10
400.09766904558609
 20
365.5901044247164
 30
0.0
 40
64.0
  1
BF-12S3
 41
0.9
  0
TEXT
  5
1B2
  8
ETC
  6
CONTINUOUS
 62
    61
 10
400.09766904558609
 20
265.45665234331432
 30
0.0
 40
64.0
  1
BF-14S3
 41
0.9
  0
ENDSEC
  0
EOF
