  0
SECTION
  2
HEADER
  9
$ACADVER
  1
AC1009
  9
$DWGCODEPAGE
  3
dos932
  9
$INSBASE
 10
0.0
 20
0.0
 30
0.0
  9
$EXTMIN
 10
-837.03459062035654
 20
-525.19224912998288
 30
-0.0000000349181948
  9
$EXTMAX
 10
835.6750601735821
 20
574.53919257332927
 30
0.0000000814935746
  9
$LIMMIN
 10
-2970.0
 20
-2100.0
  9
$LIMMAX
 10
2970.0
 20
2100.0
  9
$ORTHOMODE
 70
     1
  9
$REGENMODE
 70
     1
  9
$FILLMODE
 70
     1
  9
$QTEXTMODE
 70
     0
  9
$MIRRTEXT
 70
     0
  9
$LTSCALE
 40
20.0
  9
$ATTMODE
 70
     1
  9
$TEXTSIZE
 40
64.0
  9
$TRACEWID
 40
0.05
  9
$TEXTSTYLE
  7
STANDARD
  9
$CLAYER
  8
NOTE
  9
$CELTYPE
  6
CONTINUOUS
  9
$CECOLOR
 62
     7
  9
$DIMSCALE
 40
1.0
  9
$DIMASZ
 40
12.0
  9
$DIMEXO
 40
20.0
  9
$DIMDLI
 40
200.0
  9
$DIMRND
 40
0.0
  9
$DIMDLE
 40
0.0
  9
$DIMEXE
 40
20.0
  9
$DIMTP
 40
0.0
  9
$DIMTM
 40
0.0
  9
$DIMTXT
 40
64.0
  9
$DIMCEN
 40
0.09
  9
$DIMTSZ
 40
0.0
  9
$DIMTOL
 70
     0
  9
$DIMLIM
 70
     0
  9
$DIMTIH
 70
     0
  9
$DIMTOH
 70
     0
  9
$DIMSE1
 70
     0
  9
$DIMSE2
 70
     0
  9
$DIMTAD
 70
     1
  9
$DIMZIN
 70
     8
  9
$DIMBLK
  1

  9
$DIMASO
 70
     1
  9
$DIMSHO
 70
     0
  9
$DIMPOST
  1

  9
$DIMAPOST
  1

  9
$DIMALT
 70
     0
  9
$DIMALTD
 70
     2
  9
$DIMALTF
 40
25.399999999999999
  9
$DIMLFAC
 40
1.0
  9
$DIMTOFL
 70
     1
  9
$DIMTVP
 40
0.0
  9
$DIMTIX
 70
     1
  9
$DIMSOXD
 70
     0
  9
$DIMSAH
 70
     0
  9
$DIMBLK1
  1

  9
$DIMBLK2
  1

  9
$DIMSTYLE
  2
STANDARD
  9
$DIMCLRD
 70
     7
  9
$DIMCLRE
 70
     7
  9
$DIMCLRT
 70
     7
  9
$DIMTFAC
 40
1.0
  9
$DIMGAP
 40
25.0
  9
$LUNITS
 70
     2
  9
$LUPREC
 70
     4
  9
$SKETCHINC
 40
0.1
  9
$FILLETRAD
 40
3.0
  9
$AUNITS
 70
     1
  9
$AUPREC
 70
     3
  9
$MENU
  1
ACAD
  9
$ELEVATION
 40
0.0
  9
$PELEVATION
 40
0.0
  9
$THICKNESS
 40
50.0
  9
$LIMCHECK
 70
     0
  9
$CHAMFERA
 40
0.0
  9
$CHAMFERB
 40
0.0
  9
$SKPOLY
 70
     0
  9
$TDCREATE
 40
2453019.62301037
  9
$TDUPDATE
 40
2458911.47140044
  9
$TDINDWG
 40
1.7240686458
  9
$TDUSRTIMER
 40
1.7240686458
  9
$USRTIMER
 70
     1
  9
$ANGBASE
 50
0.0
  9
$ANGDIR
 70
     0
  9
$PDMODE
 70
     3
  9
$PDSIZE
 40
-2.0
  9
$PLINEWID
 40
0.0
  9
$SPLFRAME
 70
     0
  9
$SPLINETYPE
 70
     6
  9
$SPLINESEGS
 70
     8
  9
$SURFTAB1
 70
     6
  9
$SURFTAB2
 70
     6
  9
$SURFTYPE
 70
     6
  9
$SURFU
 70
     6
  9
$SURFV
 70
     6
  9
$UCSNAME
  2

  9
$UCSORG
 10
0.0
 20
0.0
 30
0.0
  9
$UCSXDIR
 10
1.0
 20
0.0
 30
0.0
  9
$UCSYDIR
 10
0.0
 20
1.0
 30
0.0
  9
$PUCSNAME
  2

  9
$PUCSORG
 10
0.0
 20
0.0
 30
0.0
  9
$PUCSXDIR
 10
1.0
 20
0.0
 30
0.0
  9
$PUCSYDIR
 10
0.0
 20
1.0
 30
0.0
  9
$USERI1
 70
     0
  9
$USERI2
 70
     0
  9
$USERI3
 70
     0
  9
$USERI4
 70
     0
  9
$USERI5
 70
     0
  9
$USERR1
 40
20.0
  9
$USERR2
 40
0.0
  9
$USERR3
 40
0.0
  9
$USERR4
 40
0.0
  9
$USERR5
 40
0.0
  9
$WORLDVIEW
 70
     1
  9
$SHADEDGE
 70
     3
  9
$SHADEDIF
 70
    70
  9
$TILEMODE
 70
     1
  9
$MAXACTVP
 70
    48
  9
$PINSBASE
 10
0.0
 20
0.0
 30
0.0
  9
$PLIMCHECK
 70
     0
  9
$PEXTMIN
 10
-100000000000000000000.0
 20
-100000000000000000000.0
 30
-100000000000000000000.0
  9
$PEXTMAX
 10
100000000000000000000.0
 20
100000000000000000000.0
 30
100000000000000000000.0
  9
$PLIMMIN
 10
0.0
 20
0.0
  9
$PLIMMAX
 10
12.0
 20
9.0
  9
$UNITMODE
 70
     0
  9
$VISRETAIN
 70
     0
  9
$PLINEGEN
 70
     0
  9
$PSLTSCALE
 70
     0
  9
$TREEDEPTH
 70
  3020
  9
$ATTDIA
 70
     0
  9
$ATTREQ
 70
     1
  9
$BLIPMODE
 70
     1
  9
$COORDS
 70
     1
  9
$DRAGMODE
 70
     2
  9
$OSMODE
 70
     0
  9
$HANDLING
 70
     0
  9
$HANDSEED
  5
E7D5
  0
ENDSEC
  0
SECTION
  2
TABLES
  0
TABLE
  2
LTYPE
 70
     2
  0
LTYPE
  2
CONTINUOUS
 70
     0
  3
実線
 72
    65
 73
     0
 40
0.0
  0
LTYPE
  2
DASHDOT
 70
     0
  3
____ _ ____ _ ____ _ ____ _ ____ _ ____ _ ____
 72
    65
 73
     4
 40
5.5
 49
4.0
 49
-0.6
 49
0.3
 49
-0.6
  0
ENDTAB
  0
TABLE
  2
LAYER
 70
    12
  0
LAYER
  2
0
 70
     0
 62
     7
  6
CONTINUOUS
  0
LAYER
  2
BASIS
 70
     0
 62
     6
  6
DASHDOT
  0
LAYER
  2
OUTLINE
 70
     0
 62
     3
  6
CONTINUOUS
  0
LAYER
  2
DETAIL
 70
     0
 62
     5
  6
CONTINUOUS
  0
LAYER
  2
SIZE
 70
     0
 62
    30
  6
CONTINUOUS
  0
LAYER
  2
ARRANGE
 70
     0
 62
     1
  6
CONTINUOUS
  0
LAYER
  2
ETC
 70
     0
 62
    61
  6
CONTINUOUS
  0
LAYER
  2
FIX
 70
     0
 62
    11
  6
CONTINUOUS
  0
LAYER
  2
NOTE
 70
     0
 62
     4
  6
CONTINUOUS
  0
LAYER
  2
DEFPOINTS
 70
    64
 62
     7
  6
CONTINUOUS
  0
LAYER
  2
SERVICESPACE
 70
    64
 62
     2
  6
DASHDOT
  0
LAYER
  2
SYMBOLLINE
 70
    64
 62
    15
  6
CONTINUOUS
  0
ENDTAB
  0
TABLE
  2
STYLE
 70
     1
  0
STYLE
  2
STANDARD
 70
     0
 40
64.0
 41
0.9
 50
0.0
 71
     0
 42
64.0
  3
SIMPLEX.shx
  4
BIGFONT.shx
  0
ENDTAB
  0
TABLE
  2
APPID
 70
    16
  0
APPID
  2
ACAD
 70
     0
  0
APPID
  2
AUTOCAD_POSTSCRIPT_FIGURE
 70
     0
  0
APPID
  2
ACAD_EXEMPT_FROM_CAD_STANDARDS
 70
     0
  0
APPID
  2
ACAD_PSEXT
 70
     0
  0
APPID
  2
ACAUTHENVIRON
 70
     0
  0
APPID
  2
GENIUS_GENOENT_13
 70
     0
  0
APPID
  2
GENIUS_GENCFG_13
 70
     0
  0
APPID
  2
GENIUS_GENCFG0_13
 70
     0
  0
APPID
  2
GENIUS_GENCFG1_13
 70
     0
  0
APPID
  2
GENIUS_GENCFG2_13
 70
     0
  0
APPID
  2
GENIUS_GENCFG3_13
 70
     0
  0
APPID
  2
GENIUS_GENCFG4_13
 70
     0
  0
APPID
  2
GENIUS_GEVCFG0_13
 70
     0
  0
APPID
  2
CONTENTBLOCKICON
 70
     0
  0
APPID
  2
CONTENTBLOCKDESCRIPTION
 70
     0
  0
APPID
  2
ACAD_NAV_VCDISPLAY
 70
     0
  0
ENDTAB
  0
TABLE
  2
DIMSTYLE
 70
     1
  0
DIMSTYLE
  2
STANDARD
 70
     0
  3

  4

  5
_ORIGIN
  6

  7

 40
1.0
 41
12.0
 42
20.0
 43
200.0
 44
20.0
 45
0.0
 46
0.0
 47
0.0
 48
0.0
140
64.0
141
0.09
142
0.0
143
25.399999999999999
144
1.0
145
0.0
146
1.0
147
25.0
 71
     0
 72
     0
 73
     0
 74
     0
 75
     0
 76
     0
 77
     1
 78
     8
170
     0
171
     2
172
     1
173
     0
174
     1
175
     0
176
     7
177
     7
178
     7
  0
ENDTAB
  0
TABLE
  2
VIEW
 70
     1
  0
VIEW
  2
ALL
 70
     0
 40
4282.6198079999986
 10
0.0
 20
41.309904000000003
 41
5940.0
 11
0.0
 21
0.0
 31
1.0
 12
0.0
 22
0.0
 32
0.0
 42
50.0
 43
0.0
 44
0.0
 50
0.0
 71
     0
  0
ENDTAB
  0
TABLE
  2
UCS
 70
     0
  0
ENDTAB
  0
TABLE
  2
VPORT
 70
     1
  0
VPORT
  2
*ACTIVE
 70
     0
 10
0.0
 20
0.0
 11
1.0
 21
1.0
 12
-0.6797652233872213
 22
24.673471721673199
 13
0.0
 23
0.0
 14
1.0
 24
1.0
 15
0.0
 25
0.0
 16
0.0
 26
0.0
 36
1.0
 17
0.0
 27
0.0
 37
0.0
 40
1107.605413839613
 41
1.7980884109916371
 42
50.0
 43
0.0
 44
0.0
 50
0.0
 51
0.0
 71
     0
 72
  1000
 73
     1
 74
     3
 75
     0
 76
     0
 77
     0
 78
     0
  0
ENDTAB
  0
ENDSEC
  0
SECTION
  2
BLOCKS
  0
BLOCK
  8
0
  2
_ORIGIN
 70
     0
 10
0.0
 20
0.0
 30
0.0
  3
_ORIGIN
  1
_ORIGIN
  0
CIRCLE
  8
0
  6
CONTINUOUS
 62
     7
 10
0.0
 20
0.0
 30
0.0
 40
0.5
  0
LINE
  8
0
  6
CONTINUOUS
 62
     7
 10
0.0
 20
0.0
 30
0.0
 11
-1.0
 21
0.0
 31
0.0
  0
ENDBLK
  8
0
  0
ENDSEC
  0
SECTION
  2
ENTITIES
  0
LINE
  8
DETAIL
  6
CONTINUOUS
 62
     5
 10
-51.299999999999983
 20
-53.013731000000007
 30
0.0
 11
51.299999999999983
 21
-53.013731000000007
 31
0.0
  0
LINE
  8
DETAIL
  6
CONTINUOUS
 62
     5
 10
-51.299999999999983
 20
-53.013731000000007
 30
0.0
 11
-51.299999999999983
 21
-42.012658999999999
 31
0.0
  0
LINE
  8
DETAIL
  6
CONTINUOUS
 62
     5
 10
-51.299999999999983
 20
-43.212658999999988
 30
0.0
 11
51.299999999999983
 21
-43.212658999999988
 31
0.0
  0
LINE
  8
DETAIL
  6
CONTINUOUS
 62
     5
 10
51.299999999999983
 20
-53.013731000000007
 30
0.0
 11
51.299999999999983
 21
-42.012658999999999
 31
0.0
  0
LINE
  8
DETAIL
  6
CONTINUOUS
 62
     5
 10
62.249498000000017
 20
113.5
 30
0.0
 11
72.500000999999997
 21
113.5
 31
0.0
  0
LINE
  8
DETAIL
  6
CONTINUOUS
 62
     5
 10
-62.249498000000017
 20
113.5
 30
0.0
 11
-72.5
 21
113.5
 31
0.0
  0
LINE
  8
DETAIL
  6
CONTINUOUS
 62
     5
 10
-102.999999
 20
89.290629999999993
 30
0.0
 11
-101.499999
 21
89.290629999999993
 31
0.0
  0
LINE
  8
DETAIL
  6
CONTINUOUS
 62
     5
 10
-106.499999
 20
-41.200000000000003
 30
0.0
 11
-106.499999
 21
-40.700000000000003
 31
0.0
  0
LINE
  8
DETAIL
  6
CONTINUOUS
 62
     5
 10
-101.499999
 20
-41.200000000000003
 30
0.0
 11
-106.499999
 21
-41.200000000000003
 31
0.0
  0
LINE
  8
DETAIL
  6
CONTINUOUS
 62
     5
 10
-106.499999
 20
-40.700000000000003
 30
0.0
 11
-130.999999
 21
-40.700000000000003
 31
0.0
  0
ARC
  8
DETAIL
  6
CONTINUOUS
 62
     5
 10
-130.999999
 20
-38.200000000000003
 30
0.0
 40
2.5
 50
180.0
 51
270.0
  0
LINE
  8
DETAIL
  6
CONTINUOUS
 62
     5
 10
-133.499999
 20
-38.200000000000003
 30
0.0
 11
-133.499999
 21
-0.0357099999999946
 31
0.0
  0
ARC
  8
DETAIL
  6
CONTINUOUS
 62
     5
 10
-130.999999
 20
38.200000000000003
 30
0.0
 40
2.5
 50
90.0
 51
180.0
  0
LINE
  8
DETAIL
  6
CONTINUOUS
 62
     5
 10
-133.499999
 20
38.200000000000003
 30
0.0
 11
-133.499999
 21
-0.0357099999999946
 31
0.0
  0
LINE
  8
DETAIL
  6
CONTINUOUS
 62
     5
 10
-101.499999
 20
41.200000000000003
 30
0.0
 11
-106.499999
 21
41.200000000000003
 31
0.0
  0
LINE
  8
DETAIL
  6
CONTINUOUS
 62
     5
 10
-106.499999
 20
40.700000000000003
 30
0.0
 11
-130.999999
 21
40.700000000000003
 31
0.0
  0
LINE
  8
DETAIL
  6
CONTINUOUS
 62
     5
 10
-106.499999
 20
41.200000000000003
 30
0.0
 11
-106.499999
 21
40.700000000000003
 31
0.0
  0
LINE
  8
DETAIL
  6
CONTINUOUS
 62
     5
 10
-106.499999
 20
40.700000000000003
 30
0.0
 11
-106.499999
 21
-0.0357249999999993
 31
0.0
  0
LINE
  8
DETAIL
  6
CONTINUOUS
 62
     5
 10
-106.499999
 20
-40.700000000000003
 30
0.0
 11
-106.499999
 21
-0.035695000000004
 31
0.0
  0
LINE
  8
DETAIL
  6
CONTINUOUS
 62
     5
 10
-52.5
 20
-83.434447000000006
 30
0.0
 11
52.5
 21
-83.434447000000006
 31
0.0
  0
LINE
  8
DETAIL
  6
CONTINUOUS
 62
     5
 10
72.500000999999997
 20
-29.327224999999999
 30
0.0
 11
72.500000999999997
 21
-86.5
 31
0.0
  0
LINE
  8
DETAIL
  6
CONTINUOUS
 62
     5
 10
52.5
 20
113.5
 30
0.0
 11
52.5
 21
-86.5
 31
0.0
  0
LINE
  8
DETAIL
  6
CONTINUOUS
 62
     5
 10
72.500000999999997
 20
112.5
 30
0.0
 11
72.500000999999997
 21
111.7
 31
0.0
  0
LINE
  8
DETAIL
  6
CONTINUOUS
 62
     5
 10
72.500000999999997
 20
-84.700000000000003
 30
0.0
 11
72.500000999999997
 21
-85.5
 31
0.0
  0
LINE
  8
DETAIL
  6
CONTINUOUS
 62
     5
 10
52.5
 20
-86.5
 30
0.0
 11
72.500000999999997
 21
-86.5
 31
0.0
  0
LINE
  8
DETAIL
  6
CONTINUOUS
 62
     5
 10
-72.5
 20
-38.027225000000001
 30
0.0
 11
-72.5
 21
-61.5
 31
0.0
  0
LINE
  8
DETAIL
  6
CONTINUOUS
 62
     5
 10
-72.5
 20
113.5
 30
0.0
 11
-72.5
 21
101.826823
 31
0.0
  0
LINE
  8
DETAIL
  6
CONTINUOUS
 62
     5
 10
-52.5
 20
-86.5
 30
0.0
 11
-72.5
 21
-86.5
 31
0.0
  0
LINE
  8
DETAIL
  6
CONTINUOUS
 62
     5
 10
-72.5
 20
-61.5
 30
0.0
 11
-72.5
 21
-86.5
 31
0.0
  0
LINE
  8
DETAIL
  6
CONTINUOUS
 62
     5
 10
72.500000999999997
 20
101.82682200000001
 30
0.0
 11
72.500000999999997
 21
108.7
 31
0.0
  0
LINE
  8
DETAIL
  6
CONTINUOUS
 62
     5
 10
-72.5
 20
-4.8268230000000054
 30
0.0
 11
-72.5
 21
-38.027225000000001
 31
0.0
  0
LINE
  8
DETAIL
  6
CONTINUOUS
 62
     5
 10
72.500000999999997
 20
-38.027225000000001
 30
0.0
 11
72.500000999999997
 21
-4.8268219999999928
 31
0.0
  0
LINE
  8
DETAIL
  6
CONTINUOUS
 62
     5
 10
-52.5
 20
-42.027225000000001
 30
0.0
 11
52.5
 21
-42.027225000000001
 31
0.0
  0
LINE
  8
BASIS
  6
DASHDOT
 62
     6
 10
0.0
 20
162.97716800000001
 30
0.0
 11
0.0
 21
-115.871475
 31
0.0
  0
LINE
  8
DETAIL
  6
CONTINUOUS
 62
     5
 10
-101.499999
 20
83.5
 30
0.0
 11
-101.499999
 21
48.5
 31
0.0
  0
LINE
  8
DETAIL
  6
CONTINUOUS
 62
     5
 10
-72.5
 20
-61.5
 30
0.0
 11
-96.499999000000003
 21
-61.5
 31
0.0
  0
ARC
  8
DETAIL
  6
CONTINUOUS
 62
     5
 10
-96.499999000000003
 20
-56.5
 30
0.0
 40
5.0
 50
180.0
 51
270.0
  0
LINE
  8
DETAIL
  6
CONTINUOUS
 62
     5
 10
-80.622578000000004
 20
88.5
 30
0.0
 11
-96.499999000000003
 21
88.5
 31
0.0
  0
ARC
  8
DETAIL
  6
CONTINUOUS
 62
     5
 10
-96.499999000000003
 20
83.5
 30
0.0
 40
5.0
 50
90.0
 51
180.0
  0
LINE
  8
DETAIL
  6
CONTINUOUS
 62
     5
 10
-101.499999
 20
-56.5
 30
0.0
 11
-101.499999
 21
-41.400000000000013
 31
0.0
  0
LINE
  8
BASIS
  6
DASHDOT
 62
     6
 10
-148.48584916942761
 20
0.0
 30
0.0
 11
123.4137786099645
 21
0.0
 31
0.0
  0
LINE
  8
DETAIL
  6
CONTINUOUS
 62
     5
 10
-101.499999
 20
-41.200000000000003
 30
0.0
 11
-101.499999
 21
-0.0357249999999993
 31
0.0
  0
LINE
  8
DETAIL
  6
CONTINUOUS
 62
     5
 10
-101.499999
 20
53.500000999999997
 30
0.0
 11
-101.499999
 21
16.290631000000001
 31
0.0
  0
LINE
  8
DETAIL
  6
CONTINUOUS
 62
     5
 10
-101.499999
 20
31.464305
 30
0.0
 11
-101.499999
 21
-0.0357249999999993
 31
0.0
  0
LINE
  8
DETAIL
  6
CONTINUOUS
 62
     5
 10
-101.499999
 20
41.726324000000012
 30
0.0
 11
-101.499999
 21
41.200000000000003
 31
0.0
  0
LINE
  8
DETAIL
  6
CONTINUOUS
 62
     5
 10
-101.499999
 20
89.290629999999993
 30
0.0
 11
-101.499999
 21
83.5
 31
0.0
  0
ARC
  8
DETAIL
  6
CONTINUOUS
 62
     5
 10
-101.999999
 20
87.658579000000003
 30
0.0
 40
0.5
 50
0.0
 51
29.999999999999542
  0
LINE
  8
DETAIL
  6
CONTINUOUS
 62
     5
 10
-104.499999
 20
89.290629999999993
 30
0.0
 11
-104.499999
 21
85.790629999999965
 31
0.0
  0
LINE
  8
DETAIL
  6
CONTINUOUS
 62
     5
 10
-102.999999
 20
89.290629999999993
 30
0.0
 11
-104.499999
 21
89.290629999999993
 31
0.0
  0
LINE
  8
DETAIL
  6
CONTINUOUS
 62
     5
 10
-104.499999
 20
85.790629999999965
 30
0.0
 11
-104.499999
 21
66.790630000000021
 31
0.0
  0
LINE
  8
DETAIL
  6
CONTINUOUS
 62
     5
 10
-104.499999
 20
74.99063000000001
 30
0.0
 11
-104.499999
 21
73.49063000000001
 31
0.0
  0
LINE
  8
DETAIL
  6
CONTINUOUS
 62
     5
 10
-132.999999
 20
78.511599999999987
 30
0.0
 11
-132.999999
 21
53.011599999999987
 31
0.0
  0
ARC
  8
DETAIL
  6
CONTINUOUS
 62
     5
 10
-127.999999
 20
78.511599999999987
 30
0.0
 40
5.0
 50
90.0
 51
180.0
  0
LINE
  8
DETAIL
  6
CONTINUOUS
 62
     5
 10
-127.999999
 20
83.511599999999987
 30
0.0
 11
-104.499999
 21
83.511599999999987
 31
0.0
  0
ARC
  8
DETAIL
  6
CONTINUOUS
 62
     5
 10
-127.999999
 20
53.011599999999987
 30
0.0
 40
5.0
 50
180.0
 51
270.0
  0
LINE
  8
DETAIL
  6
CONTINUOUS
 62
     5
 10
-127.999999
 20
48.011599999999987
 30
0.0
 11
-104.499999
 21
48.011599999999987
 31
0.0
  0
LINE
  8
DETAIL
  6
CONTINUOUS
 62
     5
 10
-104.499999
 20
41.200000000000003
 30
0.0
 11
-104.499999
 21
66.790630000000021
 31
0.0
  0
LINE
  8
BASIS
  6
DASHDOT
 62
     6
 10
-152.15952568249679
 20
48.5
 30
0.0
 11
106.661117
 21
48.5
 31
0.0
  0
LINE
  8
NOTE
  6
CONTINUOUS
 62
     4
 10
-62.5
 20
-106.5
 30
0.0
 11
-62.5
 21
-66.5
 31
0.0
  0
LINE
  8
NOTE
  6
CONTINUOUS
 62
     4
 10
-82.5
 20
-86.5
 30
0.0
 11
-42.5
 21
-86.5
 31
0.0
  0
LINE
  8
NOTE
  6
CONTINUOUS
 62
     4
 10
62.5
 20
-106.5
 30
0.0
 11
62.5
 21
-66.5
 31
0.0
  0
LINE
  8
NOTE
  6
CONTINUOUS
 62
     4
 10
42.5
 20
-86.5
 30
0.0
 11
82.5
 21
-86.5
 31
0.0
  0
CIRCLE
  8
DETAIL
  6
CONTINUOUS
 62
     5
 10
0.0
 20
48.5
 30
0.0
 40
90.0
  0
LINE
  8
DETAIL
  6
CONTINUOUS
 62
     5
 10
-45.015881000000007
 20
21.778839999999999
 30
0.0
 11
36.799979000000008
 21
21.778839999999999
 31
0.0
  0
LINE
  8
DETAIL
  6
CONTINUOUS
 62
     5
 10
-45.015881000000007
 20
52.455189000000018
 30
0.0
 11
36.799979000000008
 21
52.455189000000018
 31
0.0
  0
LINE
  8
DETAIL
  6
CONTINUOUS
 62
     5
 10
-45.015881000000007
 20
46.455189000000018
 30
0.0
 11
36.799979000000008
 21
46.455189000000018
 31
0.0
  0
LINE
  8
DETAIL
  6
CONTINUOUS
 62
     5
 10
-45.015881000000007
 20
56.45518899999999
 30
0.0
 11
36.799979000000008
 21
56.45518899999999
 31
0.0
  0
LINE
  8
DETAIL
  6
CONTINUOUS
 62
     5
 10
-45.015881000000007
 20
58.45518899999999
 30
0.0
 11
36.799979000000008
 21
58.45518899999999
 31
0.0
  0
LINE
  8
DETAIL
  6
CONTINUOUS
 62
     5
 10
38.099966999999992
 20
55.51955000000001
 30
0.0
 11
37.599966999999992
 21
55.51955000000001
 31
0.0
  0
LINE
  8
DETAIL
  6
CONTINUOUS
 62
     5
 10
38.099966999999992
 20
52.493885000000013
 30
0.0
 11
37.599966999999992
 21
52.493885000000013
 31
0.0
  0
LINE
  8
DETAIL
  6
CONTINUOUS
 62
     5
 10
36.799979000000008
 20
18.789246000000009
 30
0.0
 11
36.799979000000008
 21
58.45518899999999
 31
0.0
  0
LINE
  8
DETAIL
  6
CONTINUOUS
 62
     5
 10
36.799979000000008
 20
56.95518899999999
 30
0.0
 11
37.599966999999992
 21
56.95518899999999
 31
0.0
  0
LINE
  8
DETAIL
  6
CONTINUOUS
 62
     5
 10
37.599966999999992
 20
56.95518899999999
 30
0.0
 11
37.599966999999992
 21
18.789246000000009
 31
0.0
  0
LINE
  8
DETAIL
  6
CONTINUOUS
 62
     5
 10
38.099966999999992
 20
52.493885000000013
 30
0.0
 11
38.099966999999992
 21
55.51955000000001
 31
0.0
  0
LINE
  8
DETAIL
  6
CONTINUOUS
 62
     5
 10
-46.415875
 20
18.789246000000009
 30
0.0
 11
-46.415875
 21
48.687213999999983
 31
0.0
  0
LINE
  8
DETAIL
  6
CONTINUOUS
 62
     5
 10
-46.315883999999983
 20
55.51955000000001
 30
0.0
 11
-45.815883999999983
 21
55.51955000000001
 31
0.0
  0
LINE
  8
DETAIL
  6
CONTINUOUS
 62
     5
 10
-46.315883999999983
 20
52.493885000000013
 30
0.0
 11
-45.815883999999983
 21
52.493885000000013
 31
0.0
  0
LINE
  8
DETAIL
  6
CONTINUOUS
 62
     5
 10
-45.815883999999983
 20
56.95518899999999
 30
0.0
 11
-45.015881000000007
 21
56.95518899999999
 31
0.0
  0
LINE
  8
DETAIL
  6
CONTINUOUS
 62
     5
 10
-45.81592599999999
 20
49.994384999999987
 30
0.0
 11
-46.281929999999988
 21
49.187207999999998
 31
0.0
  0
LINE
  8
DETAIL
  6
CONTINUOUS
 62
     5
 10
-45.015881000000007
 20
18.789246000000009
 30
0.0
 11
-45.015881000000007
 21
58.45518899999999
 31
0.0
  0
LINE
  8
DETAIL
  6
CONTINUOUS
 62
     5
 10
-45.815883999999983
 20
18.789246000000009
 30
0.0
 11
-45.815883999999983
 21
56.95518899999999
 31
0.0
  0
ARC
  8
DETAIL
  6
CONTINUOUS
 62
     5
 10
-45.415905000000009
 20
48.687213999999983
 30
0.0
 40
1.0
 50
150.0000969999995
 51
179.99998100000019
  0
LINE
  8
DETAIL
  6
CONTINUOUS
 62
     5
 10
-46.315883999999983
 20
52.493885000000013
 30
0.0
 11
-46.315883999999983
 21
55.51955000000001
 31
0.0
  0
LINE
  8
DETAIL
  6
CONTINUOUS
 62
     5
 10
40.300000000000011
 20
18.789246000000009
 30
0.0
 11
40.300000000000011
 21
52.379827000000013
 31
0.0
  0
ARC
  8
DETAIL
  6
CONTINUOUS
 62
     5
 10
39.5
 20
65.355188999999996
 30
0.0
 40
13.0
 50
273.52812300000068
 51
0.0
  0
LINE
  8
DETAIL
  6
CONTINUOUS
 62
     5
 10
52.5
 20
18.601282999999999
 30
0.0
 11
-52.5
 21
18.601282999999999
 31
0.0
  0
LINE
  8
DETAIL
  6
CONTINUOUS
 62
     5
 10
72.5
 20
113.5
 30
0.0
 11
72.5
 21
101.826823
 31
0.0
  0
LINE
  8
NOTE
  6
CONTINUOUS
 62
     4
 10
-62.5
 20
133.5
 30
0.0
 11
-62.5
 21
93.5
 31
0.0
  0
LINE
  8
NOTE
  6
CONTINUOUS
 62
     4
 10
-82.5
 20
113.5
 30
0.0
 11
-42.5
 21
113.5
 31
0.0
  0
LINE
  8
NOTE
  6
CONTINUOUS
 62
     4
 10
62.5
 20
133.5
 30
0.0
 11
62.5
 21
93.5
 31
0.0
  0
LINE
  8
NOTE
  6
CONTINUOUS
 62
     4
 10
42.5
 20
113.5
 30
0.0
 11
82.5
 21
113.5
 31
0.0
  0
LINE
  8
SIZE
  6
CONTINUOUS
 62
    30
 10
72.500000999999997
 20
133.5
 30
0.0
 11
72.500000999999997
 21
282.49661900000001
 31
0.0
  0
LINE
  8
SIZE
  6
CONTINUOUS
 62
    30
 10
-72.5
 20
133.5
 30
0.0
 11
-72.5
 21
282.49661900000001
 31
0.0
  0
LINE
  8
SIZE
  6
CONTINUOUS
 62
    30
 10
60.500000999999997
 20
262.49661900000001
 30
0.0
 11
-60.5
 21
262.49661900000001
 31
0.0
  0
LINE
  8
SIZE
  6
CONTINUOUS
 62
    30
 10
301.1751569999999
 20
262.49661900000001
 30
0.0
 11
72.500000999999997
 21
262.49661900000001
 31
0.0
  0
TEXT
  8
SIZE
  6
CONTINUOUS
 62
    30
 10
139.0323004285714
 20
287.49661900000001
 30
0.0
 40
64.0
  1
145
 41
0.9
 72
     1
 11
207.60372899999999
 21
287.49661900000001
 31
0.0
  0
CIRCLE
  8
SIZE
  6
CONTINUOUS
 62
    30
 10
72.500000999999997
 20
262.49661900000001
 30
0.0
 40
6.0
  0
LINE
  8
SIZE
  6
CONTINUOUS
 62
    30
 10
72.500000999999997
 20
262.49661900000001
 30
0.0
 11
60.500000999999997
 21
262.49661900000001
 31
0.0
  0
CIRCLE
  8
SIZE
  6
CONTINUOUS
 62
    30
 10
-72.5
 20
262.49661900000001
 30
0.0
 40
6.0
  0
LINE
  8
SIZE
  6
CONTINUOUS
 62
    30
 10
-72.5
 20
262.49661900000001
 30
0.0
 11
-60.5
 21
262.49661900000001
 31
0.0
  0
LINE
  8
SIZE
  6
CONTINUOUS
 62
    30
 10
90.0
 20
68.5
 30
0.0
 11
90.0
 21
393.942184
 31
0.0
  0
LINE
  8
SIZE
  6
CONTINUOUS
 62
    30
 10
-90.0
 20
68.5
 30
0.0
 11
-90.0
 21
393.942184
 31
0.0
  0
LINE
  8
SIZE
  6
CONTINUOUS
 62
    30
 10
78.0
 20
373.942184
 30
0.0
 11
-78.0
 21
373.942184
 31
0.0
  0
TEXT
  8
SIZE
  6
CONTINUOUS
 62
    30
 10
-121.6404291428571
 20
398.942184
 30
0.0
 40
64.0
  1
φ180
 41
0.9
 72
     1
 11
-22.897572
 21
398.942184
 31
0.0
  0
CIRCLE
  8
SIZE
  6
CONTINUOUS
 62
    30
 10
90.0
 20
373.942184
 30
0.0
 40
6.0
  0
LINE
  8
SIZE
  6
CONTINUOUS
 62
    30
 10
90.0
 20
373.942184
 30
0.0
 11
78.0
 21
373.942184
 31
0.0
  0
CIRCLE
  8
SIZE
  6
CONTINUOUS
 62
    30
 10
-90.0
 20
373.942184
 30
0.0
 40
6.0
  0
LINE
  8
SIZE
  6
CONTINUOUS
 62
    30
 10
-90.0
 20
373.942184
 30
0.0
 11
-78.0
 21
373.942184
 31
0.0
  0
LINE
  8
SIZE
  6
CONTINUOUS
 62
    30
 10
92.5
 20
113.5
 30
0.0
 11
285.87919099999999
 21
113.5
 31
0.0
  0
LINE
  8
SIZE
  6
CONTINUOUS
 62
    30
 10
92.500000999999997
 20
-86.5
 30
0.0
 11
285.87919099999999
 21
-86.5
 31
0.0
  0
LINE
  8
SIZE
  6
CONTINUOUS
 62
    30
 10
265.87919099999999
 20
101.5
 30
0.0
 11
265.87919099999999
 21
-74.5
 31
0.0
  0
TEXT
  8
SIZE
  6
CONTINUOUS
 62
    30
 10
239.565539
 20
-60.55714285714285
 30
0.0
 40
64.0
  1
200
 50
90.0
 41
0.9
 72
     1
 11
239.565539
 21
13.5
 31
0.0
  0
CIRCLE
  8
SIZE
  6
CONTINUOUS
 62
    30
 10
265.87919099999999
 20
113.5
 30
0.0
 40
6.0
  0
LINE
  8
SIZE
  6
CONTINUOUS
 62
    30
 10
265.87919099999999
 20
113.5
 30
0.0
 11
265.87919099999999
 21
101.5
 31
0.0
  0
CIRCLE
  8
SIZE
  6
CONTINUOUS
 62
    30
 10
265.87919099999999
 20
-86.5
 30
0.0
 40
6.0
  0
LINE
  8
SIZE
  6
CONTINUOUS
 62
    30
 10
265.87919099999999
 20
-86.5
 30
0.0
 11
265.87919099999999
 21
-74.5
 31
0.0
  0
LINE
  8
SIZE
  6
CONTINUOUS
 62
    30
 10
-92.5
 20
113.5
 30
0.0
 11
-321.48866500000008
 21
113.5
 31
0.0
  0
LINE
  8
SIZE
  6
CONTINUOUS
 62
    30
 10
-172.15952568249679
 20
48.5
 30
0.0
 11
-321.48866500000008
 21
48.5
 31
0.0
  0
LINE
  8
SIZE
  6
CONTINUOUS
 62
    30
 10
-301.48866500000008
 20
125.5
 30
0.0
 11
-301.48866500000008
 21
137.5
 31
0.0
  0
LINE
  8
SIZE
  6
CONTINUOUS
 62
    30
 10
-301.48866500000008
 20
36.5
 30
0.0
 11
-301.48866500000008
 21
24.5
 31
0.0
  0
LINE
  8
SIZE
  6
CONTINUOUS
 62
    30
 10
-301.48866500000008
 20
302.265016
 30
0.0
 11
-301.48866500000008
 21
113.5
 31
0.0
  0
TEXT
  8
SIZE
  6
CONTINUOUS
 62
    30
 10
-326.48866500000008
 20
184.00787357142849
 30
0.0
 40
64.0
  1
65
 50
90.0
 41
0.9
 72
     1
 11
-326.48866500000008
 21
230.63644500000001
 31
0.0
  0
LINE
  8
SIZE
  6
CONTINUOUS
 62
    30
 10
-301.48866500000008
 20
113.5
 30
0.0
 11
-301.48866500000008
 21
48.5
 31
0.0
  0
LINE
  8
SIZE
  6
CONTINUOUS
 62
    30
 10
-301.48866500000008
 20
113.5
 30
0.0
 11
-301.48866500000008
 21
48.5
 31
0.0
  0
CIRCLE
  8
SIZE
  6
CONTINUOUS
 62
    30
 10
-301.48866500000008
 20
113.5
 30
0.0
 40
6.0
  0
LINE
  8
SIZE
  6
CONTINUOUS
 62
    30
 10
-301.48866500000008
 20
113.5
 30
0.0
 11
-301.48866500000008
 21
125.5
 31
0.0
  0
CIRCLE
  8
SIZE
  6
CONTINUOUS
 62
    30
 10
-301.48866500000008
 20
48.5
 30
0.0
 40
6.0
  0
LINE
  8
SIZE
  6
CONTINUOUS
 62
    30
 10
-301.48866500000008
 20
48.5
 30
0.0
 11
-301.48866500000008
 21
36.5
 31
0.0
  0
LINE
  8
SIZE
  6
CONTINUOUS
 62
    30
 10
-92.5
 20
113.5
 30
0.0
 11
-447.18437099999989
 21
113.5
 31
0.0
  0
LINE
  8
SIZE
  6
CONTINUOUS
 62
    30
 10
-159.14417800000001
 20
0.0
 30
0.0
 11
-447.18437099999989
 21
0.0
 31
0.0
  0
LINE
  8
SIZE
  6
CONTINUOUS
 62
    30
 10
-427.18437099999989
 20
101.5
 30
0.0
 11
-427.18437099999989
 21
12.0
 31
0.0
  0
TEXT
  8
SIZE
  6
CONTINUOUS
 62
    30
 10
-452.54297299999979
 20
-232.7001234285714
 30
0.0
 40
64.0
  1
113.5
 50
90.0
 41
0.9
 72
     1
 11
-452.54297299999979
 21
-128.471552
 31
0.0
  0
CIRCLE
  8
SIZE
  6
CONTINUOUS
 62
    30
 10
-427.18437099999989
 20
113.5
 30
0.0
 40
6.0
  0
LINE
  8
SIZE
  6
CONTINUOUS
 62
    30
 10
-427.18437099999989
 20
113.5
 30
0.0
 11
-427.18437099999989
 21
101.5
 31
0.0
  0
CIRCLE
  8
SIZE
  6
CONTINUOUS
 62
    30
 10
-427.18437099999989
 20
0.0
 30
0.0
 40
6.0
  0
LINE
  8
SIZE
  6
CONTINUOUS
 62
    30
 10
-427.18437099999989
 20
0.0
 30
0.0
 11
-427.18437099999989
 21
12.0
 31
0.0
  0
LINE
  8
SIZE
  6
CONTINUOUS
 62
    30
 10
-427.18437099999989
 20
-2.2000000000000028
 30
0.0
 11
-427.18437099999989
 21
-235.08051499999999
 31
0.0
  0
LINE
  8
SIZE
  6
CONTINUOUS
 62
    30
 10
-150.999999
 20
40.700000000000003
 30
0.0
 11
-321.48866500000008
 21
40.700000000000003
 31
0.0
  0
LINE
  8
SIZE
  6
CONTINUOUS
 62
    30
 10
-150.999999
 20
-40.700000000000003
 30
0.0
 11
-321.48866500000008
 21
-40.700000000000003
 31
0.0
  0
LINE
  8
SIZE
  6
CONTINUOUS
 62
    30
 10
-301.48866500000008
 20
28.699999999999999
 30
0.0
 11
-301.48866500000008
 21
-28.699999999999999
 31
0.0
  0
TEXT
  8
SIZE
  6
CONTINUOUS
 62
    30
 10
-324.27576099999999
 20
-299.9244474285714
 30
0.0
 40
64.0
  1
φ81.4
 50
90.0
 41
0.9
 72
     1
 11
-324.27576099999999
 21
-186.095876
 31
0.0
  0
CIRCLE
  8
SIZE
  6
CONTINUOUS
 62
    30
 10
-301.48866500000008
 20
40.700000000000003
 30
0.0
 40
6.0
  0
LINE
  8
SIZE
  6
CONTINUOUS
 62
    30
 10
-301.48866500000008
 20
40.700000000000003
 30
0.0
 11
-301.48866500000008
 21
28.699999999999999
 31
0.0
  0
CIRCLE
  8
SIZE
  6
CONTINUOUS
 62
    30
 10
-301.48866500000008
 20
-40.700000000000003
 30
0.0
 40
6.0
  0
LINE
  8
SIZE
  6
CONTINUOUS
 62
    30
 10
-301.48866500000008
 20
-40.700000000000003
 30
0.0
 11
-301.48866500000008
 21
-28.699999999999999
 31
0.0
  0
LINE
  8
SIZE
  6
CONTINUOUS
 62
    30
 10
-301.48866500000008
 20
-40.900000000000013
 30
0.0
 11
-301.48866500000008
 21
-292.565629
 31
0.0
  0
LINE
  8
DETAIL
  6
CONTINUOUS
 62
     5
 10
-52.5
 20
113.5
 30
0.0
 11
-52.5
 21
-86.5
 31
0.0
  0
LINE
  8
SIZE
  6
CONTINUOUS
 62
    30
 10
72.500000999999997
 20
-105.5
 30
0.0
 11
72.500000999999997
 21
-255.013406
 31
0.0
  0
LINE
  8
SIZE
  6
CONTINUOUS
 62
    30
 10
52.5
 20
-106.5
 30
0.0
 11
52.5
 21
-255.013406
 31
0.0
  0
LINE
  8
SIZE
  6
CONTINUOUS
 62
    30
 10
84.500000999999997
 20
-235.013406
 30
0.0
 11
96.500000999999997
 21
-235.013406
 31
0.0
  0
LINE
  8
SIZE
  6
CONTINUOUS
 62
    30
 10
40.5
 20
-235.013406
 30
0.0
 11
28.5
 21
-235.013406
 31
0.0
  0
LINE
  8
SIZE
  6
CONTINUOUS
 62
    30
 10
242.665921
 20
-235.013406
 30
0.0
 11
72.500000999999997
 21
-235.013406
 31
0.0
  0
TEXT
  8
SIZE
  6
CONTINUOUS
 62
    30
 10
124.4087785714286
 20
-210.013406
 30
0.0
 40
64.0
  1
20
 41
0.9
 72
     1
 11
171.03735
 21
-210.013406
 31
0.0
  0
LINE
  8
SIZE
  6
CONTINUOUS
 62
    30
 10
72.500000999999997
 20
-235.013406
 30
0.0
 11
52.5
 21
-235.013406
 31
0.0
  0
LINE
  8
SIZE
  6
CONTINUOUS
 62
    30
 10
72.500000999999997
 20
-235.013406
 30
0.0
 11
52.5
 21
-235.013406
 31
0.0
  0
CIRCLE
  8
SIZE
  6
CONTINUOUS
 62
    30
 10
72.500000999999997
 20
-235.013406
 30
0.0
 40
6.0
  0
LINE
  8
SIZE
  6
CONTINUOUS
 62
    30
 10
72.500000999999997
 20
-235.013406
 30
0.0
 11
84.500000999999997
 21
-235.013406
 31
0.0
  0
CIRCLE
  8
SIZE
  6
CONTINUOUS
 62
    30
 10
52.5
 20
-235.013406
 30
0.0
 40
6.0
  0
LINE
  8
SIZE
  6
CONTINUOUS
 62
    30
 10
52.5
 20
-235.013406
 30
0.0
 11
40.5
 21
-235.013406
 31
0.0
  0
LINE
  8
SIZE
  6
CONTINUOUS
 62
    30
 10
-52.5
 20
-106.5
 30
0.0
 11
-52.5
 21
-255.013406
 31
0.0
  0
LINE
  8
SIZE
  6
CONTINUOUS
 62
    30
 10
-72.5
 20
-106.5
 30
0.0
 11
-72.5
 21
-255.013406
 31
0.0
  0
LINE
  8
SIZE
  6
CONTINUOUS
 62
    30
 10
-40.5
 20
-235.013406
 30
0.0
 11
-28.5
 21
-235.013406
 31
0.0
  0
LINE
  8
SIZE
  6
CONTINUOUS
 62
    30
 10
-84.5
 20
-235.013406
 30
0.0
 11
-96.5
 21
-235.013406
 31
0.0
  0
LINE
  8
SIZE
  6
CONTINUOUS
 62
    30
 10
-268.49065000000002
 20
-235.013406
 30
0.0
 11
-72.5
 21
-235.013406
 31
0.0
  0
TEXT
  8
SIZE
  6
CONTINUOUS
 62
    30
 10
-243.4906504285714
 20
-210.013406
 30
0.0
 40
64.0
  1
20
 41
0.9
 72
     1
 11
-196.86207899999999
 21
-210.013406
 31
0.0
  0
LINE
  8
SIZE
  6
CONTINUOUS
 62
    30
 10
-52.5
 20
-235.013406
 30
0.0
 11
-72.5
 21
-235.013406
 31
0.0
  0
LINE
  8
SIZE
  6
CONTINUOUS
 62
    30
 10
-52.5
 20
-235.013406
 30
0.0
 11
-72.5
 21
-235.013406
 31
0.0
  0
CIRCLE
  8
SIZE
  6
CONTINUOUS
 62
    30
 10
-52.5
 20
-235.013406
 30
0.0
 40
6.0
  0
LINE
  8
SIZE
  6
CONTINUOUS
 62
    30
 10
-52.5
 20
-235.013406
 30
0.0
 11
-40.5
 21
-235.013406
 31
0.0
  0
CIRCLE
  8
SIZE
  6
CONTINUOUS
 62
    30
 10
-72.5
 20
-235.013406
 30
0.0
 40
6.0
  0
LINE
  8
SIZE
  6
CONTINUOUS
 62
    30
 10
-72.5
 20
-235.013406
 30
0.0
 11
-84.5
 21
-235.013406
 31
0.0
  0
LINE
  8
SIZE
  6
CONTINUOUS
 62
    30
 10
62.5
 20
-126.5
 30
0.0
 11
62.5
 21
-385.42988000000003
 31
0.0
  0
LINE
  8
SIZE
  6
CONTINUOUS
 62
    30
 10
-62.5
 20
-126.5
 30
0.0
 11
-62.5
 21
-385.42988000000003
 31
0.0
  0
LINE
  8
SIZE
  6
CONTINUOUS
 62
    30
 10
50.5
 20
-365.42988000000003
 30
0.0
 11
-50.5
 21
-365.42988000000003
 31
0.0
  0
LINE
  8
SIZE
  6
CONTINUOUS
 62
    30
 10
265.36519399999997
 20
-365.42988000000003
 30
0.0
 11
62.5
 21
-365.42988000000003
 31
0.0
  0
TEXT
  8
SIZE
  6
CONTINUOUS
 62
    30
 10
103.2223364285714
 20
-340.42988000000008
 30
0.0
 40
64.0
  1
125
 41
0.9
 72
     1
 11
171.79376500000001
 21
-340.42988000000008
 31
0.0
  0
CIRCLE
  8
SIZE
  6
CONTINUOUS
 62
    30
 10
62.5
 20
-365.42988000000003
 30
0.0
 40
6.0
  0
LINE
  8
SIZE
  6
CONTINUOUS
 62
    30
 10
62.5
 20
-365.42988000000003
 30
0.0
 11
50.5
 21
-365.42988000000003
 31
0.0
  0
CIRCLE
  8
SIZE
  6
CONTINUOUS
 62
    30
 10
-62.5
 20
-365.42988000000003
 30
0.0
 40
6.0
  0
LINE
  8
SIZE
  6
CONTINUOUS
 62
    30
 10
-62.5
 20
-365.42988000000003
 30
0.0
 11
-50.5
 21
-365.42988000000003
 31
0.0
  0
LINE
  8
SIZE
  6
CONTINUOUS
 62
    30
 10
72.500000999999997
 20
-235.013406
 30
0.0
 11
193.07269099999999
 21
-235.013406
 31
0.0
  0
LINE
  8
SIZE
  6
CONTINUOUS
 62
    30
 10
72.500000999999997
 20
-104.7
 30
0.0
 11
72.500000999999997
 21
-524.96056500000009
 31
0.0
  0
LINE
  8
SIZE
  6
CONTINUOUS
 62
    30
 10
-133.499999
 20
-58.40000000000002
 30
0.0
 11
-133.499999
 21
-524.96056500000009
 31
0.0
  0
LINE
  8
SIZE
  6
CONTINUOUS
 62
    30
 10
60.500000999999997
 20
-504.96056499999997
 30
0.0
 11
-121.499999
 21
-504.96056499999997
 31
0.0
  0
TEXT
  8
SIZE
  6
CONTINUOUS
 62
    30
 10
-103.1857132857143
 20
-475.07405399999988
 30
0.0
 40
64.0
  1
206
 41
0.9
 72
     1
 11
-30.499998999999999
 21
-475.07405399999988
 31
0.0
  0
CIRCLE
  8
SIZE
  6
CONTINUOUS
 62
    30
 10
72.500000999999997
 20
-504.96056499999997
 30
0.0
 40
6.0
  0
LINE
  8
SIZE
  6
CONTINUOUS
 62
    30
 10
72.500000999999997
 20
-504.96056499999997
 30
0.0
 11
60.500000999999997
 21
-504.96056499999997
 31
0.0
  0
CIRCLE
  8
SIZE
  6
CONTINUOUS
 62
    30
 10
-133.499999
 20
-504.96056499999997
 30
0.0
 40
6.0
  0
LINE
  8
SIZE
  6
CONTINUOUS
 62
    30
 10
-133.499999
 20
-504.96056499999997
 30
0.0
 11
-121.499999
 21
-504.96056499999997
 31
0.0
  0
LINE
  8
SIZE
  6
CONTINUOUS
 62
    30
 10
-72.5
 20
-235.013406
 30
0.0
 11
-244.59986699999999
 21
-235.013406
 31
0.0
  0
LINE
  8
SIZE
  6
CONTINUOUS
 62
    30
 10
70.500000999999997
 20
262.49661900000001
 30
0.0
 11
283.63126699999998
 21
262.49661900000001
 31
0.0
  0
LINE
  8
NOTE
  6
CONTINUOUS
 62
     4
 10
-62.5
 20
113.5
 30
0.0
 11
-226.739722
 21
319.69198499999999
 31
0.0
  0
LINE
  8
NOTE
  6
CONTINUOUS
 62
     4
 10
-94.881493000000006
 20
136.98273599999999
 30
0.0
 11
-62.5
 21
113.5
 31
0.0
  0
LINE
  8
NOTE
  6
CONTINUOUS
 62
     4
 10
-62.5
 20
113.5
 30
0.0
 11
-78.801828
 21
150.02739299999999
 31
0.0
  0
LINE
  8
NOTE
  6
CONTINUOUS
 62
     4
 10
-835.96104400000002
 20
319.69198499999999
 30
0.0
 11
-226.739722
 21
319.69198499999999
 31
0.0
  0
TEXT
  8
NOTE
  6
CONTINUOUS
 62
     4
 10
-836.63861299999985
 20
350.87025399999999
 30
0.0
 40
64.0
  1
AH 12-φ10×6
 41
0.9
  0
CIRCLE
  8
FIX
  6
CONTINUOUS
 62
    11
 10
-62.5
 20
-86.499999000000003
 30
0.0
 40
3.0
  0
CIRCLE
  8
FIX
  6
CONTINUOUS
 62
    11
 10
62.500000999999997
 20
-86.499999000000003
 30
0.0
 40
3.0
  0
CIRCLE
  8
FIX
  6
CONTINUOUS
 62
    11
 10
62.500000999999997
 20
-86.499999000000003
 30
0.0
 40
3.0
  0
CIRCLE
  8
FIX
  6
CONTINUOUS
 62
    11
 10
-62.5
 20
-86.499999000000003
 30
0.0
 40
3.0
  0
CIRCLE
  8
FIX
  6
CONTINUOUS
 62
    11
 10
62.500000999999997
 20
113.499999
 30
0.0
 40
3.0
  0
CIRCLE
  8
FIX
  6
CONTINUOUS
 62
    11
 10
-62.5
 20
113.499999
 30
0.0
 40
3.0
  0
POINT
  8
ARRANGE
  6
CONTINUOUS
 62
     1
 10
0.0
 20
0.0
 30
0.0
  0
CIRCLE
  8
ARRANGE
  6
CONTINUOUS
 62
     1
 10
0.0
 20
0.0
 30
0.0
 40
40.0
  0
LINE
  8
OUTLINE
  6
CONTINUOUS
 62
     3
 10
-52.5
 20
-83.434447000000006
 30
0.0
 11
-52.5
 21
-86.5
 31
0.0
  0
LINE
  8
OUTLINE
  6
CONTINUOUS
 62
     3
 10
72.5
 20
113.5
 30
0.0
 11
72.5
 21
101.826823
 31
0.0
  0
ARC
  8
OUTLINE
  6
CONTINUOUS
 62
     3
 10
0.0
 20
48.5
 30
0.0
 40
90.0
 50
323.66394299999979
 51
36.336057000000238
  0
LINE
  8
OUTLINE
  6
CONTINUOUS
 62
     3
 10
-104.499999
 20
41.200000000000003
 30
0.0
 11
-104.499999
 21
48.011600000000023
 31
0.0
  0
LINE
  8
OUTLINE
  6
CONTINUOUS
 62
     3
 10
-127.999999
 20
48.011599999999987
 30
0.0
 11
-104.499999
 21
48.011599999999987
 31
0.0
  0
ARC
  8
OUTLINE
  6
CONTINUOUS
 62
     3
 10
-127.999999
 20
53.011599999999987
 30
0.0
 40
5.0
 50
180.0
 51
270.0
  0
LINE
  8
OUTLINE
  6
CONTINUOUS
 62
     3
 10
-127.999999
 20
83.511599999999987
 30
0.0
 11
-104.499999
 21
83.511599999999987
 31
0.0
  0
ARC
  8
OUTLINE
  6
CONTINUOUS
 62
     3
 10
-127.999999
 20
78.511599999999987
 30
0.0
 40
5.0
 50
90.0
 51
180.0
  0
LINE
  8
OUTLINE
  6
CONTINUOUS
 62
     3
 10
-132.999999
 20
78.511599999999987
 30
0.0
 11
-132.999999
 21
53.011599999999987
 31
0.0
  0
LINE
  8
OUTLINE
  6
CONTINUOUS
 62
     3
 10
-104.499999
 20
85.790629999999965
 30
0.0
 11
-104.499999
 21
83.511599999999987
 31
0.0
  0
LINE
  8
OUTLINE
  6
CONTINUOUS
 62
     3
 10
-102.999999
 20
89.290629999999993
 30
0.0
 11
-104.499999
 21
89.290629999999993
 31
0.0
  0
LINE
  8
OUTLINE
  6
CONTINUOUS
 62
     3
 10
-104.499999
 20
89.290629999999993
 30
0.0
 11
-104.499999
 21
85.790629999999965
 31
0.0
  0
LINE
  8
OUTLINE
  6
CONTINUOUS
 62
     3
 10
-101.499999
 20
89.290629999999993
 30
0.0
 11
-101.499999
 21
83.5
 31
0.0
  0
LINE
  8
OUTLINE
  6
CONTINUOUS
 62
     3
 10
-101.499999
 20
-56.5
 30
0.0
 11
-101.499999
 21
-41.400000000000013
 31
0.0
  0
ARC
  8
OUTLINE
  6
CONTINUOUS
 62
     3
 10
-96.499999000000003
 20
83.5
 30
0.0
 40
5.0
 50
90.0
 51
180.0
  0
LINE
  8
OUTLINE
  6
CONTINUOUS
 62
     3
 10
-80.622577482985491
 20
88.5
 30
0.0
 11
-96.499999000000003
 21
88.5
 31
0.0
  0
ARC
  8
OUTLINE
  6
CONTINUOUS
 62
     3
 10
-96.499999000000003
 20
-56.5
 30
0.0
 40
5.0
 50
180.0
 51
270.0
  0
LINE
  8
OUTLINE
  6
CONTINUOUS
 62
     3
 10
-72.5
 20
-61.5
 30
0.0
 11
-96.499999000000003
 21
-61.5
 31
0.0
  0
LINE
  8
OUTLINE
  6
CONTINUOUS
 62
     3
 10
72.500000999999997
 20
-38.027225000000001
 30
0.0
 11
72.500000999999997
 21
-4.8268219999999928
 31
0.0
  0
LINE
  8
OUTLINE
  6
CONTINUOUS
 62
     3
 10
72.500000999999997
 20
101.82682200000001
 30
0.0
 11
72.500000999999997
 21
108.7
 31
0.0
  0
LINE
  8
OUTLINE
  6
CONTINUOUS
 62
     3
 10
-72.5
 20
-61.5
 30
0.0
 11
-72.5
 21
-86.5
 31
0.0
  0
LINE
  8
OUTLINE
  6
CONTINUOUS
 62
     3
 10
-52.5
 20
-86.5
 30
0.0
 11
-72.5
 21
-86.5
 31
0.0
  0
LINE
  8
OUTLINE
  6
CONTINUOUS
 62
     3
 10
-72.5
 20
113.5
 30
0.0
 11
-72.5
 21
101.826823
 31
0.0
  0
LINE
  8
OUTLINE
  6
CONTINUOUS
 62
     3
 10
52.5
 20
-86.5
 30
0.0
 11
72.500000999999997
 21
-86.5
 31
0.0
  0
LINE
  8
OUTLINE
  6
CONTINUOUS
 62
     3
 10
72.500000999999997
 20
-84.700000000000003
 30
0.0
 11
72.500000999999997
 21
-85.5
 31
0.0
  0
LINE
  8
OUTLINE
  6
CONTINUOUS
 62
     3
 10
72.500000999999997
 20
112.5
 30
0.0
 11
72.500000999999997
 21
111.7
 31
0.0
  0
LINE
  8
OUTLINE
  6
CONTINUOUS
 62
     3
 10
52.5
 20
-83.434447000000006
 30
0.0
 11
52.5
 21
-86.5
 31
0.0
  0
LINE
  8
OUTLINE
  6
CONTINUOUS
 62
     3
 10
72.500000999999997
 20
-38.027225000000001
 30
0.0
 11
72.500000999999997
 21
-86.5
 31
0.0
  0
LINE
  8
OUTLINE
  6
CONTINUOUS
 62
     3
 10
-52.5
 20
-83.434447000000006
 30
0.0
 11
52.5
 21
-83.434447000000006
 31
0.0
  0
LINE
  8
OUTLINE
  6
CONTINUOUS
 62
     3
 10
-106.499999
 20
41.200000000000003
 30
0.0
 11
-106.499999
 21
40.700000000000003
 31
0.0
  0
LINE
  8
OUTLINE
  6
CONTINUOUS
 62
     3
 10
-106.499999
 20
40.700000000000003
 30
0.0
 11
-130.999999
 21
40.700000000000003
 31
0.0
  0
LINE
  8
OUTLINE
  6
CONTINUOUS
 62
     3
 10
-104.499999
 20
41.199999999999989
 30
0.0
 11
-106.499999
 21
41.200000000000003
 31
0.0
  0
LINE
  8
OUTLINE
  6
CONTINUOUS
 62
     3
 10
-133.499999
 20
38.200000000000003
 30
0.0
 11
-133.499999
 21
-0.0357099999999946
 31
0.0
  0
ARC
  8
OUTLINE
  6
CONTINUOUS
 62
     3
 10
-130.999999
 20
38.200000000000003
 30
0.0
 40
2.5
 50
90.0
 51
180.0
  0
LINE
  8
OUTLINE
  6
CONTINUOUS
 62
     3
 10
-133.499999
 20
-38.200000000000003
 30
0.0
 11
-133.499999
 21
-0.0357099999999946
 31
0.0
  0
ARC
  8
OUTLINE
  6
CONTINUOUS
 62
     3
 10
-130.999999
 20
-38.200000000000003
 30
0.0
 40
2.5
 50
180.0
 51
270.0
  0
LINE
  8
OUTLINE
  6
CONTINUOUS
 62
     3
 10
-106.499999
 20
-40.700000000000003
 30
0.0
 11
-130.999999
 21
-40.700000000000003
 31
0.0
  0
LINE
  8
OUTLINE
  6
CONTINUOUS
 62
     3
 10
-101.499999
 20
-41.200000000000003
 30
0.0
 11
-106.499999
 21
-41.200000000000003
 31
0.0
  0
LINE
  8
OUTLINE
  6
CONTINUOUS
 62
     3
 10
-106.499999
 20
-41.200000000000003
 30
0.0
 11
-106.499999
 21
-40.700000000000003
 31
0.0
  0
LINE
  8
OUTLINE
  6
CONTINUOUS
 62
     3
 10
-102.999999
 20
89.290629999999993
 30
0.0
 11
-101.499999
 21
89.290629999999993
 31
0.0
  0
LINE
  8
OUTLINE
  6
CONTINUOUS
 62
     3
 10
-62.249498000000017
 20
113.5
 30
0.0
 11
-72.5
 21
113.5
 31
0.0
  0
LINE
  8
OUTLINE
  6
CONTINUOUS
 62
     3
 10
62.249498000000017
 20
113.5
 30
0.0
 11
72.500000999999997
 21
113.5
 31
0.0
  0
ARC
  8
OUTLINE
  6
CONTINUOUS
 62
     3
 10
0.0
 20
48.5
 30
0.0
 40
90.0
 50
46.238256999999813
 51
133.76174300000019
  0
ARC
  8
OUTLINE
  6
CONTINUOUS
 62
     3
 10
0.0
 20
48.5
 30
0.0
 40
90.0
 50
143.66394199999891
 51
153.61220003875749
  0
LINE
  8
SIZE
  6
CONTINUOUS
 62
    30
 10
62.5
 20
-365.42988000000003
 30
0.0
 11
255.748402
 21
-365.42988000000003
 31
0.0
  0
TEXT
  8
NOTE
  6
CONTINUOUS
 62
     4
 10
-60.583477999999992
 20
146.37806599999999
 30
0.0
 40
64.0
  1
出口
 41
0.9
  0
LINE
  8
DETAIL
  6
CONTINUOUS
 62
     5
 10
-45.015881000000007
 20
38.385987
 30
0.0
 11
36.799979000000008
 21
38.385987
 31
0.0
  0
LINE
  8
DETAIL
  6
CONTINUOUS
 62
     5
 10
-45.015881000000007
 20
29.375381000000001
 30
0.0
 11
36.799979000000008
 21
29.375381000000001
 31
0.0
  0
LINE
  8
DETAIL
  6
CONTINUOUS
 62
     5
 10
52.5
 20
113.5
 30
0.0
 11
-52.5
 21
113.5
 31
0.0
  0
TEXT
  8
ETC
  6
CONTINUOUS
 62
    61
 10
349.36727112262338
 20
399.09390635990638
 30
0.0
 40
64.0
  1
産業扇
 41
0.9
  0
TEXT
  8
ETC
  6
CONTINUOUS
 62
    61
 10
344.53500312262321
 20
510.43853635990649
 30
0.0
 40
64.0
  1
BF-12S5_2
 41
0.9
  0
TEXT
  8
ETC
  6
CONTINUOUS
 62
    61
 10
433.23121323017199
 20
289.24010513354762
 30
0.0
 40
64.0
  1
BF-12S5
 41
0.9
  0
TEXT
  8
ETC
  6
CONTINUOUS
 62
    61
 10
433.23121323017199
 20
187.82930927500931
 30
0.0
 40
64.0
  1
BF-14S5
 41
0.9
  0
ENDSEC
  0
EOF
