  0
SECTION
  2
HEADER
  9
$ACADVER
  1
AC1009
  9
$DWGCODEPAGE
  3
dos932
  9
$INSBASE
 10
0.0
 20
0.0
 30
0.0
  9
$EXTMIN
 10
-873.74265951074631
 20
-507.88878231296439
 30
-0.0000000349181948
  9
$EXTMAX
 10
835.6750601735821
 20
613.31177562627818
 30
0.0000000814935746
  9
$LIMMIN
 10
-2970.0
 20
-2100.0
  9
$LIMMAX
 10
2970.0
 20
2100.0
  9
$ORTHOMODE
 70
     1
  9
$REGENMODE
 70
     1
  9
$FILLMODE
 70
     1
  9
$QTEXTMODE
 70
     0
  9
$MIRRTEXT
 70
     0
  9
$LTSCALE
 40
20.0
  9
$ATTMODE
 70
     1
  9
$TEXTSIZE
 40
64.0
  9
$TRACEWID
 40
0.05
  9
$TEXTSTYLE
  7
STANDARD
  9
$CLAYER
  8
NOTE
  9
$CELTYPE
  6
CONTINUOUS
  9
$CECOLOR
 62
     7
  9
$DIMSCALE
 40
1.0
  9
$DIMASZ
 40
12.0
  9
$DIMEXO
 40
20.0
  9
$DIMDLI
 40
200.0
  9
$DIMRND
 40
0.0
  9
$DIMDLE
 40
0.0
  9
$DIMEXE
 40
20.0
  9
$DIMTP
 40
0.0
  9
$DIMTM
 40
0.0
  9
$DIMTXT
 40
64.0
  9
$DIMCEN
 40
0.09
  9
$DIMTSZ
 40
0.0
  9
$DIMTOL
 70
     0
  9
$DIMLIM
 70
     0
  9
$DIMTIH
 70
     0
  9
$DIMTOH
 70
     0
  9
$DIMSE1
 70
     0
  9
$DIMSE2
 70
     0
  9
$DIMTAD
 70
     1
  9
$DIMZIN
 70
     8
  9
$DIMBLK
  1

  9
$DIMASO
 70
     1
  9
$DIMSHO
 70
     0
  9
$DIMPOST
  1

  9
$DIMAPOST
  1

  9
$DIMALT
 70
     0
  9
$DIMALTD
 70
     2
  9
$DIMALTF
 40
25.399999999999999
  9
$DIMLFAC
 40
1.0
  9
$DIMTOFL
 70
     1
  9
$DIMTVP
 40
0.0
  9
$DIMTIX
 70
     1
  9
$DIMSOXD
 70
     0
  9
$DIMSAH
 70
     0
  9
$DIMBLK1
  1

  9
$DIMBLK2
  1

  9
$DIMSTYLE
  2
STANDARD
  9
$DIMCLRD
 70
     7
  9
$DIMCLRE
 70
     7
  9
$DIMCLRT
 70
     7
  9
$DIMTFAC
 40
1.0
  9
$DIMGAP
 40
25.0
  9
$LUNITS
 70
     2
  9
$LUPREC
 70
     4
  9
$SKETCHINC
 40
0.1
  9
$FILLETRAD
 40
3.0
  9
$AUNITS
 70
     1
  9
$AUPREC
 70
     3
  9
$MENU
  1
ACAD
  9
$ELEVATION
 40
0.0
  9
$PELEVATION
 40
0.0
  9
$THICKNESS
 40
50.0
  9
$LIMCHECK
 70
     0
  9
$CHAMFERA
 40
0.0
  9
$CHAMFERB
 40
0.0
  9
$SKPOLY
 70
     0
  9
$TDCREATE
 40
2453019.62301037
  9
$TDUPDATE
 40
2458911.47163353
  9
$TDINDWG
 40
1.7738804977
  9
$TDUSRTIMER
 40
1.7738804977
  9
$USRTIMER
 70
     1
  9
$ANGBASE
 50
0.0
  9
$ANGDIR
 70
     0
  9
$PDMODE
 70
     3
  9
$PDSIZE
 40
-2.0
  9
$PLINEWID
 40
0.0
  9
$SPLFRAME
 70
     0
  9
$SPLINETYPE
 70
     6
  9
$SPLINESEGS
 70
     8
  9
$SURFTAB1
 70
     6
  9
$SURFTAB2
 70
     6
  9
$SURFTYPE
 70
     6
  9
$SURFU
 70
     6
  9
$SURFV
 70
     6
  9
$UCSNAME
  2

  9
$UCSORG
 10
0.0
 20
0.0
 30
0.0
  9
$UCSXDIR
 10
1.0
 20
0.0
 30
0.0
  9
$UCSYDIR
 10
0.0
 20
1.0
 30
0.0
  9
$PUCSNAME
  2

  9
$PUCSORG
 10
0.0
 20
0.0
 30
0.0
  9
$PUCSXDIR
 10
1.0
 20
0.0
 30
0.0
  9
$PUCSYDIR
 10
0.0
 20
1.0
 30
0.0
  9
$USERI1
 70
     0
  9
$USERI2
 70
     0
  9
$USERI3
 70
     0
  9
$USERI4
 70
     0
  9
$USERI5
 70
     0
  9
$USERR1
 40
20.0
  9
$USERR2
 40
0.0
  9
$USERR3
 40
0.0
  9
$USERR4
 40
0.0
  9
$USERR5
 40
0.0
  9
$WORLDVIEW
 70
     1
  9
$SHADEDGE
 70
     3
  9
$SHADEDIF
 70
    70
  9
$TILEMODE
 70
     1
  9
$MAXACTVP
 70
    48
  9
$PINSBASE
 10
0.0
 20
0.0
 30
0.0
  9
$PLIMCHECK
 70
     0
  9
$PEXTMIN
 10
-100000000000000000000.0
 20
-100000000000000000000.0
 30
-100000000000000000000.0
  9
$PEXTMAX
 10
100000000000000000000.0
 20
100000000000000000000.0
 30
100000000000000000000.0
  9
$PLIMMIN
 10
0.0
 20
0.0
  9
$PLIMMAX
 10
12.0
 20
9.0
  9
$UNITMODE
 70
     0
  9
$VISRETAIN
 70
     0
  9
$PLINEGEN
 70
     0
  9
$PSLTSCALE
 70
     0
  9
$TREEDEPTH
 70
  3020
  9
$ATTDIA
 70
     0
  9
$ATTREQ
 70
     1
  9
$BLIPMODE
 70
     1
  9
$COORDS
 70
     1
  9
$DRAGMODE
 70
     2
  9
$OSMODE
 70
     0
  9
$HANDLING
 70
     0
  9
$HANDSEED
  5
EDCD
  0
ENDSEC
  0
SECTION
  2
TABLES
  0
TABLE
  2
LTYPE
 70
     3
  0
LTYPE
  2
CONTINUOUS
 70
     0
  3
実線
 72
    65
 73
     0
 40
0.0
  0
LTYPE
  2
DASHDOT
 70
     0
  3
____ _ ____ _ ____ _ ____ _ ____ _ ____ _ ____
 72
    65
 73
     4
 40
5.5
 49
4.0
 49
-0.6
 49
0.3
 49
-0.6
  0
LTYPE
  2
DASHED
 70
     0
  3
-- -- -- -- -- -- -- -- -- -- -- -- -- -- --
 72
    65
 73
     2
 40
0.75
 49
0.5
 49
-0.25
  0
ENDTAB
  0
TABLE
  2
LAYER
 70
    12
  0
LAYER
  2
0
 70
     0
 62
     7
  6
CONTINUOUS
  0
LAYER
  2
BASIS
 70
     0
 62
     6
  6
DASHDOT
  0
LAYER
  2
OUTLINE
 70
     0
 62
     3
  6
CONTINUOUS
  0
LAYER
  2
DETAIL
 70
     0
 62
     5
  6
CONTINUOUS
  0
LAYER
  2
SIZE
 70
     0
 62
    30
  6
CONTINUOUS
  0
LAYER
  2
ARRANGE
 70
     0
 62
     1
  6
CONTINUOUS
  0
LAYER
  2
ETC
 70
     0
 62
    61
  6
CONTINUOUS
  0
LAYER
  2
FIX
 70
     0
 62
    11
  6
CONTINUOUS
  0
LAYER
  2
NOTE
 70
     0
 62
     4
  6
CONTINUOUS
  0
LAYER
  2
DEFPOINTS
 70
    64
 62
     7
  6
CONTINUOUS
  0
LAYER
  2
SERVICESPACE
 70
    64
 62
     2
  6
DASHDOT
  0
LAYER
  2
SYMBOLLINE
 70
    64
 62
    15
  6
CONTINUOUS
  0
ENDTAB
  0
TABLE
  2
STYLE
 70
     1
  0
STYLE
  2
STANDARD
 70
     0
 40
64.0
 41
0.9
 50
0.0
 71
     0
 42
64.0
  3
SIMPLEX.shx
  4
BIGFONT.shx
  0
ENDTAB
  0
TABLE
  2
APPID
 70
    16
  0
APPID
  2
ACAD
 70
     0
  0
APPID
  2
AUTOCAD_POSTSCRIPT_FIGURE
 70
     0
  0
APPID
  2
ACAD_EXEMPT_FROM_CAD_STANDARDS
 70
     0
  0
APPID
  2
ACAD_PSEXT
 70
     0
  0
APPID
  2
ACAUTHENVIRON
 70
     0
  0
APPID
  2
GENIUS_GENOENT_13
 70
     0
  0
APPID
  2
GENIUS_GENCFG_13
 70
     0
  0
APPID
  2
GENIUS_GENCFG0_13
 70
     0
  0
APPID
  2
GENIUS_GENCFG1_13
 70
     0
  0
APPID
  2
GENIUS_GENCFG2_13
 70
     0
  0
APPID
  2
GENIUS_GENCFG3_13
 70
     0
  0
APPID
  2
GENIUS_GENCFG4_13
 70
     0
  0
APPID
  2
GENIUS_GEVCFG0_13
 70
     0
  0
APPID
  2
CONTENTBLOCKICON
 70
     0
  0
APPID
  2
CONTENTBLOCKDESCRIPTION
 70
     0
  0
APPID
  2
ACAD_NAV_VCDISPLAY
 70
     0
  0
ENDTAB
  0
TABLE
  2
DIMSTYLE
 70
     1
  0
DIMSTYLE
  2
STANDARD
 70
     0
  3

  4

  5
_ORIGIN
  6

  7

 40
1.0
 41
12.0
 42
20.0
 43
200.0
 44
20.0
 45
0.0
 46
0.0
 47
0.0
 48
0.0
140
64.0
141
0.09
142
0.0
143
25.399999999999999
144
1.0
145
0.0
146
1.0
147
25.0
 71
     0
 72
     0
 73
     0
 74
     0
 75
     0
 76
     0
 77
     1
 78
     8
170
     0
171
     2
172
     1
173
     0
174
     1
175
     0
176
     7
177
     7
178
     7
  0
ENDTAB
  0
TABLE
  2
VIEW
 70
     1
  0
VIEW
  2
ALL
 70
     0
 40
4282.6198079999986
 10
0.0
 20
41.309904000000003
 41
5940.0
 11
0.0
 21
0.0
 31
1.0
 12
0.0
 22
0.0
 32
0.0
 42
50.0
 43
0.0
 44
0.0
 50
0.0
 71
     0
  0
ENDTAB
  0
TABLE
  2
UCS
 70
     0
  0
ENDTAB
  0
TABLE
  2
VPORT
 70
     1
  0
VPORT
  2
*ACTIVE
 70
     0
 10
0.0
 20
0.0
 11
1.0
 21
1.0
 12
-19.033799668582191
 22
52.711496656656948
 13
0.0
 23
0.0
 14
1.0
 24
1.0
 15
0.0
 25
0.0
 16
0.0
 26
0.0
 36
1.0
 17
0.0
 27
0.0
 37
0.0
 40
1129.2282468982351
 41
1.7980884109916371
 42
50.0
 43
0.0
 44
0.0
 50
0.0
 51
0.0
 71
     0
 72
  1000
 73
     1
 74
     3
 75
     0
 76
     0
 77
     0
 78
     0
  0
ENDTAB
  0
ENDSEC
  0
SECTION
  2
BLOCKS
  0
BLOCK
  8
0
  2
_ORIGIN
 70
     0
 10
0.0
 20
0.0
 30
0.0
  3
_ORIGIN
  1
_ORIGIN
  0
CIRCLE
  8
0
  6
CONTINUOUS
 62
     7
 10
0.0
 20
0.0
 30
0.0
 40
0.5
  0
LINE
  8
0
  6
CONTINUOUS
 62
     7
 10
0.0
 20
0.0
 30
0.0
 11
-1.0
 21
0.0
 31
0.0
  0
ENDBLK
  8
0
  0
ENDSEC
  0
SECTION
  2
ENTITIES
  0
TEXT
  8
OUTLINE
  6
CONTINUOUS
 62
     3
 10
-417.23146700000001
 20
27.215188000000001
 30
0.0
 40
64.0
  1
 
 41
0.9
  0
TEXT
  8
OUTLINE
  6
CONTINUOUS
 62
     3
 10
-417.23146700000001
 20
27.215188000000001
 30
0.0
 40
64.0
  1
 
 41
0.9
  0
TEXT
  8
OUTLINE
  6
CONTINUOUS
 62
     3
 10
-417.23146700000001
 20
27.215188000000001
 30
0.0
 40
64.0
  1
 
 41
0.9
  0
TEXT
  8
OUTLINE
  6
CONTINUOUS
 62
     3
 10
-417.23146700000001
 20
27.215188000000001
 30
0.0
 40
64.0
  1
 
 41
0.9
  0
TEXT
  8
NOTE
  6
CONTINUOUS
 62
     4
 10
-855.26578199999983
 20
-289.77543400000002
 30
0.0
 40
64.0
  1
AH 12-φ10×6
 41
0.9
  0
LINE
  8
NOTE
  6
CONTINUOUS
 62
     4
 10
-873.38691199999982
 20
-320.95370200000002
 30
0.0
 11
-242.86689100000001
 21
-320.95370200000002
 31
0.0
  0
TEXT
  8
OUTLINE
  6
CONTINUOUS
 62
     3
 10
-417.23146700000001
 20
27.215188000000001
 30
0.0
 40
64.0
  1
 
 41
0.9
  0
LINE
  8
BASIS
  6
DASHDOT
 62
     6
 10
-126.29120231694949
 20
0.0
 30
0.0
 11
130.18954333633519
 21
0.0
 31
0.0
  0
LINE
  8
DETAIL
  6
CONTINUOUS
 62
     5
 10
101.0
 20
110.205882
 30
0.0
 11
101.0
 21
138.5
 31
0.0
  0
LINE
  8
DETAIL
  6
CONTINUOUS
 62
     5
 10
101.0
 20
-34.179091
 30
0.0
 11
101.0
 21
110.205882
 31
0.0
  0
LINE
  8
DETAIL
  6
CONTINUOUS
 62
     5
 10
-89.588238000000004
 20
111.147059
 30
0.0
 11
-96.882356000000001
 21
111.147059
 31
0.0
  0
ARC
  8
DETAIL
  6
CONTINUOUS
 62
     5
 10
-96.882356000000001
 20
110.205882
 30
0.0
 40
0.941176
 50
90.0
 51
180.0
  0
ARC
  8
DETAIL
  6
CONTINUOUS
 62
     5
 10
-96.882356000000001
 20
110.205882
 30
0.0
 40
2.1176469999999998
 50
90.0
 51
180.0
  0
LINE
  8
DETAIL
  6
CONTINUOUS
 62
     5
 10
-96.882356000000001
 20
112.32352899999999
 30
0.0
 11
-96.882356000000001
 21
113.5
 31
0.0
  0
LINE
  8
DETAIL
  6
CONTINUOUS
 62
     5
 10
-99.000003000000007
 20
-83.205885999999992
 30
0.0
 11
-99.000003000000007
 21
61.211592000000003
 31
0.0
  0
LINE
  8
DETAIL
  6
CONTINUOUS
 62
     5
 10
-97.823532999999998
 20
-83.205885999999992
 30
0.0
 11
-97.823532999999998
 21
61.211592000000003
 31
0.0
  0
LINE
  8
DETAIL
  6
CONTINUOUS
 62
     5
 10
-96.882356000000001
 20
-85.323532999999998
 30
0.0
 11
-96.882356000000001
 21
-86.500002999999992
 31
0.0
  0
LINE
  8
DETAIL
  6
CONTINUOUS
 62
     5
 10
-89.588238000000004
 20
-84.147061999999991
 30
0.0
 11
-96.882356000000001
 21
-84.147061999999991
 31
0.0
  0
ARC
  8
DETAIL
  6
CONTINUOUS
 62
     5
 10
-96.882356000000001
 20
-83.205885999999992
 30
0.0
 40
0.941176
 50
180.0
 51
270.0
  0
ARC
  8
DETAIL
  6
CONTINUOUS
 62
     5
 10
-96.882356000000001
 20
-83.205885999999992
 30
0.0
 40
2.1176469999999998
 50
180.0
 51
270.0
  0
LINE
  8
DETAIL
  6
CONTINUOUS
 62
     5
 10
-96.882356000000001
 20
-86.500002999999992
 30
0.0
 11
0.0
 21
-86.500002999999992
 31
0.0
  0
LINE
  8
DETAIL
  6
CONTINUOUS
 62
     5
 10
-96.882356000000001
 20
-85.323532999999998
 30
0.0
 11
0.0
 21
-85.323532999999998
 31
0.0
  0
LINE
  8
DETAIL
  6
CONTINUOUS
 62
     5
 10
101.0
 20
-83.205885999999992
 30
0.0
 11
101.0
 21
-35.142279999999992
 31
0.0
  0
LINE
  8
DETAIL
  6
CONTINUOUS
 62
     5
 10
99.823529000000008
 20
-83.205885999999992
 30
0.0
 11
99.823529000000008
 21
-35.223019999999998
 31
0.0
  0
LINE
  8
DETAIL
  6
CONTINUOUS
 62
     5
 10
91.588234999999997
 20
-84.147061999999991
 30
0.0
 11
98.882353000000023
 21
-84.147061999999991
 31
0.0
  0
LINE
  8
DETAIL
  6
CONTINUOUS
 62
     5
 10
98.882353000000023
 20
-85.323532999999998
 30
0.0
 11
98.882353000000023
 21
-86.500002999999992
 31
0.0
  0
ARC
  8
DETAIL
  6
CONTINUOUS
 62
     5
 10
98.882353000000023
 20
-83.205885999999992
 30
0.0
 40
2.1176469999999998
 50
270.0
 51
0.0
  0
ARC
  8
DETAIL
  6
CONTINUOUS
 62
     5
 10
98.882353000000023
 20
-83.205885999999992
 30
0.0
 40
0.941176
 50
270.0
 51
0.0
  0
LINE
  8
DETAIL
  6
CONTINUOUS
 62
     5
 10
91.588234999999997
 20
111.147059
 30
0.0
 11
98.882353000000023
 21
111.147059
 31
0.0
  0
LINE
  8
DETAIL
  6
CONTINUOUS
 62
     5
 10
98.882353000000023
 20
113.5
 30
0.0
 11
-96.882356000000001
 21
113.5
 31
0.0
  0
LINE
  8
DETAIL
  6
CONTINUOUS
 62
     5
 10
98.882353000000023
 20
112.32352899999999
 30
0.0
 11
-96.882356000000001
 21
112.32352899999999
 31
0.0
  0
LINE
  8
DETAIL
  6
CONTINUOUS
 62
     5
 10
98.882353000000023
 20
112.32352899999999
 30
0.0
 11
98.882353000000023
 21
113.5
 31
0.0
  0
ARC
  8
DETAIL
  6
CONTINUOUS
 62
     5
 10
98.882353000000023
 20
110.205882
 30
0.0
 40
2.1176469999999998
 50
0.0
 51
90.0
  0
ARC
  8
DETAIL
  6
CONTINUOUS
 62
     5
 10
98.882353000000023
 20
110.205882
 30
0.0
 40
0.941176
 50
0.0
 51
90.0
  0
LINE
  8
DETAIL
  6
CONTINUOUS
 62
     5
 10
99.823529000000008
 20
-35.223019999999998
 30
0.0
 11
99.823529000000008
 21
110.205882
 31
0.0
  0
LINE
  8
DETAIL
  6
CONTINUOUS
 62
     5
 10
101.0
 20
-35.142279999999992
 30
0.0
 11
101.0
 21
110.205882
 31
0.0
  0
LINE
  8
DETAIL
  6
CONTINUOUS
 62
     5
 10
-89.588238000000004
 20
112.32352899999999
 30
0.0
 11
-89.588238000000004
 21
111.147059
 31
0.0
  0
LINE
  8
DETAIL
  6
CONTINUOUS
 62
     5
 10
91.588234999999997
 20
112.32352899999999
 30
0.0
 11
91.588234999999997
 21
111.147059
 31
0.0
  0
LINE
  8
NOTE
  6
CONTINUOUS
 62
     4
 10
-99.000003000000007
 20
74.970579000000015
 30
0.0
 11
-99.000003000000007
 21
122.029419
 31
0.0
  0
LINE
  8
NOTE
  6
CONTINUOUS
 62
     4
 10
-75.470582999999976
 20
98.499999000000003
 30
0.0
 11
-122.52942299999999
 21
98.499999000000003
 31
0.0
  0
LINE
  8
NOTE
  6
CONTINUOUS
 62
     4
 10
82.0
 20
-110.02942299999999
 30
0.0
 11
82.0
 21
-62.970582999999984
 31
0.0
  0
LINE
  8
NOTE
  6
CONTINUOUS
 62
     4
 10
105.52942
 20
-86.500002999999992
 30
0.0
 11
58.470579999999977
 21
-86.500002999999992
 31
0.0
  0
LINE
  8
NOTE
  6
CONTINUOUS
 62
     4
 10
-80.0
 20
-110.02942299999999
 30
0.0
 11
-80.0
 21
-62.970582999999984
 31
0.0
  0
LINE
  8
NOTE
  6
CONTINUOUS
 62
     4
 10
-56.470579999999998
 20
-86.500002999999992
 30
0.0
 11
-103.52942
 21
-86.500002999999992
 31
0.0
  0
LINE
  8
NOTE
  6
CONTINUOUS
 62
     4
 10
-99.000003000000007
 20
-95.029420999999999
 30
0.0
 11
-99.000003000000007
 21
-47.97058100000001
 31
0.0
  0
LINE
  8
NOTE
  6
CONTINUOUS
 62
     4
 10
-75.470582999999976
 20
-71.500000999999997
 30
0.0
 11
-122.52942299999999
 21
-71.500000999999997
 31
0.0
  0
LINE
  8
SIZE
  6
CONTINUOUS
 62
    30
 10
-99.000003000000007
 20
-103.20588600000001
 30
0.0
 11
-99.000003000000007
 21
-507.6949259999999
 31
0.0
  0
LINE
  8
SIZE
  6
CONTINUOUS
 62
    30
 10
101.0
 20
-103.20588600000001
 30
0.0
 11
101.0
 21
-507.6949259999999
 31
0.0
  0
LINE
  8
SIZE
  6
CONTINUOUS
 62
    30
 10
-87.000003000000007
 20
-487.69492599999978
 30
0.0
 11
89.0
 21
-487.69492599999978
 31
0.0
  0
TEXT
  8
SIZE
  6
CONTINUOUS
 62
    30
 10
-73.057144857142845
 20
-462.69492599999978
 30
0.0
 40
64.0
  1
200
 41
0.9
 72
     1
 11
0.9999980000000051
 21
-462.69492599999978
 31
0.0
  0
CIRCLE
  8
SIZE
  6
CONTINUOUS
 62
    30
 10
-99.000003000000007
 20
-487.69492599999978
 30
0.0
 40
6.0
  0
LINE
  8
SIZE
  6
CONTINUOUS
 62
    30
 10
-99.000003000000007
 20
-487.69492599999978
 30
0.0
 11
-87.000003000000007
 21
-487.69492599999978
 31
0.0
  0
CIRCLE
  8
SIZE
  6
CONTINUOUS
 62
    30
 10
101.0
 20
-487.69492599999978
 30
0.0
 40
6.0
  0
LINE
  8
SIZE
  6
CONTINUOUS
 62
    30
 10
101.0
 20
-487.69492599999978
 30
0.0
 11
89.0
 21
-487.69492599999978
 31
0.0
  0
CIRCLE
  8
FIX
  6
CONTINUOUS
 62
    11
 10
-99.000003000000007
 20
98.499999000000003
 30
0.0
 40
3.5294120000000002
  0
CIRCLE
  8
FIX
  6
CONTINUOUS
 62
    11
 10
-99.000003000000007
 20
-71.500000999999997
 30
0.0
 40
3.5294120000000002
  0
CIRCLE
  8
FIX
  6
CONTINUOUS
 62
    11
 10
-80.0
 20
-86.500002999999992
 30
0.0
 40
3.5294120000000002
  0
CIRCLE
  8
FIX
  6
CONTINUOUS
 62
    11
 10
82.0
 20
-86.500002999999992
 30
0.0
 40
3.5294120000000002
  0
LINE
  8
NOTE
  6
CONTINUOUS
 62
     4
 10
-80.0
 20
-86.500002999999992
 30
0.0
 11
-242.86689100000001
 21
-320.95370200000002
 31
0.0
  0
LINE
  8
NOTE
  6
CONTINUOUS
 62
     4
 10
-115.945806
 20
-116.87159200000001
 30
0.0
 11
-80.0
 21
-86.500002999999992
 31
0.0
  0
LINE
  8
NOTE
  6
CONTINUOUS
 62
     4
 10
-80.0
 20
-86.500002999999992
 30
0.0
 11
-95.944186999999985
 21
-130.775474
 31
0.0
  0
LINE
  8
BASIS
  6
DASHDOT
 62
     6
 10
151.330871
 20
48.5
 30
0.0
 11
78.796464000000014
 21
48.5
 31
0.0
  0
LINE
  8
BASIS
  6
DASHDOT
 62
     6
 10
0.0
 20
-105.5748951862389
 30
0.0
 11
0.0
 21
178.6694697047113
 31
0.0
  0
LINE
  8
SIZE
  6
CONTINUOUS
 62
    30
 10
101.0
 20
-213.24142900000001
 30
0.0
 11
301.47604999999999
 21
-213.24142900000001
 31
0.0
  0
LINE
  8
OUTLINE
  6
CONTINUOUS
 62
     3
 10
98.882353000000023
 20
113.5
 30
0.0
 11
-96.882356000000001
 21
113.5
 31
0.0
  0
LINE
  8
OUTLINE
  6
CONTINUOUS
 62
     3
 10
101.0
 20
110.205882
 30
0.0
 11
101.0
 21
138.5
 31
0.0
  0
ARC
  8
OUTLINE
  6
CONTINUOUS
 62
     3
 10
98.882353000000023
 20
110.205882
 30
0.0
 40
2.1176469999999998
 50
0.0
 51
90.0
  0
LINE
  8
OUTLINE
  6
CONTINUOUS
 62
     3
 10
101.0
 20
-83.205885999999992
 30
0.0
 11
101.0
 21
-41.5
 31
0.0
  0
LINE
  8
OUTLINE
  6
CONTINUOUS
 62
     3
 10
-96.882356000000001
 20
-86.500002999999992
 30
0.0
 11
98.882353000000023
 21
-86.500002999999992
 31
0.0
  0
ARC
  8
OUTLINE
  6
CONTINUOUS
 62
     3
 10
-96.882356000000001
 20
-83.205885999999992
 30
0.0
 40
2.1176469999999998
 50
180.0
 51
270.0
  0
LINE
  8
OUTLINE
  6
CONTINUOUS
 62
     3
 10
-99.000003000000007
 20
-83.205885999999992
 30
0.0
 11
-99.000003000000007
 21
110.205882
 31
0.0
  0
ARC
  8
OUTLINE
  6
CONTINUOUS
 62
     3
 10
-96.882356000000001
 20
110.205882
 30
0.0
 40
2.1176469999999998
 50
90.0
 51
180.0
  0
LINE
  8
OUTLINE
  6
CONTINUOUS
 62
     3
 10
-96.882356000000001
 20
112.32352899999999
 30
0.0
 11
-96.882356000000001
 21
113.5
 31
0.0
  0
LINE
  8
OUTLINE
  6
CONTINUOUS
 62
     3
 10
-96.882356000000001
 20
-85.323532999999998
 30
0.0
 11
-96.882356000000001
 21
-86.500002999999992
 31
0.0
  0
ARC
  8
OUTLINE
  6
CONTINUOUS
 62
     3
 10
98.882353000000023
 20
-83.205885999999992
 30
0.0
 40
2.1176469999999998
 50
270.0
 51
0.0
  0
LINE
  8
OUTLINE
  6
CONTINUOUS
 62
     3
 10
98.882353000000023
 20
-85.323532999999998
 30
0.0
 11
98.882353000000023
 21
-86.500002999999992
 31
0.0
  0
LINE
  8
OUTLINE
  6
CONTINUOUS
 62
     3
 10
98.882353000000023
 20
112.32352899999999
 30
0.0
 11
98.882353000000023
 21
113.5
 31
0.0
  0
LINE
  8
DETAIL
  6
CONTINUOUS
 62
     5
 10
0.0
 20
-86.500002999999992
 30
0.0
 11
98.882353000000023
 21
-86.500002999999992
 31
0.0
  0
LINE
  8
DETAIL
  6
CONTINUOUS
 62
     5
 10
0.0
 20
-85.323532999999998
 30
0.0
 11
98.882353000000023
 21
-85.323532999999998
 31
0.0
  0
POINT
  8
ARRANGE
  6
CONTINUOUS
 62
     1
 10
0.0
 20
0.0
 30
0.0
  0
CIRCLE
  8
ARRANGE
  6
CONTINUOUS
 62
     1
 10
0.0
 20
0.0
 30
0.0
 40
40.0
  0
LINE
  8
DETAIL
  6
CONTINUOUS
 62
     5
 10
-35.496561
 20
62.780890999999997
 30
0.0
 11
-35.496561
 21
71.293517000000008
 31
0.0
  0
LINE
  8
DETAIL
  6
CONTINUOUS
 62
     5
 10
-10.544663999999999
 20
71.293517000000008
 30
0.0
 11
-35.496561
 21
71.293517000000008
 31
0.0
  0
LINE
  8
DETAIL
  6
CONTINUOUS
 62
     5
 10
-10.544663999999999
 20
60.467234000000019
 30
0.0
 11
-28.073958000000001
 21
60.467234000000019
 31
0.0
  0
ARC
  8
DETAIL
  6
CONTINUOUS
 62
     5
 10
-10.044663999999999
 20
58.811592000000019
 30
0.0
 40
0.5
 50
90.0
 51
180.0
  0
ARC
  8
DETAIL
  6
CONTINUOUS
 62
     5
 10
-10.044663999999999
 20
73.211591999999996
 30
0.0
 40
0.5
 50
180.0
 51
270.0
  0
ARC
  8
DETAIL
  6
CONTINUOUS
 62
     5
 10
3.9553370000000001
 20
73.211591999999996
 30
0.0
 40
0.5
 50
270.0
 51
0.0
  0
ARC
  8
DETAIL
  6
CONTINUOUS
 62
     5
 10
3.9553370000000001
 20
58.811592000000019
 30
0.0
 40
0.5
 50
0.0
 51
90.0
  0
LINE
  8
DETAIL
  6
CONTINUOUS
 62
     5
 10
2.9553370000000001
 20
74.711591999999996
 30
0.0
 11
2.9553370000000001
 21
89.511592000000007
 31
0.0
  0
ARC
  8
DETAIL
  6
CONTINUOUS
 62
     5
 10
-4.5446639999999974
 20
51.511592000000007
 30
0.0
 40
6.0
 50
180.0
 51
270.0
  0
LINE
  8
DETAIL
  6
CONTINUOUS
 62
     5
 10
66.955336999999986
 20
48.011592000000007
 30
0.0
 11
62.955336999999993
 21
48.011592000000007
 31
0.0
  0
ARC
  8
DETAIL
  6
CONTINUOUS
 62
     5
 10
66.955336999999986
 20
52.511592000000007
 30
0.0
 40
4.5
 50
270.0
 51
0.0
  0
LINE
  8
DETAIL
  6
CONTINUOUS
 62
     5
 10
-4.5446639999999974
 20
45.511592000000007
 30
0.0
 11
2.9553370000000001
 21
45.511592000000007
 31
0.0
  0
ARC
  8
DETAIL
  6
CONTINUOUS
 62
     5
 10
66.955336999999986
 20
82.011592000000007
 30
0.0
 40
1.5
 50
0.0
 51
90.0
  0
ARC
  8
DETAIL
  6
CONTINUOUS
 62
     5
 10
66.955336999999986
 20
82.011592000000007
 30
0.0
 40
4.5
 50
0.0
 51
90.0
  0
ARC
  8
DETAIL
  6
CONTINUOUS
 62
     5
 10
5.9553370000000001
 20
82.011592000000007
 30
0.0
 40
1.5
 50
90.0
 51
180.0
  0
LINE
  8
DETAIL
  6
CONTINUOUS
 62
     5
 10
66.955336999999986
 20
83.511592000000007
 30
0.0
 11
5.9553370000000001
 21
83.511592000000007
 31
0.0
  0
LINE
  8
DETAIL
  6
CONTINUOUS
 62
     5
 10
68.455336999999986
 20
82.011592000000007
 30
0.0
 11
68.455336999999986
 21
52.511592000000007
 31
0.0
  0
LINE
  8
DETAIL
  6
CONTINUOUS
 62
     5
 10
4.4553370000000001
 20
52.511592000000007
 30
0.0
 11
4.4553370000000001
 21
82.011592000000007
 31
0.0
  0
LINE
  8
DETAIL
  6
CONTINUOUS
 62
     5
 10
-10.544663999999999
 20
74.211591999999996
 30
0.0
 11
-10.544663999999999
 21
51.511592000000007
 31
0.0
  0
LINE
  8
DETAIL
  6
CONTINUOUS
 62
     5
 10
71.455336999999986
 20
82.011592000000007
 30
0.0
 11
71.455336999999986
 21
52.511592000000007
 31
0.0
  0
ARC
  8
DETAIL
  6
CONTINUOUS
 62
     5
 10
66.955336999999986
 20
52.511592000000007
 30
0.0
 40
1.5
 50
270.0
 51
0.0
  0
ARC
  8
DETAIL
  6
CONTINUOUS
 62
     5
 10
5.9553370000000001
 20
52.511592000000007
 30
0.0
 40
1.5
 50
180.0
 51
270.0
  0
LINE
  8
DETAIL
  6
CONTINUOUS
 62
     5
 10
66.955336999999986
 20
51.011592000000007
 30
0.0
 11
5.9553370000000001
 21
51.011592000000007
 31
0.0
  0
LINE
  8
DETAIL
  6
CONTINUOUS
 62
     5
 10
2.4553370000000001
 20
74.211591999999996
 30
0.0
 11
-10.544663999999999
 21
74.211591999999996
 31
0.0
  0
LINE
  8
DETAIL
  6
CONTINUOUS
 62
     5
 10
3.9553370000000001
 20
72.711591999999996
 30
0.0
 11
-10.044663999999999
 21
72.711591999999996
 31
0.0
  0
LINE
  8
DETAIL
  6
CONTINUOUS
 62
     5
 10
3.9553370000000001
 20
59.311592000000019
 30
0.0
 11
-10.044663999999999
 21
59.311592000000019
 31
0.0
  0
LINE
  8
DETAIL
  6
CONTINUOUS
 62
     5
 10
66.955336999999986
 20
86.511592000000007
 30
0.0
 11
66.955336999999986
 21
89.511592000000007
 31
0.0
  0
LINE
  8
DETAIL
  6
CONTINUOUS
 62
     5
 10
3.4553370000000001
 20
47.511592000000007
 30
0.0
 11
3.4553370000000001
 21
46.011592000000007
 31
0.0
  0
ARC
  8
DETAIL
  6
CONTINUOUS
 62
     5
 10
2.4553370000000001
 20
74.711591999999996
 30
0.0
 40
0.5
 50
270.0
 51
0.0
  0
ARC
  8
DETAIL
  6
CONTINUOUS
 62
     5
 10
3.9553370000000001
 20
47.511592000000007
 30
0.0
 40
0.5
 50
90.0
 51
180.0
  0
ARC
  8
DETAIL
  6
CONTINUOUS
 62
     5
 10
2.9553370000000001
 20
46.011592000000007
 30
0.0
 40
0.5
 50
270.0
 51
0.0
  0
LINE
  8
DETAIL
  6
CONTINUOUS
 62
     5
 10
9.9553370000000001
 20
48.011592000000007
 30
0.0
 11
3.9553370000000001
 21
48.011592000000007
 31
0.0
  0
LINE
  8
DETAIL
  6
CONTINUOUS
 62
     5
 10
52.955336999999993
 20
48.011592000000007
 30
0.0
 11
19.955337
 21
48.011592000000007
 31
0.0
  0
ARC
  8
DETAIL
  6
CONTINUOUS
 62
     5
 10
-8.5446639999999974
 20
86.511592000000007
 30
0.0
 40
2.0
 50
90.0
 51
180.0
  0
LINE
  8
DETAIL
  6
CONTINUOUS
 62
     5
 10
2.9553370000000001
 20
88.511592000000007
 30
0.0
 11
2.9553370000000001
 21
86.511592000000007
 31
0.0
  0
LINE
  8
DETAIL
  6
CONTINUOUS
 62
     5
 10
2.9553370000000001
 20
88.511592000000007
 30
0.0
 11
2.9553370000000001
 21
89.511592000000007
 31
0.0
  0
LINE
  8
DETAIL
  6
CONTINUOUS
 62
     5
 10
-8.5446639999999974
 20
88.511592000000007
 30
0.0
 11
2.9553370000000001
 21
88.511592000000007
 31
0.0
  0
LINE
  8
DETAIL
  6
CONTINUOUS
 62
     5
 10
66.955336999999986
 20
89.511592000000007
 30
0.0
 11
66.955336999999986
 21
86.511592000000007
 31
0.0
  0
LINE
  8
DETAIL
  6
CONTINUOUS
 62
     5
 10
-10.544663999999999
 20
86.511592000000007
 30
0.0
 11
-10.544663999999999
 21
51.511592000000007
 31
0.0
  0
ARC
  8
DETAIL
  6
CONTINUOUS
 62
     5
 10
-4.5446639999999974
 20
51.511592000000007
 30
0.0
 40
6.0
 50
180.0
 51
270.0
  0
LINE
  8
DETAIL
  6
CONTINUOUS
 62
     5
 10
-4.5446639999999974
 20
45.511592000000007
 30
0.0
 11
0.9553370000000001
 21
45.511592000000007
 31
0.0
  0
LINE
  8
DETAIL
  6
CONTINUOUS
 62
     5
 10
9.9553370000000001
 20
48.011592000000007
 30
0.0
 11
4.4553370000000001
 21
48.011592000000007
 31
0.0
  0
LINE
  8
DETAIL
  6
CONTINUOUS
 62
     5
 10
19.955337
 20
49.511592000000007
 30
0.0
 11
19.955337
 21
46.511592000000007
 31
0.0
  0
LINE
  8
DETAIL
  6
CONTINUOUS
 62
     5
 10
9.9553370000000001
 20
49.511592000000007
 30
0.0
 11
9.9553370000000001
 21
46.511592000000007
 31
0.0
  0
LINE
  8
DETAIL
  6
CONTINUOUS
 62
     5
 10
9.9553370000000001
 20
49.511592000000007
 30
0.0
 11
19.955337
 21
49.511592000000007
 31
0.0
  0
LINE
  8
DETAIL
  6
CONTINUOUS
 62
     5
 10
66.955336999999986
 20
46.511592000000007
 30
0.0
 11
39.955336999999993
 21
46.511592000000007
 31
0.0
  0
LINE
  8
DETAIL
  6
CONTINUOUS
 62
     5
 10
52.955336999999993
 20
48.011592000000007
 30
0.0
 11
36.601234999999967
 21
48.011592000000007
 31
0.0
  0
LINE
  8
DETAIL
  6
CONTINUOUS
 62
     5
 10
52.955336999999993
 20
49.511592000000007
 30
0.0
 11
52.955336999999993
 21
46.511592000000007
 31
0.0
  0
LINE
  8
DETAIL
  6
CONTINUOUS
 62
     5
 10
52.955336999999993
 20
49.511592000000007
 30
0.0
 11
62.955336999999993
 21
49.511592000000007
 31
0.0
  0
LINE
  8
DETAIL
  6
CONTINUOUS
 62
     5
 10
70.309438999999998
 20
48.011592000000007
 30
0.0
 11
62.955336999999993
 21
48.011592000000007
 31
0.0
  0
LINE
  8
DETAIL
  6
CONTINUOUS
 62
     5
 10
62.955336999999993
 20
49.511592000000007
 30
0.0
 11
62.955336999999993
 21
46.511592000000007
 31
0.0
  0
LINE
  8
DETAIL
  6
CONTINUOUS
 62
     5
 10
30.455336999999989
 20
51.011592000000007
 30
0.0
 11
29.955336999999989
 21
51.011592000000007
 31
0.0
  0
LINE
  8
DETAIL
  6
CONTINUOUS
 62
     5
 10
29.955336999999989
 20
51.011592000000007
 30
0.0
 11
29.455336999999989
 21
51.011592000000007
 31
0.0
  0
LINE
  8
DETAIL
  6
CONTINUOUS
 62
     5
 10
71.455336999999986
 20
82.011592000000007
 30
0.0
 11
71.455336999999986
 21
51.011592000000007
 31
0.0
  0
ARC
  8
DETAIL
  6
CONTINUOUS
 62
     5
 10
66.955336999999986
 20
51.011592000000007
 30
0.0
 40
4.5
 50
270.0
 51
0.0
  0
LINE
  8
DETAIL
  6
CONTINUOUS
 62
     5
 10
1.4553370000000001
 20
88.511592000000007
 30
0.0
 11
1.4553370000000001
 21
74.211591999999996
 31
0.0
  0
LINE
  8
DETAIL
  6
CONTINUOUS
 62
     5
 10
25.455337
 20
46.511592000000007
 30
0.0
 11
4.4553370000000001
 21
46.511592000000007
 31
0.0
  0
LINE
  8
DETAIL
  6
CONTINUOUS
 62
     5
 10
28.809439000000001
 20
48.011592000000007
 30
0.0
 11
19.955337
 21
48.011592000000007
 31
0.0
  0
ARC
  8
DETAIL
  6
CONTINUOUS
 62
     5
 10
25.455337
 20
51.011592000000007
 30
0.0
 40
4.5
 50
270.0
 51
318.18968499999988
  0
ARC
  8
DETAIL
  6
CONTINUOUS
 62
     5
 10
66.955336999999986
 20
82.011592000000007
 30
0.0
 40
4.5
 50
0.0
 51
90.0
  0
LINE
  8
DETAIL
  6
CONTINUOUS
 62
     5
 10
4.4553370000000001
 20
48.011592000000007
 30
0.0
 11
4.4553370000000001
 21
46.511592000000007
 31
0.0
  0
ARC
  8
DETAIL
  6
CONTINUOUS
 62
     5
 10
39.955336999999993
 20
51.011592000000007
 30
0.0
 40
4.5
 50
221.810315
 51
270.0
  0
ARC
  8
DETAIL
  6
CONTINUOUS
 62
     5
 10
0.0
 20
0.0
 30
0.0
 40
15.0
 50
90.0
 51
270.0
  0
ARC
  8
DETAIL
  6
CONTINUOUS
 62
     5
 10
0.0
 20
0.0
 30
0.0
 40
15.0
 50
270.0
 51
90.0
  0
LINE
  8
DETAIL
  6
CONTINUOUS
 62
     5
 10
-103.482759
 20
61.211592000000003
 30
0.0
 11
-109.70375900000001
 21
61.211592000000003
 31
0.0
  0
LINE
  8
DETAIL
  6
CONTINUOUS
 62
     5
 10
-103.482759
 20
70.811592000000019
 30
0.0
 11
-109.423018
 21
70.811592000000019
 31
0.0
  0
LINE
  8
DETAIL
  6
CONTINUOUS
 62
     5
 10
2.9553370000000001
 20
89.511592000000007
 30
0.0
 11
66.955336999999986
 21
89.511592000000007
 31
0.0
  0
LINE
  8
DETAIL
  6
CONTINUOUS
 62
     5
 10
-18.099630000000001
 20
62.761592000000007
 30
0.0
 11
-10.544663999999999
 21
62.761592000000007
 31
0.0
  0
ARC
  8
DETAIL
  6
CONTINUOUS
 62
     5
 10
-19.754445
 20
47.127591999999993
 30
0.0
 40
15.721334000000001
 50
83.957902000000203
 51
251.16381600000039
  0
ARC
  8
DETAIL
  6
CONTINUOUS
 62
     5
 10
-19.754445
 20
47.127591999999993
 30
0.0
 40
22.199999999999999
 50
85.580812999999722
 51
242.38700099999949
  0
LINE
  8
DETAIL
  6
CONTINUOUS
 62
     5
 10
-18.043869999999998
 20
69.261592000000007
 30
0.0
 11
-10.544663999999999
 21
69.261592000000007
 31
0.0
  0
LINE
  8
DETAIL
  6
CONTINUOUS
 62
     5
 10
-36.914892000000002
 20
61.211592000000003
 30
0.0
 11
-103.482759
 21
61.211592000000003
 31
0.0
  0
LINE
  8
DETAIL
  6
DASHED
 62
     5
 10
-10.544663999999999
 20
70.811592000000019
 30
0.0
 11
-35.496561
 21
70.811592000000019
 31
0.0
  0
LINE
  8
DETAIL
  6
DASHED
 62
     5
 10
-10.544663999999999
 20
61.211592000000003
 30
0.0
 11
-26.740238000000009
 21
61.211592000000003
 31
0.0
  0
LINE
  8
DETAIL
  6
CONTINUOUS
 62
     5
 10
-109.34008900000001
 20
70.749330000000015
 30
0.0
 11
-109.867107
 21
70.339944000000003
 31
0.0
  0
LINE
  8
DETAIL
  6
CONTINUOUS
 62
     5
 10
-109.867107
 20
70.339944000000003
 30
0.0
 11
-110.230628
 21
69.858790999999997
 31
0.0
  0
LINE
  8
DETAIL
  6
CONTINUOUS
 62
     5
 10
-110.230628
 20
69.858790999999997
 30
0.0
 11
-110.230628
 21
69.858790999999997
 31
0.0
  0
LINE
  8
DETAIL
  6
CONTINUOUS
 62
     5
 10
-110.230628
 20
69.858790999999997
 30
0.0
 11
-110.319334
 21
69.271618999999987
 31
0.0
  0
LINE
  8
DETAIL
  6
CONTINUOUS
 62
     5
 10
-110.319334
 20
69.271618999999987
 30
0.0
 11
-110.230628
 21
68.694240000000008
 31
0.0
  0
LINE
  8
DETAIL
  6
CONTINUOUS
 62
     5
 10
-110.230628
 20
68.694240000000008
 30
0.0
 11
-110.230628
 21
68.694240000000008
 31
0.0
  0
LINE
  8
DETAIL
  6
CONTINUOUS
 62
     5
 10
-110.230628
 20
68.694240000000008
 30
0.0
 11
-109.71891599999999
 21
67.605809999999991
 31
0.0
  0
LINE
  8
DETAIL
  6
CONTINUOUS
 62
     5
 10
-109.71891599999999
 20
67.605809999999991
 30
0.0
 11
-109.06607700000001
 21
66.570646000000011
 31
0.0
  0
LINE
  8
DETAIL
  6
CONTINUOUS
 62
     5
 10
-109.06607700000001
 20
66.570646000000011
 30
0.0
 11
-109.06607700000001
 21
66.570646000000011
 31
0.0
  0
LINE
  8
DETAIL
  6
CONTINUOUS
 62
     5
 10
-109.06607700000001
 20
66.570646000000011
 30
0.0
 11
-108.889089
 21
66.134398000000004
 31
0.0
  0
LINE
  8
DETAIL
  6
CONTINUOUS
 62
     5
 10
-108.889089
 20
66.134398000000004
 30
0.0
 11
-108.723562
 21
65.680106999999992
 31
0.0
  0
LINE
  8
DETAIL
  6
CONTINUOUS
 62
     5
 10
-108.723562
 20
65.680106999999992
 30
0.0
 11
-108.723562
 21
65.680106999999992
 31
0.0
  0
LINE
  8
DETAIL
  6
CONTINUOUS
 62
     5
 10
-108.723562
 20
65.680106999999992
 30
0.0
 11
-108.357891
 21
64.585211000000015
 31
0.0
  0
LINE
  8
DETAIL
  6
CONTINUOUS
 62
     5
 10
-108.357891
 20
64.585211000000015
 30
0.0
 11
-108.244041
 21
63.762022999999999
 31
0.0
  0
LINE
  8
DETAIL
  6
CONTINUOUS
 62
     5
 10
-108.244041
 20
63.762022999999999
 30
0.0
 11
-108.244041
 21
63.762022999999999
 31
0.0
  0
LINE
  8
DETAIL
  6
CONTINUOUS
 62
     5
 10
-108.244041
 20
63.762022999999999
 30
0.0
 11
-108.387362
 21
62.934223000000003
 31
0.0
  0
LINE
  8
DETAIL
  6
CONTINUOUS
 62
     5
 10
-108.387362
 20
62.934223000000003
 30
0.0
 11
-108.723562
 21
62.186453
 31
0.0
  0
LINE
  8
DETAIL
  6
CONTINUOUS
 62
     5
 10
-108.723562
 20
62.186453
 30
0.0
 11
-108.723562
 21
62.186453
 31
0.0
  0
LINE
  8
DETAIL
  6
CONTINUOUS
 62
     5
 10
-108.723562
 20
62.186453
 30
0.0
 11
-109.17528900000001
 21
61.643204999999988
 31
0.0
  0
LINE
  8
DETAIL
  6
CONTINUOUS
 62
     5
 10
-109.17528900000001
 20
61.643204999999988
 30
0.0
 11
-109.682604
 21
61.227411000000018
 31
0.0
  0
LINE
  8
DETAIL
  6
CONTINUOUS
 62
     5
 10
-108.910667
 20
66.031824
 30
0.0
 11
-109.69185
 21
65.451223999999996
 31
0.0
  0
LINE
  8
DETAIL
  6
CONTINUOUS
 62
     5
 10
-109.69185
 20
65.451223999999996
 30
0.0
 11
-110.27050300000001
 21
64.807972000000007
 31
0.0
  0
LINE
  8
DETAIL
  6
CONTINUOUS
 62
     5
 10
-110.27050300000001
 20
64.807972000000007
 30
0.0
 11
-110.27050300000001
 21
64.807972000000007
 31
0.0
  0
LINE
  8
DETAIL
  6
CONTINUOUS
 62
     5
 10
-110.27050300000001
 20
64.807972000000007
 30
0.0
 11
-110.51064100000001
 21
64.068072000000001
 31
0.0
  0
LINE
  8
DETAIL
  6
CONTINUOUS
 62
     5
 10
-110.51064100000001
 20
64.068072000000001
 30
0.0
 11
-110.54246999999999
 21
63.312151999999998
 31
0.0
  0
LINE
  8
DETAIL
  6
CONTINUOUS
 62
     5
 10
-110.54246999999999
 20
63.312151999999998
 30
0.0
 11
-110.54246999999999
 21
63.312151999999998
 31
0.0
  0
LINE
  8
DETAIL
  6
CONTINUOUS
 62
     5
 10
-110.54246999999999
 20
63.312151999999998
 30
0.0
 11
-110.483531
 21
62.602863000000013
 31
0.0
  0
LINE
  8
DETAIL
  6
CONTINUOUS
 62
     5
 10
-110.483531
 20
62.602863000000013
 30
0.0
 11
-110.134519
 21
61.816333000000007
 31
0.0
  0
LINE
  8
DETAIL
  6
CONTINUOUS
 62
     5
 10
-110.134519
 20
61.816333000000007
 30
0.0
 11
-110.134519
 21
61.816333000000007
 31
0.0
  0
LINE
  8
DETAIL
  6
CONTINUOUS
 62
     5
 10
-110.134519
 20
61.816333000000007
 30
0.0
 11
-109.94269300000001
 21
61.54965900000002
 31
0.0
  0
LINE
  8
DETAIL
  6
CONTINUOUS
 62
     5
 10
-109.94269300000001
 20
61.54965900000002
 30
0.0
 11
-109.726569
 21
61.27239800000001
 31
0.0
  0
LINE
  8
DETAIL
  6
CONTINUOUS
 62
     5
 10
-35.496561
 20
70.811592000000019
 30
0.0
 11
-103.482759
 21
70.811592000000019
 31
0.0
  0
ARC
  8
DETAIL
  6
CONTINUOUS
 62
     5
 10
0.0
 20
0.0
 30
0.0
 40
15.0
 50
294.99999999999972
 51
114.9999999999997
  0
ARC
  8
DETAIL
  6
CONTINUOUS
 62
     5
 10
0.0
 20
0.0
 30
0.0
 40
9.9000000000000004
 50
294.99999999999972
 51
114.9999999999997
  0
ARC
  8
DETAIL
  6
CONTINUOUS
 62
     5
 10
0.0
 20
0.0
 30
0.0
 40
8.0999999999999979
 50
294.99999999999972
 51
114.9999999999997
  0
CIRCLE
  8
DETAIL
  6
CONTINUOUS
 62
     5
 10
0.0
 20
0.0
 30
0.0
 40
2.5
  0
CIRCLE
  8
DETAIL
  6
CONTINUOUS
 62
     5
 10
0.0
 20
0.0
 30
0.0
 40
2.5
  0
ARC
  8
DETAIL
  6
CONTINUOUS
 62
     5
 10
0.0
 20
0.0
 30
0.0
 40
8.0999999999999979
 50
114.9999999999997
 51
294.99999999999972
  0
ARC
  8
DETAIL
  6
CONTINUOUS
 62
     5
 10
0.0
 20
0.0
 30
0.0
 40
9.9000000000000004
 50
114.9999999999997
 51
294.99999999999972
  0
ARC
  8
DETAIL
  6
CONTINUOUS
 62
     5
 10
0.0
 20
0.0
 30
0.0
 40
15.0
 50
114.9999999999997
 51
294.99999999999972
  0
TEXT
  8
NOTE
  6
CONTINUOUS
 62
     4
 10
-218.588483
 20
213.61981700000001
 30
0.0
 40
64.0
  1
EL
 41
0.9
  0
LINE
  8
NOTE
  6
CONTINUOUS
 62
     4
 10
-122.34577400000001
 20
193.93793700000001
 30
0.0
 11
-222.856235
 21
193.93793700000001
 31
0.0
  0
LINE
  8
NOTE
  6
CONTINUOUS
 62
     4
 10
-10.044663999999999
 20
66.011592000000007
 30
0.0
 11
-122.34577400000001
 21
193.93793700000001
 31
0.0
  0
LINE
  8
NOTE
  6
CONTINUOUS
 62
     4
 10
-27.550917999999999
 20
101.97728499999999
 30
0.0
 11
-10.044663999999999
 21
66.011592000000007
 31
0.0
  0
LINE
  8
NOTE
  6
CONTINUOUS
 62
     4
 10
-10.044663999999999
 20
66.011592000000007
 30
0.0
 11
-43.188371999999987
 21
88.405667999999991
 31
0.0
  0
LINE
  8
NOTE
  6
CONTINUOUS
 62
     4
 10
-10.044663999999999
 20
46.011592000000007
 30
0.0
 11
-10.044663999999999
 21
86.011592000000007
 31
0.0
  0
LINE
  8
NOTE
  6
CONTINUOUS
 62
     4
 10
9.9553360000000026
 20
66.011592000000007
 30
0.0
 11
-30.044664000000001
 21
66.011592000000007
 31
0.0
  0
LINE
  8
SIZE
  6
CONTINUOUS
 62
    30
 10
118.88235299999999
 20
113.5
 30
0.0
 11
638.28304000000003
 21
113.5
 31
0.0
  0
LINE
  8
SIZE
  6
CONTINUOUS
 62
    30
 10
171.330871
 20
48.5
 30
0.0
 11
638.28304000000003
 21
48.5
 31
0.0
  0
LINE
  8
SIZE
  6
CONTINUOUS
 62
    30
 10
618.28304000000003
 20
125.5
 30
0.0
 11
618.28304000000003
 21
137.5
 31
0.0
  0
LINE
  8
SIZE
  6
CONTINUOUS
 62
    30
 10
618.28304000000003
 20
36.5
 30
0.0
 11
618.28304000000003
 21
24.5
 31
0.0
  0
LINE
  8
SIZE
  6
CONTINUOUS
 62
    30
 10
618.28304000000003
 20
-245.57692399999999
 30
0.0
 11
618.28304000000003
 21
48.5
 31
0.0
  0
TEXT
  8
SIZE
  6
CONTINUOUS
 62
    30
 10
593.28304000000003
 20
-220.5769244285714
 30
0.0
 40
64.0
  1
65
 50
90.0
 41
0.9
 72
     1
 11
593.28304000000003
 21
-173.948353
 31
0.0
  0
LINE
  8
SIZE
  6
CONTINUOUS
 62
    30
 10
618.28304000000003
 20
113.5
 30
0.0
 11
618.28304000000003
 21
48.5
 31
0.0
  0
LINE
  8
SIZE
  6
CONTINUOUS
 62
    30
 10
618.28304000000003
 20
113.5
 30
0.0
 11
618.28304000000003
 21
48.5
 31
0.0
  0
CIRCLE
  8
SIZE
  6
CONTINUOUS
 62
    30
 10
618.28304000000003
 20
113.5
 30
0.0
 40
6.0
  0
LINE
  8
SIZE
  6
CONTINUOUS
 62
    30
 10
618.28304000000003
 20
113.5
 30
0.0
 11
618.28304000000003
 21
125.5
 31
0.0
  0
CIRCLE
  8
SIZE
  6
CONTINUOUS
 62
    30
 10
618.28304000000003
 20
48.5
 30
0.0
 40
6.0
  0
LINE
  8
SIZE
  6
CONTINUOUS
 62
    30
 10
618.28304000000003
 20
48.5
 30
0.0
 11
618.28304000000003
 21
36.5
 31
0.0
  0
LINE
  8
SIZE
  6
CONTINUOUS
 62
    30
 10
-116.882356
 20
113.5
 30
0.0
 11
-519.91301499999997
 21
113.5
 31
0.0
  0
LINE
  8
SIZE
  6
CONTINUOUS
 62
    30
 10
-116.882356
 20
-86.500002999999992
 30
0.0
 11
-519.91301499999997
 21
-86.500002999999992
 31
0.0
  0
LINE
  8
SIZE
  6
CONTINUOUS
 62
    30
 10
-499.91301499999997
 20
101.5
 30
0.0
 11
-499.91301499999997
 21
-74.500002999999978
 31
0.0
  0
TEXT
  8
SIZE
  6
CONTINUOUS
 62
    30
 10
-524.81790100000001
 20
-60.557144857142838
 30
0.0
 40
64.0
  1
200
 50
90.0
 41
0.9
 72
     1
 11
-524.81790100000001
 21
13.49999800000001
 31
0.0
  0
CIRCLE
  8
SIZE
  6
CONTINUOUS
 62
    30
 10
-499.91301499999997
 20
113.5
 30
0.0
 40
6.0
  0
LINE
  8
SIZE
  6
CONTINUOUS
 62
    30
 10
-499.91301499999997
 20
113.5
 30
0.0
 11
-499.91301499999997
 21
101.5
 31
0.0
  0
CIRCLE
  8
SIZE
  6
CONTINUOUS
 62
    30
 10
-499.91301499999997
 20
-86.500002999999992
 30
0.0
 40
6.0
  0
LINE
  8
SIZE
  6
CONTINUOUS
 62
    30
 10
-499.91301499999997
 20
-86.500002999999992
 30
0.0
 11
-499.91301499999997
 21
-74.500002999999978
 31
0.0
  0
LINE
  8
SIZE
  6
CONTINUOUS
 62
    30
 10
-142.529415
 20
98.499999000000003
 30
0.0
 11
-394.97546499999999
 21
98.499999000000003
 31
0.0
  0
LINE
  8
SIZE
  6
CONTINUOUS
 62
    30
 10
-142.529415
 20
-71.500000999999997
 30
0.0
 11
-394.97546499999999
 21
-71.500000999999997
 31
0.0
  0
LINE
  8
SIZE
  6
CONTINUOUS
 62
    30
 10
-374.97546499999999
 20
86.499999000000003
 30
0.0
 11
-374.97546499999999
 21
-59.500000999999997
 31
0.0
  0
TEXT
  8
SIZE
  6
CONTINUOUS
 62
    30
 10
-401.62722100000002
 20
-55.071429571428567
 30
0.0
 40
64.0
  1
170
 50
90.0
 41
0.9
 72
     1
 11
-401.62722100000002
 21
13.499999000000001
 31
0.0
  0
CIRCLE
  8
SIZE
  6
CONTINUOUS
 62
    30
 10
-374.97546499999999
 20
98.499999000000003
 30
0.0
 40
6.0
  0
LINE
  8
SIZE
  6
CONTINUOUS
 62
    30
 10
-374.97546499999999
 20
98.499999000000003
 30
0.0
 11
-374.97546499999999
 21
86.499999000000003
 31
0.0
  0
CIRCLE
  8
SIZE
  6
CONTINUOUS
 62
    30
 10
-374.97546499999999
 20
-71.500000999999997
 30
0.0
 40
6.0
  0
LINE
  8
SIZE
  6
CONTINUOUS
 62
    30
 10
-374.97546499999999
 20
-71.500000999999997
 30
0.0
 11
-374.97546499999999
 21
-59.500000999999997
 31
0.0
  0
CIRCLE
  8
DETAIL
  6
CONTINUOUS
 62
     5
 10
0.0
 20
0.0
 30
0.0
 40
40.700000000000003
  0
ARC
  8
DETAIL
  6
CONTINUOUS
 62
     5
 10
7.9440259999999938
 20
13.499999000000001
 30
0.0
 40
90.0
 50
147.98584200000039
 51
45.115393999999782
  0
ARC
  8
DETAIL
  6
CONTINUOUS
 62
     5
 10
7.9440259999999938
 20
13.499999000000001
 30
0.0
 40
75.0
 50
140.49433099999999
 51
32.132811000000252
  0
LINE
  8
DETAIL
  6
CONTINUOUS
 62
     5
 10
-97.823532999999998
 20
70.811592000000019
 30
0.0
 11
-97.823532999999998
 21
110.205882
 31
0.0
  0
LINE
  8
DETAIL
  6
CONTINUOUS
 62
     5
 10
-99.000003000000007
 20
70.811592000000019
 30
0.0
 11
-99.000003000000007
 21
110.205882
 31
0.0
  0
ARC
  8
DETAIL
  6
CONTINUOUS
 62
     5
 10
7.9440259999999938
 20
13.499999000000001
 30
0.0
 40
75.0
 50
104.271434
 51
130.16816299999971
  0
ARC
  8
DETAIL
  6
CONTINUOUS
 62
     5
 10
7.9440259999999938
 20
13.499999000000001
 30
0.0
 40
90.0
 50
57.626241999999948
 51
140.44672099999971
  0
LINE
  8
SIZE
  6
CONTINUOUS
 62
    30
 10
20.0
 20
40.5
 30
0.0
 11
509.02115300000003
 21
40.5
 31
0.0
  0
LINE
  8
SIZE
  6
CONTINUOUS
 62
    30
 10
20.0
 20
-40.899999999999999
 30
0.0
 11
509.02115300000003
 21
-40.899999999999999
 31
0.0
  0
LINE
  8
SIZE
  6
CONTINUOUS
 62
    30
 10
489.02115300000003
 20
28.5
 30
0.0
 11
489.02115300000003
 21
-28.899999999999991
 31
0.0
  0
LINE
  8
SIZE
  6
CONTINUOUS
 62
    30
 10
489.02115300000003
 20
-359.19057299999997
 30
0.0
 11
489.02115300000003
 21
-40.899999999999999
 31
0.0
  0
TEXT
  8
SIZE
  6
CONTINUOUS
 62
    30
 10
464.02115300000003
 20
-335.56200142857142
 30
0.0
 40
64.0
  1
φ81.4
 50
90.0
 41
0.9
 72
     1
 11
464.02115300000003
 21
-221.73343
 31
0.0
  0
CIRCLE
  8
SIZE
  6
CONTINUOUS
 62
    30
 10
489.02115300000003
 20
40.5
 30
0.0
 40
6.0
  0
LINE
  8
SIZE
  6
CONTINUOUS
 62
    30
 10
489.02115300000003
 20
40.5
 30
0.0
 11
489.02115300000003
 21
28.5
 31
0.0
  0
CIRCLE
  8
SIZE
  6
CONTINUOUS
 62
    30
 10
489.02115300000003
 20
-40.899999999999999
 30
0.0
 40
6.0
  0
LINE
  8
SIZE
  6
CONTINUOUS
 62
    30
 10
489.02115300000003
 20
-40.899999999999999
 30
0.0
 11
489.02115300000003
 21
-28.899999999999991
 31
0.0
  0
LINE
  8
DETAIL
  6
CONTINUOUS
 62
     5
 10
101.8
 20
110.205882
 30
0.0
 11
101.8
 21
138.5
 31
0.0
  0
LINE
  8
DETAIL
  6
CONTINUOUS
 62
     5
 10
101.8
 20
-41.5
 30
0.0
 11
101.8
 21
110.205882
 31
0.0
  0
LINE
  8
DETAIL
  6
CONTINUOUS
 62
     5
 10
101.0
 20
138.5
 30
0.0
 11
101.8
 21
138.5
 31
0.0
  0
LINE
  8
DETAIL
  6
CONTINUOUS
 62
     5
 10
101.0
 20
-41.5
 30
0.0
 11
101.8
 21
-41.5
 31
0.0
  0
LINE
  8
SIZE
  6
CONTINUOUS
 62
    30
 10
123.0
 20
138.5
 30
0.0
 11
780.26977199999999
 21
138.5
 31
0.0
  0
LINE
  8
SIZE
  6
CONTINUOUS
 62
    30
 10
123.0
 20
-41.5
 30
0.0
 11
780.26977199999999
 21
-41.5
 31
0.0
  0
LINE
  8
SIZE
  6
CONTINUOUS
 62
    30
 10
760.26977199999999
 20
126.5
 30
0.0
 11
760.26977199999999
 21
-29.5
 31
0.0
  0
LINE
  8
SIZE
  6
CONTINUOUS
 62
    30
 10
760.26977199999999
 20
-342.17735900000008
 30
0.0
 11
760.26977199999999
 21
-41.5
 31
0.0
  0
TEXT
  8
SIZE
  6
CONTINUOUS
 62
    30
 10
735.26977199999999
 20
-318.54878714285712
 30
0.0
 40
64.0
  1
φ180
 50
90.0
 41
0.9
 72
     1
 11
735.26977199999999
 21
-219.80592999999999
 31
0.0
  0
CIRCLE
  8
SIZE
  6
CONTINUOUS
 62
    30
 10
760.26977199999999
 20
138.5
 30
0.0
 40
6.0
  0
LINE
  8
SIZE
  6
CONTINUOUS
 62
    30
 10
760.26977199999999
 20
138.5
 30
0.0
 11
760.26977199999999
 21
126.5
 31
0.0
  0
CIRCLE
  8
SIZE
  6
CONTINUOUS
 62
    30
 10
760.26977199999999
 20
-41.5
 30
0.0
 40
6.0
  0
LINE
  8
SIZE
  6
CONTINUOUS
 62
    30
 10
760.26977199999999
 20
-41.5
 30
0.0
 11
760.26977199999999
 21
-29.5
 31
0.0
  0
LINE
  8
SIZE
  6
CONTINUOUS
 62
    30
 10
489.02115300000003
 20
-40.899999999999999
 30
0.0
 11
489.02115300000003
 21
-328.298158
 31
0.0
  0
LINE
  8
SIZE
  6
CONTINUOUS
 62
    30
 10
618.28304000000003
 20
48.5
 30
0.0
 11
618.28304000000003
 21
-208.004482
 31
0.0
  0
LINE
  8
SIZE
  6
CONTINUOUS
 62
    30
 10
760.26977199999999
 20
-43.5
 30
0.0
 11
760.26977199999999
 21
-314.20124299999998
 31
0.0
  0
LINE
  8
SIZE
  6
CONTINUOUS
 62
    30
 10
-116.882356
 20
113.5
 30
0.0
 11
-293.74269800000002
 21
113.5
 31
0.0
  0
LINE
  8
SIZE
  6
CONTINUOUS
 62
    30
 10
-146.29120231694949
 20
0.0
 30
0.0
 11
-293.74269800000002
 21
0.0
 31
0.0
  0
LINE
  8
SIZE
  6
CONTINUOUS
 62
    30
 10
-273.74269800000002
 20
101.5
 30
0.0
 11
-273.74269800000002
 21
12.0
 31
0.0
  0
LINE
  8
SIZE
  6
CONTINUOUS
 62
    30
 10
-273.74269800000002
 20
394.65874700000001
 30
0.0
 11
-273.74269800000002
 21
113.5
 31
0.0
  0
TEXT
  8
SIZE
  6
CONTINUOUS
 62
    30
 10
-298.74269800000002
 20
161.20160357142859
 30
0.0
 40
64.0
  1
113.5
 50
90.0
 41
0.9
 72
     1
 11
-298.74269800000002
 21
265.43017500000002
 31
0.0
  0
CIRCLE
  8
SIZE
  6
CONTINUOUS
 62
    30
 10
-273.74269800000002
 20
113.5
 30
0.0
 40
6.0
  0
LINE
  8
SIZE
  6
CONTINUOUS
 62
    30
 10
-273.74269800000002
 20
113.5
 30
0.0
 11
-273.74269800000002
 21
101.5
 31
0.0
  0
CIRCLE
  8
SIZE
  6
CONTINUOUS
 62
    30
 10
-273.74269800000002
 20
0.0
 30
0.0
 40
6.0
  0
LINE
  8
SIZE
  6
CONTINUOUS
 62
    30
 10
-273.74269800000002
 20
0.0
 30
0.0
 11
-273.74269800000002
 21
12.0
 31
0.0
  0
LINE
  8
SIZE
  6
CONTINUOUS
 62
    30
 10
101.0
 20
-103.20588600000001
 30
0.0
 11
101.0
 21
-233.24142900000001
 31
0.0
  0
LINE
  8
SIZE
  6
CONTINUOUS
 62
    30
 10
0.0
 20
-125.57489518623881
 30
0.0
 11
0.0
 21
-233.24142900000001
 31
0.0
  0
LINE
  8
SIZE
  6
CONTINUOUS
 62
    30
 10
89.0
 20
-213.24142900000001
 30
0.0
 11
12.0
 21
-213.24142900000001
 31
0.0
  0
LINE
  8
SIZE
  6
CONTINUOUS
 62
    30
 10
298.90428700000001
 20
-213.24142900000001
 30
0.0
 11
101.0
 21
-213.24142900000001
 31
0.0
  0
TEXT
  8
SIZE
  6
CONTINUOUS
 62
    30
 10
161.44714357142851
 20
-188.24142900000001
 30
0.0
 40
64.0
  1
101
 41
0.9
 72
     1
 11
217.675715
 21
-188.24142900000001
 31
0.0
  0
CIRCLE
  8
SIZE
  6
CONTINUOUS
 62
    30
 10
101.0
 20
-213.24142900000001
 30
0.0
 40
6.0
  0
LINE
  8
SIZE
  6
CONTINUOUS
 62
    30
 10
101.0
 20
-213.24142900000001
 30
0.0
 11
89.0
 21
-213.24142900000001
 31
0.0
  0
CIRCLE
  8
SIZE
  6
CONTINUOUS
 62
    30
 10
0.0
 20
-213.24142900000001
 30
0.0
 40
6.0
  0
LINE
  8
SIZE
  6
CONTINUOUS
 62
    30
 10
0.0
 20
-213.24142900000001
 30
0.0
 11
12.0
 21
-213.24142900000001
 31
0.0
  0
TEXT
  8
NOTE
  6
CONTINUOUS
 62
     4
 10
160.10810599999999
 20
19.155669
 30
0.0
 40
64.0
  1
出口
 41
0.9
  0
LINE
  8
NOTE
  6
CONTINUOUS
 62
     4
 10
-80.0
 20
137.02942100000001
 30
0.0
 11
-80.0
 21
89.970580999999981
 31
0.0
  0
LINE
  8
NOTE
  6
CONTINUOUS
 62
     4
 10
-56.470579999999998
 20
113.500001
 30
0.0
 11
-103.52942
 21
113.500001
 31
0.0
  0
CIRCLE
  8
FIX
  6
CONTINUOUS
 62
    11
 10
-80.0
 20
113.500001
 30
0.0
 40
3.5294120000000002
  0
LINE
  8
NOTE
  6
CONTINUOUS
 62
     4
 10
82.0
 20
137.02942100000001
 30
0.0
 11
82.0
 21
89.970580999999981
 31
0.0
  0
LINE
  8
NOTE
  6
CONTINUOUS
 62
     4
 10
105.52942
 20
113.500001
 30
0.0
 11
58.470579999999977
 21
113.500001
 31
0.0
  0
CIRCLE
  8
FIX
  6
CONTINUOUS
 62
    11
 10
82.0
 20
113.500001
 30
0.0
 40
3.5294120000000002
  0
LINE
  8
SIZE
  6
CONTINUOUS
 62
    30
 10
82.0
 20
-130.029415
 30
0.0
 11
82.0
 21
-384.62942900000002
 31
0.0
  0
LINE
  8
SIZE
  6
CONTINUOUS
 62
    30
 10
-80.0
 20
-130.029415
 30
0.0
 11
-80.0
 21
-384.62942900000002
 31
0.0
  0
LINE
  8
SIZE
  6
CONTINUOUS
 62
    30
 10
70.0
 20
-364.62942900000002
 30
0.0
 11
-68.0
 21
-364.62942900000002
 31
0.0
  0
TEXT
  8
SIZE
  6
CONTINUOUS
 62
    30
 10
-67.571428571428569
 20
-337.54870899999997
 30
0.0
 40
64.0
  1
162
 41
0.9
 72
     1
 11
1.0
 21
-337.54870899999997
 31
0.0
  0
CIRCLE
  8
SIZE
  6
CONTINUOUS
 62
    30
 10
82.0
 20
-364.62942900000002
 30
0.0
 40
6.0
  0
LINE
  8
SIZE
  6
CONTINUOUS
 62
    30
 10
82.0
 20
-364.62942900000002
 30
0.0
 11
70.0
 21
-364.62942900000002
 31
0.0
  0
CIRCLE
  8
SIZE
  6
CONTINUOUS
 62
    30
 10
-80.0
 20
-364.62942900000002
 30
0.0
 40
6.0
  0
LINE
  8
SIZE
  6
CONTINUOUS
 62
    30
 10
-80.0
 20
-364.62942900000002
 30
0.0
 11
-68.0
 21
-364.62942900000002
 31
0.0
  0
TEXT
  8
ETC
  6
CONTINUOUS
 62
    61
 10
349.11109417503371
 20
437.72023542673389
 30
0.0
 40
64.0
  1
産業扇
 41
0.9
  0
TEXT
  8
ETC
  6
CONTINUOUS
 62
    61
 10
344.2788261750336
 20
549.06486542673383
 30
0.0
 40
64.0
  1
BF-12S5_5
 41
0.9
  0
TEXT
  8
ETC
  6
CONTINUOUS
 62
    61
 10
432.97503628258232
 20
327.86643420037501
 30
0.0
 40
64.0
  1
BF-12S5
 41
0.9
  0
TEXT
  8
ETC
  6
CONTINUOUS
 62
    61
 10
432.97503628258232
 20
219.64766493502711
 30
0.0
 40
64.0
  1
BF-14S5
 41
0.9
  0
LINE
  8
OUTLINE
  6
CONTINUOUS
 62
     3
 10
101.8
 20
-41.499999999999993
 30
0.0
 11
101.8
 21
138.5
 31
0.0
  0
LINE
  8
OUTLINE
  6
CONTINUOUS
 62
     3
 10
101.0
 20
138.5
 30
0.0
 11
101.8
 21
138.5
 31
0.0
  0
LINE
  8
OUTLINE
  6
CONTINUOUS
 62
     3
 10
101.0
 20
-41.5
 30
0.0
 11
101.8
 21
-41.5
 31
0.0
  0
ENDSEC
  0
EOF
