  0
SECTION
  2
HEADER
  9
$ACADVER
  1
AC1009
  9
$DWGCODEPAGE
  3
dos932
  9
$INSBASE
 10
0.0
 20
0.0
 30
0.0
  9
$EXTMIN
 10
-968.91172700434981
 20
-488.98314264251712
 30
-0.0000000000112498
  9
$EXTMAX
 10
799.87336335455984
 20
649.84131668442933
 30
0.0000000000002956
  9
$LIMMIN
 10
-2970.0
 20
-2100.0
  9
$LIMMAX
 10
2970.0
 20
2100.0
  9
$ORTHOMODE
 70
     1
  9
$REGENMODE
 70
     1
  9
$FILLMODE
 70
     1
  9
$QTEXTMODE
 70
     0
  9
$MIRRTEXT
 70
     0
  9
$LTSCALE
 40
20.0
  9
$ATTMODE
 70
     1
  9
$TEXTSIZE
 40
64.0
  9
$TRACEWID
 40
0.05
  9
$TEXTSTYLE
  7
STANDARD
  9
$CLAYER
  8
NOTE
  9
$CELTYPE
  6
CONTINUOUS
  9
$CECOLOR
 62
     7
  9
$DIMSCALE
 40
1.0
  9
$DIMASZ
 40
12.0
  9
$DIMEXO
 40
20.0
  9
$DIMDLI
 40
200.0
  9
$DIMRND
 40
0.0
  9
$DIMDLE
 40
0.0
  9
$DIMEXE
 40
20.0
  9
$DIMTP
 40
0.0
  9
$DIMTM
 40
0.0
  9
$DIMTXT
 40
64.0
  9
$DIMCEN
 40
0.09
  9
$DIMTSZ
 40
0.0
  9
$DIMTOL
 70
     0
  9
$DIMLIM
 70
     0
  9
$DIMTIH
 70
     0
  9
$DIMTOH
 70
     0
  9
$DIMSE1
 70
     0
  9
$DIMSE2
 70
     0
  9
$DIMTAD
 70
     1
  9
$DIMZIN
 70
     8
  9
$DIMBLK
  1

  9
$DIMASO
 70
     1
  9
$DIMSHO
 70
     0
  9
$DIMPOST
  1

  9
$DIMAPOST
  1

  9
$DIMALT
 70
     0
  9
$DIMALTD
 70
     2
  9
$DIMALTF
 40
25.399999999999999
  9
$DIMLFAC
 40
1.0
  9
$DIMTOFL
 70
     1
  9
$DIMTVP
 40
0.0
  9
$DIMTIX
 70
     1
  9
$DIMSOXD
 70
     0
  9
$DIMSAH
 70
     0
  9
$DIMBLK1
  1

  9
$DIMBLK2
  1

  9
$DIMSTYLE
  2
STANDARD
  9
$DIMCLRD
 70
     7
  9
$DIMCLRE
 70
     7
  9
$DIMCLRT
 70
     7
  9
$DIMTFAC
 40
1.0
  9
$DIMGAP
 40
25.0
  9
$LUNITS
 70
     2
  9
$LUPREC
 70
     4
  9
$SKETCHINC
 40
0.1
  9
$FILLETRAD
 40
3.0
  9
$AUNITS
 70
     1
  9
$AUPREC
 70
     3
  9
$MENU
  1
ACAD
  9
$ELEVATION
 40
0.0
  9
$PELEVATION
 40
0.0
  9
$THICKNESS
 40
50.0
  9
$LIMCHECK
 70
     0
  9
$CHAMFERA
 40
0.0
  9
$CHAMFERB
 40
0.0
  9
$SKPOLY
 70
     0
  9
$TDCREATE
 40
2453019.62301037
  9
$TDUPDATE
 40
2458926.754128935
  9
$TDINDWG
 40
1.7751751157
  9
$TDUSRTIMER
 40
1.7751751157
  9
$USRTIMER
 70
     1
  9
$ANGBASE
 50
0.0
  9
$ANGDIR
 70
     0
  9
$PDMODE
 70
     3
  9
$PDSIZE
 40
-2.0
  9
$PLINEWID
 40
0.0
  9
$SPLFRAME
 70
     0
  9
$SPLINETYPE
 70
     6
  9
$SPLINESEGS
 70
     8
  9
$SURFTAB1
 70
     6
  9
$SURFTAB2
 70
     6
  9
$SURFTYPE
 70
     6
  9
$SURFU
 70
     6
  9
$SURFV
 70
     6
  9
$UCSNAME
  2

  9
$UCSORG
 10
0.0
 20
0.0
 30
0.0
  9
$UCSXDIR
 10
1.0
 20
0.0
 30
0.0
  9
$UCSYDIR
 10
0.0
 20
1.0
 30
0.0
  9
$PUCSNAME
  2

  9
$PUCSORG
 10
0.0
 20
0.0
 30
0.0
  9
$PUCSXDIR
 10
1.0
 20
0.0
 30
0.0
  9
$PUCSYDIR
 10
0.0
 20
1.0
 30
0.0
  9
$USERI1
 70
     0
  9
$USERI2
 70
     0
  9
$USERI3
 70
     0
  9
$USERI4
 70
     0
  9
$USERI5
 70
     0
  9
$USERR1
 40
20.0
  9
$USERR2
 40
0.0
  9
$USERR3
 40
0.0
  9
$USERR4
 40
0.0
  9
$USERR5
 40
0.0
  9
$WORLDVIEW
 70
     1
  9
$SHADEDGE
 70
     3
  9
$SHADEDIF
 70
    70
  9
$TILEMODE
 70
     1
  9
$MAXACTVP
 70
    48
  9
$PINSBASE
 10
0.0
 20
0.0
 30
0.0
  9
$PLIMCHECK
 70
     0
  9
$PEXTMIN
 10
-100000000000000000000.0
 20
-100000000000000000000.0
 30
-100000000000000000000.0
  9
$PEXTMAX
 10
100000000000000000000.0
 20
100000000000000000000.0
 30
100000000000000000000.0
  9
$PLIMMIN
 10
0.0
 20
0.0
  9
$PLIMMAX
 10
12.0
 20
9.0
  9
$UNITMODE
 70
     0
  9
$VISRETAIN
 70
     0
  9
$PLINEGEN
 70
     0
  9
$PSLTSCALE
 70
     0
  9
$TREEDEPTH
 70
  3020
  9
$ATTDIA
 70
     0
  9
$ATTREQ
 70
     1
  9
$BLIPMODE
 70
     1
  9
$COORDS
 70
     1
  9
$DRAGMODE
 70
     2
  9
$OSMODE
 70
     0
  9
$HANDLING
 70
     0
  9
$HANDSEED
  5
EF72
  0
ENDSEC
  0
SECTION
  2
TABLES
  0
TABLE
  2
LTYPE
 70
     2
  0
LTYPE
  2
CONTINUOUS
 70
     0
  3
実線
 72
    65
 73
     0
 40
0.0
  0
LTYPE
  2
DASHDOT
 70
     0
  3
____ _ ____ _ ____ _ ____ _ ____ _ ____ _ ____
 72
    65
 73
     4
 40
5.5
 49
4.0
 49
-0.6
 49
0.3
 49
-0.6
  0
ENDTAB
  0
TABLE
  2
LAYER
 70
    12
  0
LAYER
  2
0
 70
     0
 62
     7
  6
CONTINUOUS
  0
LAYER
  2
BASIS
 70
     0
 62
     6
  6
DASHDOT
  0
LAYER
  2
OUTLINE
 70
     0
 62
     3
  6
CONTINUOUS
  0
LAYER
  2
DETAIL
 70
     0
 62
     5
  6
CONTINUOUS
  0
LAYER
  2
SIZE
 70
     0
 62
    30
  6
CONTINUOUS
  0
LAYER
  2
ARRANGE
 70
     0
 62
     1
  6
CONTINUOUS
  0
LAYER
  2
ETC
 70
     0
 62
    61
  6
CONTINUOUS
  0
LAYER
  2
FIX
 70
     0
 62
    11
  6
CONTINUOUS
  0
LAYER
  2
NOTE
 70
     0
 62
     4
  6
CONTINUOUS
  0
LAYER
  2
DEFPOINTS
 70
    64
 62
     7
  6
CONTINUOUS
  0
LAYER
  2
SERVICESPACE
 70
    64
 62
     2
  6
DASHDOT
  0
LAYER
  2
SYMBOLLINE
 70
    64
 62
    15
  6
CONTINUOUS
  0
ENDTAB
  0
TABLE
  2
STYLE
 70
     1
  0
STYLE
  2
STANDARD
 70
     0
 40
64.0
 41
0.9
 50
0.0
 71
     0
 42
64.0
  3
SIMPLEX.shx
  4
BIGFONT.shx
  0
ENDTAB
  0
TABLE
  2
APPID
 70
    16
  0
APPID
  2
ACAD
 70
     0
  0
APPID
  2
AUTOCAD_POSTSCRIPT_FIGURE
 70
     0
  0
APPID
  2
ACAD_EXEMPT_FROM_CAD_STANDARDS
 70
     0
  0
APPID
  2
ACAD_PSEXT
 70
     0
  0
APPID
  2
ACAUTHENVIRON
 70
     0
  0
APPID
  2
GENIUS_GENOENT_13
 70
     0
  0
APPID
  2
GENIUS_GENCFG_13
 70
     0
  0
APPID
  2
GENIUS_GENCFG0_13
 70
     0
  0
APPID
  2
GENIUS_GENCFG1_13
 70
     0
  0
APPID
  2
GENIUS_GENCFG2_13
 70
     0
  0
APPID
  2
GENIUS_GENCFG3_13
 70
     0
  0
APPID
  2
GENIUS_GENCFG4_13
 70
     0
  0
APPID
  2
GENIUS_GEVCFG0_13
 70
     0
  0
APPID
  2
CONTENTBLOCKICON
 70
     0
  0
APPID
  2
CONTENTBLOCKDESCRIPTION
 70
     0
  0
APPID
  2
ACAD_NAV_VCDISPLAY
 70
     0
  0
ENDTAB
  0
TABLE
  2
DIMSTYLE
 70
     1
  0
DIMSTYLE
  2
STANDARD
 70
     0
  3

  4

  5
_ORIGIN
  6

  7

 40
1.0
 41
12.0
 42
20.0
 43
200.0
 44
20.0
 45
0.0
 46
0.0
 47
0.0
 48
0.0
140
64.0
141
0.09
142
0.0
143
25.399999999999999
144
1.0
145
0.0
146
1.0
147
25.0
 71
     0
 72
     0
 73
     0
 74
     0
 75
     0
 76
     0
 77
     1
 78
     8
170
     0
171
     2
172
     1
173
     0
174
     1
175
     0
176
     7
177
     7
178
     7
  0
ENDTAB
  0
TABLE
  2
VIEW
 70
     1
  0
VIEW
  2
ALL
 70
     0
 40
4282.6198079999986
 10
0.0
 20
41.309904000000003
 41
5940.0
 11
0.0
 21
0.0
 31
1.0
 12
0.0
 22
0.0
 32
0.0
 42
50.0
 43
0.0
 44
0.0
 50
0.0
 71
     0
  0
ENDTAB
  0
TABLE
  2
UCS
 70
     0
  0
ENDTAB
  0
TABLE
  2
VPORT
 70
     1
  0
VPORT
  2
*ACTIVE
 70
     0
 10
0.0
 20
0.0
 11
1.0
 21
1.0
 12
-84.519181824894957
 22
80.429087020956104
 13
0.0
 23
0.0
 14
1.0
 24
1.0
 15
0.0
 25
0.0
 16
0.0
 26
0.0
 36
1.0
 17
0.0
 27
0.0
 37
0.0
 40
1146.978333737402
 41
1.7980884109916371
 42
50.0
 43
0.0
 44
0.0
 50
0.0
 51
0.0
 71
     0
 72
  1000
 73
     1
 74
     3
 75
     0
 76
     0
 77
     0
 78
     0
  0
ENDTAB
  0
ENDSEC
  0
SECTION
  2
BLOCKS
  0
BLOCK
  8
0
  2
_ORIGIN
 70
     0
 10
0.0
 20
0.0
 30
0.0
  3
_ORIGIN
  1
_ORIGIN
  0
CIRCLE
  8
0
  6
CONTINUOUS
 62
     7
 10
0.0
 20
0.0
 30
0.0
 40
0.5
  0
LINE
  8
0
  6
CONTINUOUS
 62
     7
 10
0.0
 20
0.0
 30
0.0
 11
-1.0
 21
0.0
 31
0.0
  0
ENDBLK
  8
0
  0
ENDSEC
  0
SECTION
  2
ENTITIES
  0
LINE
  8
DETAIL
  6
CONTINUOUS
 62
     5
 10
52.5
 20
99.0
 30
0.0
 11
72.5
 21
99.0
 31
0.0
  0
LINE
  8
DETAIL
  6
CONTINUOUS
 62
     5
 10
-52.5
 20
74.0
 30
0.0
 11
52.5
 21
74.0
 31
0.0
  0
LINE
  8
DETAIL
  6
CONTINUOUS
 62
     5
 10
-52.5
 20
-76.0
 30
0.0
 11
52.5
 21
-76.0
 31
0.0
  0
LINE
  8
DETAIL
  6
CONTINUOUS
 62
     5
 10
52.5
 20
-101.0
 30
0.0
 11
52.5
 21
99.0
 31
0.0
  0
LINE
  8
DETAIL
  6
CONTINUOUS
 62
     5
 10
-52.5
 20
-101.0
 30
0.0
 11
-52.5
 21
99.0
 31
0.0
  0
LINE
  8
DETAIL
  6
CONTINUOUS
 62
     5
 10
72.5
 20
-101.0
 30
0.0
 11
72.5
 21
99.0
 31
0.0
  0
LINE
  8
DETAIL
  6
CONTINUOUS
 62
     5
 10
-72.5
 20
-101.0
 30
0.0
 11
-72.5
 21
99.0
 31
0.0
  0
LINE
  8
BASIS
  6
DASHDOT
 62
     6
 10
0.0
 20
-166.7484059999999
 30
0.0
 11
0.0
 21
125.394086
 31
0.0
  0
LINE
  8
DETAIL
  6
CONTINUOUS
 62
     5
 10
-72.5
 20
99.0
 30
0.0
 11
-52.5
 21
99.0
 31
0.0
  0
LINE
  8
DETAIL
  6
CONTINUOUS
 62
     5
 10
-72.5
 20
-101.0
 30
0.0
 11
72.5
 21
-101.0
 31
0.0
  0
LINE
  8
SIZE
  6
CONTINUOUS
 62
    30
 10
-72.5
 20
-121.0
 30
0.0
 11
-72.5
 21
-356.89988100000011
 31
0.0
  0
LINE
  8
SIZE
  6
CONTINUOUS
 62
    30
 10
72.5
 20
-121.0
 30
0.0
 11
72.5
 21
-356.89988100000011
 31
0.0
  0
LINE
  8
SIZE
  6
CONTINUOUS
 62
    30
 10
-60.5
 20
-336.89988100000011
 30
0.0
 11
60.5
 21
-336.89988100000011
 31
0.0
  0
TEXT
  8
SIZE
  6
CONTINUOUS
 62
    30
 10
-68.571428571428569
 20
-311.89988100000011
 30
0.0
 40
64.0
  1
145
 41
0.9
 72
     1
 11
0.0
 21
-311.89988100000011
 31
0.0
  0
CIRCLE
  8
SIZE
  6
CONTINUOUS
 62
    30
 10
-72.5
 20
-336.89988100000011
 30
0.0
 40
6.0
  0
LINE
  8
SIZE
  6
CONTINUOUS
 62
    30
 10
-72.5
 20
-336.89988100000011
 30
0.0
 11
-60.5
 21
-336.89988100000011
 31
0.0
  0
CIRCLE
  8
SIZE
  6
CONTINUOUS
 62
    30
 10
72.5
 20
-336.89988100000011
 30
0.0
 40
6.0
  0
LINE
  8
SIZE
  6
CONTINUOUS
 62
    30
 10
72.5
 20
-336.89988100000011
 30
0.0
 11
60.5
 21
-336.89988100000011
 31
0.0
  0
LINE
  8
DETAIL
  6
CONTINUOUS
 62
     5
 10
-90.0
 20
-103.0
 30
0.0
 11
-90.0
 21
-101.0
 31
0.0
  0
LINE
  8
DETAIL
  6
CONTINUOUS
 62
     5
 10
90.0
 20
-103.0
 30
0.0
 11
90.0
 21
-101.0
 31
0.0
  0
LINE
  8
DETAIL
  6
CONTINUOUS
 62
     5
 10
-72.5
 20
-101.0
 30
0.0
 11
-90.0
 21
-101.0
 31
0.0
  0
LINE
  8
DETAIL
  6
CONTINUOUS
 62
     5
 10
72.5
 20
-101.0
 30
0.0
 11
90.0
 21
-101.0
 31
0.0
  0
CIRCLE
  8
FIX
  6
CONTINUOUS
 62
    11
 10
-62.5
 20
-82.0
 30
0.0
 40
3.0
  0
ARC
  8
DETAIL
  6
CONTINUOUS
 62
     5
 10
-62.5
 20
-82.0
 30
0.0
 40
5.0
 50
53.130101999998729
 51
126.869897999998
  0
ARC
  8
DETAIL
  6
CONTINUOUS
 62
     5
 10
-62.5
 20
-82.0
 30
0.0
 40
5.0
 50
233.13010199999869
 51
306.86989799999799
  0
LINE
  8
DETAIL
  6
CONTINUOUS
 62
     5
 10
-59.5
 20
-86.0
 30
0.0
 11
-59.5
 21
-78.0
 31
0.0
  0
LINE
  8
DETAIL
  6
CONTINUOUS
 62
     5
 10
-65.5
 20
-86.0
 30
0.0
 11
-65.5
 21
-78.0
 31
0.0
  0
LINE
  8
NOTE
  6
CONTINUOUS
 62
     4
 10
-62.5
 20
-102.0
 30
0.0
 11
-62.5
 21
-62.0
 31
0.0
  0
LINE
  8
NOTE
  6
CONTINUOUS
 62
     4
 10
-42.5
 20
-82.0
 30
0.0
 11
-82.5
 21
-82.0
 31
0.0
  0
LINE
  8
NOTE
  6
CONTINUOUS
 62
     4
 10
-62.5
 20
60.0
 30
0.0
 11
-62.5
 21
100.0
 31
0.0
  0
LINE
  8
NOTE
  6
CONTINUOUS
 62
     4
 10
-42.5
 20
80.0
 30
0.0
 11
-82.5
 21
80.0
 31
0.0
  0
LINE
  8
DETAIL
  6
CONTINUOUS
 62
     5
 10
-65.5
 20
76.0
 30
0.0
 11
-65.5
 21
84.0
 31
0.0
  0
LINE
  8
DETAIL
  6
CONTINUOUS
 62
     5
 10
-59.5
 20
76.0
 30
0.0
 11
-59.5
 21
84.0
 31
0.0
  0
ARC
  8
DETAIL
  6
CONTINUOUS
 62
     5
 10
-62.5
 20
80.0
 30
0.0
 40
5.0
 50
233.13010199999869
 51
306.86989799999799
  0
ARC
  8
DETAIL
  6
CONTINUOUS
 62
     5
 10
-62.5
 20
80.0
 30
0.0
 40
5.0
 50
53.130101999998729
 51
126.869897999998
  0
CIRCLE
  8
FIX
  6
CONTINUOUS
 62
    11
 10
-62.5
 20
80.0
 30
0.0
 40
3.0
  0
LINE
  8
DETAIL
  6
CONTINUOUS
 62
     5
 10
-96.5
 20
67.055973999999992
 30
0.0
 11
-72.5
 21
67.055973999999992
 31
0.0
  0
LINE
  8
DETAIL
  6
CONTINUOUS
 62
     5
 10
-96.5
 20
-82.944026000000008
 30
0.0
 11
-72.5
 21
-82.944026000000008
 31
0.0
  0
LINE
  8
DETAIL
  6
CONTINUOUS
 62
     5
 10
-131.0
 20
40.699999999999989
 30
0.0
 11
-101.5
 21
40.699999999999989
 31
0.0
  0
LINE
  8
DETAIL
  6
CONTINUOUS
 62
     5
 10
-128.5
 20
-68.455336999999986
 30
0.0
 11
-101.5
 21
-68.455336999999986
 31
0.0
  0
LINE
  8
DETAIL
  6
CONTINUOUS
 62
     5
 10
-133.5
 20
-63.455336999999993
 30
0.0
 11
-133.5
 21
-9.4553369999999859
 31
0.0
  0
LINE
  8
DETAIL
  6
CONTINUOUS
 62
     5
 10
-101.5
 20
-77.944026000000008
 30
0.0
 11
-101.5
 21
62.055973999999992
 31
0.0
  0
ARC
  8
DETAIL
  6
CONTINUOUS
 62
     5
 10
-96.5
 20
-77.944026000000008
 30
0.0
 40
5.0
 50
180.0
 51
270.0
  0
ARC
  8
DETAIL
  6
CONTINUOUS
 62
     5
 10
-96.5
 20
62.055973999999992
 30
0.0
 40
5.0
 50
90.0
 51
180.0
  0
ARC
  8
DETAIL
  6
CONTINUOUS
 62
     5
 10
-128.5
 20
-63.455336999999993
 30
0.0
 40
5.0
 50
180.0
 51
270.0
  0
LINE
  8
DETAIL
  6
CONTINUOUS
 62
     5
 10
-133.5
 20
-9.4553369999999859
 30
0.0
 11
-133.5
 21
38.199999999999989
 31
0.0
  0
ARC
  8
DETAIL
  6
CONTINUOUS
 62
     5
 10
-131.0
 20
38.199999999999989
 30
0.0
 40
2.5
 50
90.0
 51
180.0
  0
LINE
  8
SIZE
  6
CONTINUOUS
 62
    30
 10
92.5
 20
99.0
 30
0.0
 11
467.91608199999979
 21
99.0
 31
0.0
  0
LINE
  8
SIZE
  6
CONTINUOUS
 62
    30
 10
92.5
 20
-101.0
 30
0.0
 11
467.91608199999979
 21
-101.0
 31
0.0
  0
LINE
  8
SIZE
  6
CONTINUOUS
 62
    30
 10
447.91608200000002
 20
87.0
 30
0.0
 11
447.91608200000002
 21
-89.0
 31
0.0
  0
TEXT
  8
SIZE
  6
CONTINUOUS
 62
    30
 10
419.44418099999979
 20
-84.452254857142833
 30
0.0
 40
64.0
  1
200
 50
90.0
 41
0.9
 72
     1
 11
419.44418099999979
 21
-10.39511199999998
 31
0.0
  0
CIRCLE
  8
SIZE
  6
CONTINUOUS
 62
    30
 10
447.91608200000002
 20
99.0
 30
0.0
 40
6.0
  0
LINE
  8
SIZE
  6
CONTINUOUS
 62
    30
 10
447.91608200000002
 20
99.0
 30
0.0
 11
447.91608200000002
 21
87.0
 31
0.0
  0
CIRCLE
  8
SIZE
  6
CONTINUOUS
 62
    30
 10
447.91608200000002
 20
-101.0
 30
0.0
 40
6.0
  0
LINE
  8
SIZE
  6
CONTINUOUS
 62
    30
 10
447.91608200000002
 20
-101.0
 30
0.0
 11
447.91608200000002
 21
-89.0
 31
0.0
  0
LINE
  8
SIZE
  6
CONTINUOUS
 62
    30
 10
-133.5
 20
58.199999999999989
 30
0.0
 11
-133.5
 21
446.33611700000012
 31
0.0
  0
LINE
  8
SIZE
  6
CONTINUOUS
 62
    30
 10
72.5
 20
119.0
 30
0.0
 11
72.5
 21
446.33611700000012
 31
0.0
  0
LINE
  8
SIZE
  6
CONTINUOUS
 62
    30
 10
-121.5
 20
426.33611700000012
 30
0.0
 11
60.5
 21
426.33611700000012
 31
0.0
  0
TEXT
  8
SIZE
  6
CONTINUOUS
 62
    30
 10
-102.88224028607419
 20
451.33611700000012
 30
0.0
 40
64.0
  1
206
 41
0.9
 72
     1
 11
-30.196526000359881
 21
451.33611700000012
 31
0.0
  0
CIRCLE
  8
SIZE
  6
CONTINUOUS
 62
    30
 10
-133.5
 20
426.33611700000012
 30
0.0
 40
6.0
  0
LINE
  8
SIZE
  6
CONTINUOUS
 62
    30
 10
-133.5
 20
426.33611700000012
 30
0.0
 11
-121.5
 21
426.33611700000012
 31
0.0
  0
CIRCLE
  8
SIZE
  6
CONTINUOUS
 62
    30
 10
72.5
 20
426.33611700000012
 30
0.0
 40
6.0
  0
LINE
  8
SIZE
  6
CONTINUOUS
 62
    30
 10
72.5
 20
426.33611700000012
 30
0.0
 11
60.5
 21
426.33611700000012
 31
0.0
  0
CIRCLE
  8
FIX
  6
CONTINUOUS
 62
    11
 10
-62.5
 20
99.0
 30
0.0
 40
3.0
  0
LINE
  8
NOTE
  6
CONTINUOUS
 62
     4
 10
-62.5
 20
79.0
 30
0.0
 11
-62.5
 21
119.0
 31
0.0
  0
LINE
  8
NOTE
  6
CONTINUOUS
 62
     4
 10
-42.5
 20
99.0
 30
0.0
 11
-82.5
 21
99.0
 31
0.0
  0
CIRCLE
  8
FIX
  6
CONTINUOUS
 62
    11
 10
62.5
 20
99.0
 30
0.0
 40
3.0
  0
LINE
  8
NOTE
  6
CONTINUOUS
 62
     4
 10
62.5
 20
79.0
 30
0.0
 11
62.5
 21
119.0
 31
0.0
  0
LINE
  8
NOTE
  6
CONTINUOUS
 62
     4
 10
82.5
 20
99.0
 30
0.0
 11
42.5
 21
99.0
 31
0.0
  0
TEXT
  8
NOTE
  6
CONTINUOUS
 62
     4
 10
-792.05486699999983
 20
226.75254200000001
 30
0.0
 40
64.0
  1
12-φ10×6
 41
0.9
  0
LINE
  8
NOTE
  6
CONTINUOUS
 62
     4
 10
-517.97559099999989
 20
193.45399699999999
 30
0.0
 11
-968.70228899999995
 21
193.45399699999999
 31
0.0
  0
POINT
  8
ARRANGE
  6
CONTINUOUS
 62
     1
 10
0.0
 20
0.0
 30
0.0
  0
CIRCLE
  8
ARRANGE
  6
CONTINUOUS
 62
     1
 10
0.0
 20
0.0
 30
0.0
 40
40.0
  0
LINE
  8
DETAIL
  6
CONTINUOUS
 62
     5
 10
-90.0
 20
-103.0
 30
0.0
 11
90.0
 21
-103.0
 31
0.0
  0
LINE
  8
SIZE
  6
CONTINUOUS
 62
    30
 10
-90.0
 20
-123.0
 30
0.0
 11
-90.0
 21
-488.89271807937052
 31
0.0
  0
LINE
  8
SIZE
  6
CONTINUOUS
 62
    30
 10
90.0
 20
-123.0
 30
0.0
 11
90.0
 21
-488.89271807937052
 31
0.0
  0
LINE
  8
SIZE
  6
CONTINUOUS
 62
    30
 10
-78.0
 20
-468.89271807937052
 30
0.0
 11
78.0
 21
-468.89271807937052
 31
0.0
  0
TEXT
  8
SIZE
  6
CONTINUOUS
 62
    30
 10
-98.742857142857147
 20
-443.94463107937048
 30
0.0
 40
64.0
  1
φ180
 41
0.9
 72
     1
 11
0.0
 21
-443.94463107937048
 31
0.0
  0
CIRCLE
  8
SIZE
  6
CONTINUOUS
 62
    30
 10
-90.0
 20
-468.89271807937052
 30
0.0
 40
6.0
  0
LINE
  8
SIZE
  6
CONTINUOUS
 62
    30
 10
-90.0
 20
-468.89271807937052
 30
0.0
 11
-78.0
 21
-468.89271807937052
 31
0.0
  0
CIRCLE
  8
SIZE
  6
CONTINUOUS
 62
    30
 10
90.0
 20
-468.89271807937052
 30
0.0
 40
6.0
  0
LINE
  8
SIZE
  6
CONTINUOUS
 62
    30
 10
90.0
 20
-468.89271807937052
 30
0.0
 11
78.0
 21
-468.89271807937052
 31
0.0
  0
LINE
  8
SIZE
  6
CONTINUOUS
 62
    30
 10
-72.5
 20
119.0
 30
0.0
 11
-72.5
 21
231.650971
 31
0.0
  0
LINE
  8
SIZE
  6
CONTINUOUS
 62
    30
 10
-52.5
 20
119.0
 30
0.0
 11
-52.5
 21
231.650971
 31
0.0
  0
LINE
  8
SIZE
  6
CONTINUOUS
 62
    30
 10
-84.5
 20
211.650971
 30
0.0
 11
-96.5
 21
211.650971
 31
0.0
  0
LINE
  8
SIZE
  6
CONTINUOUS
 62
    30
 10
-40.5
 20
211.650971
 30
0.0
 11
-28.5
 21
211.650971
 31
0.0
  0
LINE
  8
SIZE
  6
CONTINUOUS
 62
    30
 10
-283.49671699999999
 20
211.650971
 30
0.0
 11
-72.5
 21
211.650971
 31
0.0
  0
TEXT
  8
SIZE
  6
CONTINUOUS
 62
    30
 10
-258.49671642857152
 20
236.650971
 30
0.0
 40
64.0
  1
20
 41
0.9
 72
     1
 11
-211.868145
 21
236.650971
 31
0.0
  0
LINE
  8
SIZE
  6
CONTINUOUS
 62
    30
 10
-72.5
 20
211.650971
 30
0.0
 11
-52.5
 21
211.650971
 31
0.0
  0
LINE
  8
SIZE
  6
CONTINUOUS
 62
    30
 10
-72.5
 20
211.650971
 30
0.0
 11
-52.5
 21
211.650971
 31
0.0
  0
CIRCLE
  8
SIZE
  6
CONTINUOUS
 62
    30
 10
-72.5
 20
211.650971
 30
0.0
 40
6.0
  0
LINE
  8
SIZE
  6
CONTINUOUS
 62
    30
 10
-72.5
 20
211.650971
 30
0.0
 11
-84.5
 21
211.650971
 31
0.0
  0
CIRCLE
  8
SIZE
  6
CONTINUOUS
 62
    30
 10
-52.5
 20
211.650971
 30
0.0
 40
6.0
  0
LINE
  8
SIZE
  6
CONTINUOUS
 62
    30
 10
-52.5
 20
211.650971
 30
0.0
 11
-40.5
 21
211.650971
 31
0.0
  0
LINE
  8
SIZE
  6
CONTINUOUS
 62
    30
 10
52.5
 20
119.0
 30
0.0
 11
52.5
 21
231.650971
 31
0.0
  0
LINE
  8
SIZE
  6
CONTINUOUS
 62
    30
 10
72.5
 20
119.0
 30
0.0
 11
72.5
 21
231.650971
 31
0.0
  0
LINE
  8
SIZE
  6
CONTINUOUS
 62
    30
 10
40.5
 20
211.650971
 30
0.0
 11
28.5
 21
211.650971
 31
0.0
  0
LINE
  8
SIZE
  6
CONTINUOUS
 62
    30
 10
84.5
 20
211.650971
 30
0.0
 11
96.5
 21
211.650971
 31
0.0
  0
LINE
  8
SIZE
  6
CONTINUOUS
 62
    30
 10
246.76684499999999
 20
211.650971
 30
0.0
 11
72.5
 21
211.650971
 31
0.0
  0
TEXT
  8
SIZE
  6
CONTINUOUS
 62
    30
 10
128.50970257142859
 20
236.650971
 30
0.0
 40
64.0
  1
20
 41
0.9
 72
     1
 11
175.138274
 21
236.650971
 31
0.0
  0
LINE
  8
SIZE
  6
CONTINUOUS
 62
    30
 10
52.5
 20
211.650971
 30
0.0
 11
72.5
 21
211.650971
 31
0.0
  0
LINE
  8
SIZE
  6
CONTINUOUS
 62
    30
 10
52.5
 20
211.650971
 30
0.0
 11
72.5
 21
211.650971
 31
0.0
  0
CIRCLE
  8
SIZE
  6
CONTINUOUS
 62
    30
 10
52.5
 20
211.650971
 30
0.0
 40
6.0
  0
LINE
  8
SIZE
  6
CONTINUOUS
 62
    30
 10
52.5
 20
211.650971
 30
0.0
 11
40.5
 21
211.650971
 31
0.0
  0
CIRCLE
  8
SIZE
  6
CONTINUOUS
 62
    30
 10
72.5
 20
211.650971
 30
0.0
 40
6.0
  0
LINE
  8
SIZE
  6
CONTINUOUS
 62
    30
 10
72.5
 20
211.650971
 30
0.0
 11
84.5
 21
211.650971
 31
0.0
  0
LINE
  8
SIZE
  6
CONTINUOUS
 62
    30
 10
-74.5
 20
211.650971
 30
0.0
 11
-263.97716400000002
 21
211.650971
 31
0.0
  0
LINE
  8
SIZE
  6
CONTINUOUS
 62
    30
 10
72.5
 20
211.650971
 30
0.0
 11
234.32476399999999
 21
211.650971
 31
0.0
  0
LINE
  8
SIZE
  6
CONTINUOUS
 62
    30
 10
-62.5
 20
139.0
 30
0.0
 11
-62.5
 21
361.96337499999998
 31
0.0
  0
LINE
  8
SIZE
  6
CONTINUOUS
 62
    30
 10
62.5
 20
139.0
 30
0.0
 11
62.5
 21
361.96337499999998
 31
0.0
  0
LINE
  8
SIZE
  6
CONTINUOUS
 62
    30
 10
-50.5
 20
341.96337499999998
 30
0.0
 11
50.5
 21
341.96337499999998
 31
0.0
  0
LINE
  8
SIZE
  6
CONTINUOUS
 62
    30
 10
277.95072800000003
 20
341.96337499999998
 30
0.0
 11
62.5
 21
341.96337499999998
 31
0.0
  0
TEXT
  8
SIZE
  6
CONTINUOUS
 62
    30
 10
115.80787042857141
 20
366.96337499999998
 30
0.0
 40
64.0
  1
125
 41
0.9
 72
     1
 11
184.379299
 21
366.96337499999998
 31
0.0
  0
CIRCLE
  8
SIZE
  6
CONTINUOUS
 62
    30
 10
-62.5
 20
341.96337499999998
 30
0.0
 40
6.0
  0
LINE
  8
SIZE
  6
CONTINUOUS
 62
    30
 10
-62.5
 20
341.96337499999998
 30
0.0
 11
-50.5
 21
341.96337499999998
 31
0.0
  0
CIRCLE
  8
SIZE
  6
CONTINUOUS
 62
    30
 10
62.5
 20
341.96337499999998
 30
0.0
 40
6.0
  0
LINE
  8
SIZE
  6
CONTINUOUS
 62
    30
 10
62.5
 20
341.96337499999998
 30
0.0
 11
50.5
 21
341.96337499999998
 31
0.0
  0
LINE
  8
SIZE
  6
CONTINUOUS
 62
    30
 10
64.5
 20
341.96337499999998
 30
0.0
 11
258.507003
 21
341.96337499999998
 31
0.0
  0
LINE
  8
BASIS
  6
DASHDOT
 62
     6
 10
-149.43306999999999
 20
0.0
 30
0.0
 11
108.3426322197238
 21
0.0
 31
0.0
  0
LINE
  8
BASIS
  6
DASHDOT
 62
     6
 10
60.098241999999999
 20
4.5
 30
0.0
 11
107.591449
 21
4.5
 31
0.0
  0
LINE
  8
SIZE
  6
CONTINUOUS
 62
    30
 10
-169.43306999999999
 20
0.0
 30
0.0
 11
-216.655126
 21
0.0
 31
0.0
  0
LINE
  8
SIZE
  6
CONTINUOUS
 62
    30
 10
-110.0
 20
-101.0
 30
0.0
 11
-216.655126
 21
-101.0
 31
0.0
  0
LINE
  8
SIZE
  6
CONTINUOUS
 62
    30
 10
-196.655126
 20
-12.0
 30
0.0
 11
-196.655126
 21
-89.0
 31
0.0
  0
LINE
  8
SIZE
  6
CONTINUOUS
 62
    30
 10
-196.655126
 20
-298.85910999999999
 30
0.0
 11
-196.655126
 21
-101.0
 31
0.0
  0
TEXT
  8
SIZE
  6
CONTINUOUS
 62
    30
 10
-221.655126
 20
-273.8591104285714
 30
0.0
 40
64.0
  1
101
 50
90.0
 41
0.9
 72
     1
 11
-221.655126
 21
-217.630539
 31
0.0
  0
CIRCLE
  8
SIZE
  6
CONTINUOUS
 62
    30
 10
-196.655126
 20
0.0
 30
0.0
 40
6.0
  0
LINE
  8
SIZE
  6
CONTINUOUS
 62
    30
 10
-196.655126
 20
0.0
 30
0.0
 11
-196.655126
 21
-12.0
 31
0.0
  0
CIRCLE
  8
SIZE
  6
CONTINUOUS
 62
    30
 10
-196.655126
 20
-101.0
 30
0.0
 40
6.0
  0
LINE
  8
SIZE
  6
CONTINUOUS
 62
    30
 10
-196.655126
 20
-101.0
 30
0.0
 11
-196.655126
 21
-89.0
 31
0.0
  0
LINE
  8
SIZE
  6
CONTINUOUS
 62
    30
 10
-196.655126
 20
-101.0
 30
0.0
 11
-196.655126
 21
-281.73162600000001
 31
0.0
  0
LINE
  8
NOTE
  6
CONTINUOUS
 62
     4
 10
-62.5
 20
80.0
 30
0.0
 11
-346.866446
 21
193.45399699999999
 31
0.0
  0
LINE
  8
NOTE
  6
CONTINUOUS
 62
     4
 10
-94.528597999999988
 20
103.961822
 30
0.0
 11
-62.5
 21
80.0
 31
0.0
  0
LINE
  8
NOTE
  6
CONTINUOUS
 62
     4
 10
-62.5
 20
80.0
 30
0.0
 11
-102.218491
 21
84.737246999999968
 31
0.0
  0
LINE
  8
SIZE
  6
CONTINUOUS
 62
    30
 10
-151.0
 20
40.699999999999989
 30
0.0
 11
-344.78140299999978
 21
40.699999999999989
 31
0.0
  0
LINE
  8
SIZE
  6
CONTINUOUS
 62
    30
 10
-151.0
 20
-40.699999999999989
 30
0.0
 11
-344.78140299999978
 21
-40.699999999999989
 31
0.0
  0
LINE
  8
SIZE
  6
CONTINUOUS
 62
    30
 10
-324.78140300000001
 20
28.699999999999989
 30
0.0
 11
-324.78140300000001
 21
-28.699999999999989
 31
0.0
  0
LINE
  8
SIZE
  6
CONTINUOUS
 62
    30
 10
-324.78140300000001
 20
-409.24867300000011
 30
0.0
 11
-324.78140300000001
 21
-40.699999999999989
 31
0.0
  0
TEXT
  8
SIZE
  6
CONTINUOUS
 62
    30
 10
-349.78140300000001
 20
-385.62010142857139
 30
0.0
 40
64.0
  1
φ81.4
 50
90.0
 41
0.9
 72
     1
 11
-349.78140300000001
 21
-271.79153000000002
 31
0.0
  0
CIRCLE
  8
SIZE
  6
CONTINUOUS
 62
    30
 10
-324.78140300000001
 20
40.699999999999989
 30
0.0
 40
6.0
  0
LINE
  8
SIZE
  6
CONTINUOUS
 62
    30
 10
-324.78140300000001
 20
40.699999999999989
 30
0.0
 11
-324.78140300000001
 21
28.699999999999989
 31
0.0
  0
CIRCLE
  8
SIZE
  6
CONTINUOUS
 62
    30
 10
-324.78140300000001
 20
-40.699999999999989
 30
0.0
 40
6.0
  0
LINE
  8
SIZE
  6
CONTINUOUS
 62
    30
 10
-324.78140300000001
 20
-40.699999999999989
 30
0.0
 11
-324.78140300000001
 21
-28.699999999999989
 31
0.0
  0
LINE
  8
SIZE
  6
CONTINUOUS
 62
    30
 10
-324.78140300000001
 20
-40.699999999999989
 30
0.0
 11
-324.78140300000001
 21
-379.29798299999987
 31
0.0
  0
LINE
  8
DETAIL
  6
CONTINUOUS
 62
     5
 10
-131.0
 20
-40.699999999999989
 30
0.0
 11
-101.5
 21
-40.699999999999989
 31
0.0
  0
ARC
  8
DETAIL
  6
CONTINUOUS
 62
     5
 10
-131.0
 20
-38.200000000000053
 30
0.0
 40
2.5
 50
180.0
 51
270.0
  0
TEXT
  8
NOTE
  6
CONTINUOUS
 62
     4
 10
172.630585
 20
-65.043827000000022
 30
0.0
 40
64.0
  1
入口
 50
90.0
 41
0.9
  0
TEXT
  8
NOTE
  6
CONTINUOUS
 62
     4
 10
-61.675775000000002
 20
-207.699938
 30
0.0
 40
64.0
  1
出口
 41
0.9
  0
TEXT
  8
NOTE
  6
CONTINUOUS
 62
     4
 10
-963.14891399999999
 20
225.35016999999999
 30
0.0
 40
64.0
  1
AH
 41
0.9
  0
LINE
  8
NOTE
  6
CONTINUOUS
 62
     4
 10
-515.97559100000001
 20
193.45399699999999
 30
0.0
 11
-346.866446
 21
193.45399699999999
 31
0.0
  0
LINE
  8
DETAIL
  6
CONTINUOUS
 62
     5
 10
65.5
 20
-86.0
 30
0.0
 11
65.5
 21
-78.0
 31
0.0
  0
LINE
  8
DETAIL
  6
CONTINUOUS
 62
     5
 10
59.5
 20
-86.0
 30
0.0
 11
59.5
 21
-78.0
 31
0.0
  0
ARC
  8
DETAIL
  6
CONTINUOUS
 62
     5
 10
62.5
 20
-82.0
 30
0.0
 40
5.0
 50
233.13010199999869
 51
306.86989799999799
  0
ARC
  8
DETAIL
  6
CONTINUOUS
 62
     5
 10
62.5
 20
-82.0
 30
0.0
 40
5.0
 50
53.130101999998729
 51
126.869897999998
  0
CIRCLE
  8
FIX
  6
CONTINUOUS
 62
    11
 10
62.5
 20
-82.0
 30
0.0
 40
3.0
  0
LINE
  8
NOTE
  6
CONTINUOUS
 62
     4
 10
62.5
 20
-102.0
 30
0.0
 11
62.5
 21
-62.0
 31
0.0
  0
LINE
  8
NOTE
  6
CONTINUOUS
 62
     4
 10
42.5
 20
-82.0
 30
0.0
 11
82.5
 21
-82.0
 31
0.0
  0
CIRCLE
  8
FIX
  6
CONTINUOUS
 62
    11
 10
62.5
 20
80.0
 30
0.0
 40
3.0
  0
ARC
  8
DETAIL
  6
CONTINUOUS
 62
     5
 10
62.5
 20
80.0
 30
0.0
 40
5.0
 50
53.130101999998729
 51
126.869897999998
  0
ARC
  8
DETAIL
  6
CONTINUOUS
 62
     5
 10
62.5
 20
80.0
 30
0.0
 40
5.0
 50
233.13010199999869
 51
306.86989799999799
  0
LINE
  8
DETAIL
  6
CONTINUOUS
 62
     5
 10
59.5
 20
76.0
 30
0.0
 11
59.5
 21
84.0
 31
0.0
  0
LINE
  8
DETAIL
  6
CONTINUOUS
 62
     5
 10
65.5
 20
76.0
 30
0.0
 11
65.5
 21
84.0
 31
0.0
  0
LINE
  8
NOTE
  6
CONTINUOUS
 62
     4
 10
62.5
 20
60.0
 30
0.0
 11
62.5
 21
100.0
 31
0.0
  0
LINE
  8
NOTE
  6
CONTINUOUS
 62
     4
 10
42.5
 20
80.0
 30
0.0
 11
82.5
 21
80.0
 31
0.0
  0
LINE
  8
SIZE
  6
CONTINUOUS
 62
    30
 10
-102.5
 20
80.0
 30
0.0
 11
-413.43610999999993
 21
80.0
 31
0.0
  0
LINE
  8
SIZE
  6
CONTINUOUS
 62
    30
 10
-102.5
 20
-82.0
 30
0.0
 11
-413.43610999999993
 21
-82.0
 31
0.0
  0
LINE
  8
SIZE
  6
CONTINUOUS
 62
    30
 10
-393.43610999999999
 20
68.0
 30
0.0
 11
-393.43610999999999
 21
-70.0
 31
0.0
  0
TEXT
  8
SIZE
  6
CONTINUOUS
 62
    30
 10
-421.20694699999979
 20
-69.571428571428569
 30
0.0
 40
64.0
  1
162
 50
90.0
 41
0.9
 72
     1
 11
-421.20694699999979
 21
-1.0
 31
0.0
  0
CIRCLE
  8
SIZE
  6
CONTINUOUS
 62
    30
 10
-393.43610999999999
 20
80.0
 30
0.0
 40
6.0
  0
LINE
  8
SIZE
  6
CONTINUOUS
 62
    30
 10
-393.43610999999999
 20
80.0
 30
0.0
 11
-393.43610999999999
 21
68.0
 31
0.0
  0
CIRCLE
  8
SIZE
  6
CONTINUOUS
 62
    30
 10
-393.43610999999999
 20
-82.0
 30
0.0
 40
6.0
  0
LINE
  8
SIZE
  6
CONTINUOUS
 62
    30
 10
-393.43610999999999
 20
-82.0
 30
0.0
 11
-393.43610999999999
 21
-70.0
 31
0.0
  0
LINE
  8
SIZE
  6
CONTINUOUS
 62
    30
 10
92.5
 20
-101.0
 30
0.0
 11
300.04763400000002
 21
-101.0
 31
0.0
  0
LINE
  8
SIZE
  6
CONTINUOUS
 62
    30
 10
127.591449
 20
4.5
 30
0.0
 11
300.04763400000002
 21
4.5
 31
0.0
  0
LINE
  8
SIZE
  6
CONTINUOUS
 62
    30
 10
280.0476339999999
 20
-89.0
 30
0.0
 11
280.0476339999999
 21
-7.5
 31
0.0
  0
LINE
  8
SIZE
  6
CONTINUOUS
 62
    30
 10
280.0476339999999
 20
-442.78845899999988
 30
0.0
 11
280.0476339999999
 21
-101.0
 31
0.0
  0
TEXT
  8
SIZE
  6
CONTINUOUS
 62
    30
 10
255.04763399999999
 20
-417.7884587142857
 30
0.0
 40
64.0
  1
105.5
 50
90.0
 41
0.9
 72
     1
 11
255.04763399999999
 21
-308.07417299999997
 31
0.0
  0
CIRCLE
  8
SIZE
  6
CONTINUOUS
 62
    30
 10
280.0476339999999
 20
-101.0
 30
0.0
 40
6.0
  0
LINE
  8
SIZE
  6
CONTINUOUS
 62
    30
 10
280.0476339999999
 20
-101.0
 30
0.0
 11
280.0476339999999
 21
-89.0
 31
0.0
  0
CIRCLE
  8
SIZE
  6
CONTINUOUS
 62
    30
 10
280.0476339999999
 20
4.5
 30
0.0
 40
6.0
  0
LINE
  8
SIZE
  6
CONTINUOUS
 62
    30
 10
280.0476339999999
 20
4.5
 30
0.0
 11
280.0476339999999
 21
-7.5
 31
0.0
  0
TEXT
  8
ETC
  6
CONTINUOUS
 62
    61
 10
316.23372693803748
 20
474.44390565107528
 30
0.0
 40
64.0
  1
産業扇
 41
0.9
  0
TEXT
  8
ETC
  6
CONTINUOUS
 62
    61
 10
311.40145893803748
 20
585.78853565107534
 30
0.0
 40
64.0
  1
BF-12S5_6
 41
0.9
  0
TEXT
  8
ETC
  6
CONTINUOUS
 62
    61
 10
400.09766904558609
 20
364.59010442471629
 30
0.0
 40
64.0
  1
BF-12S5
 41
0.9
  0
TEXT
  8
ETC
  6
CONTINUOUS
 62
    61
 10
400.09766904558609
 20
264.45665234331432
 30
0.0
 40
64.0
  1
BF-14S5
 41
0.9
  0
ARC
  8
OUTLINE
  6
CONTINUOUS
 62
     3
 10
-131.0
 20
38.199999999999989
 30
0.0
 40
2.5
 50
90.0
 51
180.0
  0
ARC
  8
OUTLINE
  6
CONTINUOUS
 62
     3
 10
-128.5
 20
-63.455336999999993
 30
0.0
 40
5.0
 50
180.0
 51
270.0
  0
ARC
  8
OUTLINE
  6
CONTINUOUS
 62
     3
 10
-96.5
 20
62.055973999999992
 30
0.0
 40
5.0
 50
90.0
 51
180.0
  0
ARC
  8
OUTLINE
  6
CONTINUOUS
 62
     3
 10
-96.5
 20
-77.944026000000008
 30
0.0
 40
5.0
 50
180.0
 51
270.0
  0
LINE
  8
OUTLINE
  6
CONTINUOUS
 62
     3
 10
-101.5
 20
-77.944026000000008
 30
0.0
 11
-101.5
 21
-68.455336999999986
 31
0.0
  0
LINE
  8
OUTLINE
  6
CONTINUOUS
 62
     3
 10
-101.5
 20
40.699999999999989
 30
0.0
 11
-101.5
 21
62.055973999999992
 31
0.0
  0
LINE
  8
OUTLINE
  6
CONTINUOUS
 62
     3
 10
-133.5
 20
-63.455336999999993
 30
0.0
 11
-133.5
 21
38.199999999999989
 31
0.0
  0
LINE
  8
OUTLINE
  6
CONTINUOUS
 62
     3
 10
-128.5
 20
-68.455336999999986
 30
0.0
 11
-101.5
 21
-68.455336999999986
 31
0.0
  0
LINE
  8
OUTLINE
  6
CONTINUOUS
 62
     3
 10
-131.0
 20
40.699999999999989
 30
0.0
 11
-101.5
 21
40.699999999999989
 31
0.0
  0
LINE
  8
OUTLINE
  6
CONTINUOUS
 62
     3
 10
-96.5
 20
-82.944026000000008
 30
0.0
 11
-72.5
 21
-82.944026000000008
 31
0.0
  0
LINE
  8
OUTLINE
  6
CONTINUOUS
 62
     3
 10
-96.5
 20
67.055973999999992
 30
0.0
 11
-72.5
 21
67.055973999999992
 31
0.0
  0
LINE
  8
OUTLINE
  6
CONTINUOUS
 62
     3
 10
-72.5
 20
99.0
 30
0.0
 11
-52.5
 21
99.0
 31
0.0
  0
LINE
  8
OUTLINE
  6
CONTINUOUS
 62
     3
 10
-72.5
 20
-101.0
 30
0.0
 11
-72.5
 21
-82.944026000000008
 31
0.0
  0
LINE
  8
OUTLINE
  6
CONTINUOUS
 62
     3
 10
-72.5
 20
67.055973999999992
 30
0.0
 11
-72.5
 21
99.0
 31
0.0
  0
LINE
  8
OUTLINE
  6
CONTINUOUS
 62
     3
 10
72.5
 20
-101.0
 30
0.0
 11
72.5
 21
99.0
 31
0.0
  0
LINE
  8
OUTLINE
  6
CONTINUOUS
 62
     3
 10
-52.5
 20
74.0
 30
0.0
 11
-52.5
 21
99.0
 31
0.0
  0
LINE
  8
OUTLINE
  6
CONTINUOUS
 62
     3
 10
52.5
 20
74.0
 30
0.0
 11
52.5
 21
99.0
 31
0.0
  0
LINE
  8
OUTLINE
  6
CONTINUOUS
 62
     3
 10
-52.5
 20
74.0
 30
0.0
 11
52.5
 21
74.0
 31
0.0
  0
LINE
  8
OUTLINE
  6
CONTINUOUS
 62
     3
 10
52.5
 20
99.0
 30
0.0
 11
72.5
 21
99.0
 31
0.0
  0
LINE
  8
OUTLINE
  6
CONTINUOUS
 62
     3
 10
-90.0
 20
-103.0
 30
0.0
 11
-90.0
 21
-101.0
 31
0.0
  0
LINE
  8
OUTLINE
  6
CONTINUOUS
 62
     3
 10
90.0
 20
-103.0
 30
0.0
 11
90.0
 21
-101.0
 31
0.0
  0
LINE
  8
OUTLINE
  6
CONTINUOUS
 62
     3
 10
-72.5
 20
-101.0
 30
0.0
 11
-90.0
 21
-101.0
 31
0.0
  0
LINE
  8
OUTLINE
  6
CONTINUOUS
 62
     3
 10
72.5
 20
-101.0
 30
0.0
 11
90.0
 21
-101.0
 31
0.0
  0
LINE
  8
OUTLINE
  6
CONTINUOUS
 62
     3
 10
-90.0
 20
-103.0
 30
0.0
 11
90.0
 21
-103.0
 31
0.0
  0
ENDSEC
  0
EOF
