  0
SECTION
  2
HEADER
  9
$ACADVER
  1
AC1009
  9
$INSBASE
 10
0.0
 20
0.0
 30
0.0
  9
$EXTMIN
 10
-829.54667099999995
 20
-588.889816
 30
0.0
  9
$EXTMAX
 10
830.04659567954593
 20
687.36196633063173
 30
0.0
  9
$LIMMIN
 10
-2970.0
 20
-2100.0
  9
$LIMMAX
 10
2970.0
 20
2100.0
  9
$ORTHOMODE
 70
     1
  9
$REGENMODE
 70
     0
  9
$FILLMODE
 70
     1
  9
$QTEXTMODE
 70
     0
  9
$MIRRTEXT
 70
     0
  9
$DRAGMODE
 70
     2
  9
$LTSCALE
 40
20.0
  9
$OSMODE
 70
    37
  9
$ATTMODE
 70
     1
  9
$TEXTSIZE
 40
64.0
  9
$TRACEWID
 40
0.05
  9
$TEXTSTYLE
  7
STANDARD
  9
$CLAYER
  8
SIZE
  9
$CELTYPE
  6
CONTINUOUS
  9
$CECOLOR
 62
    30
  9
$DIMSCALE
 40
1.0
  9
$DIMASZ
 40
12.0
  9
$DIMEXO
 40
20.0
  9
$DIMDLI
 40
200.0
  9
$DIMRND
 40
0.0
  9
$DIMDLE
 40
0.0
  9
$DIMEXE
 40
20.0
  9
$DIMTP
 40
0.0
  9
$DIMTM
 40
0.0
  9
$DIMTXT
 40
64.0
  9
$DIMCEN
 40
0.09
  9
$DIMTSZ
 40
0.0
  9
$DIMTOL
 70
     0
  9
$DIMLIM
 70
     0
  9
$DIMTIH
 70
     0
  9
$DIMTOH
 70
     0
  9
$DIMSE1
 70
     0
  9
$DIMSE2
 70
     0
  9
$DIMTAD
 70
     1
  9
$DIMZIN
 70
     8
  9
$DIMBLK
  1
DOT1
  9
$DIMASO
 70
     1
  9
$DIMSHO
 70
     0
  9
$DIMPOST
  1

  9
$DIMAPOST
  1

  9
$DIMALT
 70
     0
  9
$DIMALTD
 70
     2
  9
$DIMALTF
 40
25.399999999999999
  9
$DIMLFAC
 40
1.0
  9
$DIMTOFL
 70
     1
  9
$DIMTVP
 40
0.0
  9
$DIMTIX
 70
     1
  9
$DIMSOXD
 70
     0
  9
$DIMSAH
 70
     1
  9
$DIMBLK1
  1
ORIGIN
  9
$DIMBLK2
  1
ORIGIN
  9
$DIMSTYLE
  2
STANDARD
  9
$DIMCLRD
 70
     0
  9
$DIMCLRE
 70
     0
  9
$DIMCLRT
 70
     0
  9
$DIMTFAC
 40
1.0
  9
$DIMGAP
 40
0.09
  9
$LUNITS
 70
     2
  9
$LUPREC
 70
     4
  9
$SKETCHINC
 40
0.1
  9
$FILLETRAD
 40
4.0
  9
$AUNITS
 70
     1
  9
$AUPREC
 70
     3
  9
$MENU
  1
ACAD
  9
$ELEVATION
 40
0.0
  9
$PELEVATION
 40
0.0
  9
$THICKNESS
 40
50.0
  9
$LIMCHECK
 70
     0
  9
$BLIPMODE
 70
     0
  9
$CHAMFERA
 40
0.0
  9
$CHAMFERB
 40
0.0
  9
$SKPOLY
 70
     0
  9
$TDCREATE
 40
2452321.3961996529
  9
$TDUPDATE
 40
2454922.6369622112
  9
$TDINDWG
 40
0.1053987269
  9
$TDUSRTIMER
 40
0.1053987269
  9
$USRTIMER
 70
     1
  9
$ANGBASE
 50
0.0
  9
$ANGDIR
 70
     0
  9
$PDMODE
 70
     3
  9
$PDSIZE
 40
-2.0
  9
$PLINEWID
 40
0.0
  9
$COORDS
 70
     0
  9
$SPLFRAME
 70
     0
  9
$SPLINETYPE
 70
     6
  9
$SPLINESEGS
 70
     8
  9
$ATTDIA
 70
     0
  9
$ATTREQ
 70
     1
  9
$HANDLING
 70
     1
  9
$HANDSEED
  5
1BC
  9
$SURFTAB1
 70
     6
  9
$SURFTAB2
 70
     6
  9
$SURFTYPE
 70
     6
  9
$SURFU
 70
     6
  9
$SURFV
 70
     6
  9
$UCSNAME
  2

  9
$UCSORG
 10
0.0
 20
0.0
 30
0.0
  9
$UCSXDIR
 10
1.0
 20
0.0
 30
0.0
  9
$UCSYDIR
 10
0.0
 20
1.0
 30
0.0
  9
$PUCSNAME
  2

  9
$PUCSORG
 10
0.0
 20
0.0
 30
0.0
  9
$PUCSXDIR
 10
1.0
 20
0.0
 30
0.0
  9
$PUCSYDIR
 10
0.0
 20
1.0
 30
0.0
  9
$USERI1
 70
     0
  9
$USERI2
 70
     0
  9
$USERI3
 70
     0
  9
$USERI4
 70
     0
  9
$USERI5
 70
     0
  9
$USERR1
 40
20.0
  9
$USERR2
 40
0.0
  9
$USERR3
 40
0.0
  9
$USERR4
 40
0.0
  9
$USERR5
 40
0.0
  9
$WORLDVIEW
 70
     1
  9
$SHADEDGE
 70
     3
  9
$SHADEDIF
 70
    70
  9
$TILEMODE
 70
     1
  9
$MAXACTVP
 70
    64
  9
$PLIMCHECK
 70
     0
  9
$PEXTMIN
 10
1.0000000000000000E+020
 20
1.0000000000000000E+020
 30
1.0000000000000000E+020
  9
$PEXTMAX
 10
-1.0000000000000000E+020
 20
-1.0000000000000000E+020
 30
-1.0000000000000000E+020
  9
$PLIMMIN
 10
0.0
 20
0.0
  9
$PLIMMAX
 10
12.0
 20
9.0
  9
$UNITMODE
 70
     0
  9
$VISRETAIN
 70
     1
  9
$PLINEGEN
 70
     0
  9
$PSLTSCALE
 70
     1
  0
ENDSEC
  0
SECTION
  2
TABLES
  0
TABLE
  2
VPORT
 70
     1
  0
VPORT
  2
*ACTIVE
 70
     0
 10
0.0
 20
0.0
 11
1.0
 21
1.0
 12
64.855357218053314
 22
121.8854377050319
 13
0.0
 23
0.0
 14
1.0
 24
1.0
 15
0.0
 25
0.0
 16
0.0
 26
0.0
 36
1.0
 17
0.0
 27
0.0
 37
0.0
 40
1556.3409623659149
 41
1.3387096774193541
 42
50.0
 43
0.0
 44
0.0
 50
0.0
 51
0.0
 71
     0
 72
   100
 73
     1
 74
     0
 75
     0
 76
     0
 77
     0
 78
     0
  0
ENDTAB
  0
TABLE
  2
LTYPE
 70
     2
  0
LTYPE
  2
CONTINUOUS
 70
     0
  3
実線
 72
    65
 73
     0
 40
0.0
  0
LTYPE
  2
DASHDOT
 70
     0
  3
____ _ ____ _ ____ _ ____ _ ____ _ ____ _ ____
 72
    65
 73
     4
 40
5.5
 49
4.0
 49
-0.6
 49
0.3
 49
-0.6
  0
ENDTAB
  0
TABLE
  2
LAYER
 70
    12
  0
LAYER
  2
0
 70
     0
 62
     7
  6
CONTINUOUS
  0
LAYER
  2
SIZE
 70
     0
 62
     4
  6
CONTINUOUS
  0
LAYER
  2
BASIS
 70
     0
 62
     6
  6
DASHDOT
  0
LAYER
  2
OUTLINE
 70
     0
 62
     3
  6
CONTINUOUS
  0
LAYER
  2
DETAIL
 70
     0
 62
     5
  6
CONTINUOUS
  0
LAYER
  2
ARRANGE
 70
     0
 62
     1
  6
CONTINUOUS
  0
LAYER
  2
DEFPOINTS
 70
     0
 62
     7
  6
CONTINUOUS
  0
LAYER
  2
ETC
 70
     0
 62
    61
  6
CONTINUOUS
  0
LAYER
  2
FIX
 70
     0
 62
     7
  6
CONTINUOUS
  0
LAYER
  2
NOTE
 70
     0
 62
     4
  6
CONTINUOUS
  0
LAYER
  2
SERVICESPACE
 70
     0
 62
     2
  6
DASHDOT
  0
LAYER
  2
SYMBOLLINE
 70
     0
 62
    15
  6
CONTINUOUS
  0
ENDTAB
  0
TABLE
  2
STYLE
 70
     2
  0
STYLE
  2
STANDARD
 70
     0
 40
64.0
 41
0.9
 50
0.0
 71
     0
 42
64.0
  3
SIMPLEX.shx
  4
BIGFONT.shx
  0
STYLE
  2
ANNOTATIVE
 70
     0
 40
0.0
 41
1.0
 50
0.0
 71
     0
 42
0.2
  3
txt
  4

  0
ENDTAB
  0
TABLE
  2
VIEW
 70
     1
  0
VIEW
  2
ALL
 70
     0
 40
4282.6198079999986
 10
0.0
 20
41.309903999999989
 41
5940.0
 11
0.0
 21
0.0
 31
1.0
 12
0.0
 22
0.0
 32
0.0
 42
50.0
 43
0.0
 44
0.0
 50
0.0
 71
     0
  0
ENDTAB
  0
TABLE
  2
UCS
 70
     0
  0
ENDTAB
  0
TABLE
  2
APPID
 70
     4
  0
APPID
  2
ACAD
 70
     0
  0
APPID
  2
ACADANNOTATIVE
 70
     0
  0
APPID
  2
ACAD_MLEADERVER
 70
     0
  0
APPID
  2
ACAD_EXEMPT_FROM_CAD_STANDARDS
 70
     0
  0
ENDTAB
  0
TABLE
  2
DIMSTYLE
 70
     2
  0
DIMSTYLE
  2
STANDARD
 70
     0
  3

  4

  5

  6

  7

 40
1.0
 41
0.18
 42
0.0625
 43
0.38
 44
0.18
 45
0.0
 46
0.0
 47
0.0
 48
0.0
140
0.18
141
0.09
142
0.0
143
25.399999999999999
144
1.0
145
0.0
146
1.0
147
0.09
 71
     0
 72
     0
 73
     1
 74
     1
 75
     0
 76
     0
 77
     0
 78
     0
170
     0
171
     2
172
     0
173
     0
174
     0
175
     0
176
     0
177
     0
178
     0
  0
DIMSTYLE
  2
ANNOTATIVE
 70
     0
  3

  4

  5

  6

  7

 40
1.0
 41
0.18
 42
0.0625
 43
0.38
 44
0.18
 45
0.0
 46
0.0
 47
0.0
 48
0.0
140
0.18
141
0.09
142
0.0
143
25.399999999999999
144
1.0
145
0.0
146
1.0
147
0.09
 71
     0
 72
     0
 73
     1
 74
     1
 75
     0
 76
     0
 77
     0
 78
     0
170
     0
171
     2
172
     0
173
     0
174
     0
175
     0
176
     0
177
     0
178
     0
  0
ENDTAB
  0
ENDSEC
  0
SECTION
  2
BLOCKS
  0
BLOCK
  8
0
  2
$MODEL_SPACE
 70
     0
 10
0.0
 20
0.0
 30
0.0
  3
$MODEL_SPACE
  1

  0
ENDBLK
  5
76
  8
0
  0
BLOCK
 67
     1
  8
0
  2
$PAPER_SPACE
 70
     0
 10
0.0
 20
0.0
 30
0.0
  3
$PAPER_SPACE
  1

  0
ENDBLK
  5
72
 67
     1
  8
0
  0
BLOCK
  8
0
  2
DOT1
 70
     0
 10
0.0
 20
0.0
 30
0.0
  3
DOT1
  1

  0
CIRCLE
  5
8B
  8
SIZE
  6
CONTINUOUS
 62
     7
 10
0.0
 20
0.0
 30
0.0
 40
3.0
  0
ENDBLK
  5
8C
  8
0
  0
BLOCK
  8
0
  2
_ORIGIN
 70
     0
 10
0.0
 20
0.0
 30
0.0
  3
_ORIGIN
  1

  0
CIRCLE
  5
8F
  8
0
  6
CONTINUOUS
 62
     7
 10
0.0
 20
0.0
 30
0.0
 40
0.5
  0
LINE
  5
90
  8
0
  6
CONTINUOUS
 62
     7
 10
0.0
 20
0.0
 30
0.0
 11
-1.0
 21
0.0
 31
0.0
  0
ENDBLK
  5
91
  8
0
  0
ENDSEC
  0
SECTION
  2
ENTITIES
  0
LINE
  5
93
  8
DETAIL
  6
CONTINUOUS
 62
     5
 10
65.0
 20
125.0
 30
0.0
 11
85.0
 21
125.0
 31
0.0
  0
LINE
  5
94
  8
DETAIL
  6
CONTINUOUS
 62
     5
 10
-65.0
 20
100.0
 30
0.0
 11
65.0
 21
100.0
 31
0.0
  0
LINE
  5
95
  8
DETAIL
  6
CONTINUOUS
 62
     5
 10
-65.0
 20
-100.0
 30
0.0
 11
65.0
 21
-100.0
 31
0.0
  0
LINE
  5
96
  8
DETAIL
  6
CONTINUOUS
 62
     5
 10
65.0
 20
-125.0
 30
0.0
 11
65.0
 21
125.0
 31
0.0
  0
LINE
  5
97
  8
DETAIL
  6
CONTINUOUS
 62
     5
 10
-65.0
 20
-125.0
 30
0.0
 11
-65.0
 21
125.0
 31
0.0
  0
LINE
  5
98
  8
DETAIL
  6
CONTINUOUS
 62
     5
 10
85.0
 20
-125.0
 30
0.0
 11
85.0
 21
125.0
 31
0.0
  0
LINE
  5
99
  8
DETAIL
  6
CONTINUOUS
 62
     5
 10
-85.0
 20
-125.0
 30
0.0
 11
-85.0
 21
125.0
 31
0.0
  0
LINE
  5
9A
  8
BASIS
  6
DASHDOT
 62
     6
 10
0.0
 20
-188.155407
 30
0.0
 11
0.0
 21
151.359667
 31
0.0
  0
LINE
  5
9B
  8
DETAIL
  6
CONTINUOUS
 62
     5
 10
-85.0
 20
125.0
 30
0.0
 11
-65.0
 21
125.0
 31
0.0
  0
LINE
  5
9C
  8
DETAIL
  6
CONTINUOUS
 62
     5
 10
-72.5
 20
-125.0
 30
0.0
 11
72.5
 21
-125.0
 31
0.0
  0
LINE
  5
9D
  8
BASIS
  6
DASHDOT
 62
     6
 10
-188.44580400000001
 20
0.0
 30
0.0
 11
148.79127299999999
 21
0.0
 31
0.0
  0
LINE
  5
9E
  8
DETAIL
  6
CONTINUOUS
 62
     5
 10
-90.0
 20
-127.0
 30
0.0
 11
-90.0
 21
-125.0
 31
0.0
  0
LINE
  5
9F
  8
DETAIL
  6
CONTINUOUS
 62
     5
 10
90.0
 20
-127.0
 30
0.0
 11
90.0
 21
-125.0
 31
0.0
  0
LINE
  5
A0
  8
DETAIL
  6
CONTINUOUS
 62
     5
 10
-72.5
 20
-125.0
 30
0.0
 11
-90.0
 21
-125.0
 31
0.0
  0
LINE
  5
A1
  8
DETAIL
  6
CONTINUOUS
 62
     5
 10
72.5
 20
-125.0
 30
0.0
 11
90.0
 21
-125.0
 31
0.0
  0
CIRCLE
  5
A2
  8
FIX
  6
CONTINUOUS
 62
    11
 10
-75.0
 20
-95.0
 30
0.0
 40
3.0
  0
ARC
  5
A3
  8
DETAIL
  6
CONTINUOUS
 62
     5
 10
-75.0
 20
-95.0
 30
0.0
 40
5.0
 50
53.130102000000001
 51
126.86989800000001
  0
ARC
  5
A4
  8
DETAIL
  6
CONTINUOUS
 62
     5
 10
-75.0
 20
-95.0
 30
0.0
 40
5.0
 50
233.13010199999999
 51
306.86989799999998
  0
LINE
  5
A5
  8
DETAIL
  6
CONTINUOUS
 62
     5
 10
-72.0
 20
-99.0
 30
0.0
 11
-72.0
 21
-91.0
 31
0.0
  0
LINE
  5
A6
  8
DETAIL
  6
CONTINUOUS
 62
     5
 10
-78.0
 20
-99.0
 30
0.0
 11
-78.0
 21
-91.0
 31
0.0
  0
LINE
  5
A7
  8
NOTE
  6
CONTINUOUS
 62
     4
 10
-75.0
 20
-115.0
 30
0.0
 11
-75.0
 21
-75.0
 31
0.0
  0
LINE
  5
A8
  8
NOTE
  6
CONTINUOUS
 62
     4
 10
-55.0
 20
-95.0
 30
0.0
 11
-95.0
 21
-95.0
 31
0.0
  0
LINE
  5
A9
  8
DETAIL
  6
CONTINUOUS
 62
     5
 10
-109.0
 20
95.295981000000012
 30
0.0
 11
-85.0
 21
95.295981000000012
 31
0.0
  0
LINE
  5
AA
  8
DETAIL
  6
CONTINUOUS
 62
     5
 10
-109.0
 20
-94.693542000000008
 30
0.0
 11
-85.0
 21
-94.693542000000008
 31
0.0
  0
LINE
  5
AB
  8
DETAIL
  6
CONTINUOUS
 62
     5
 10
-114.0
 20
-89.693542000000008
 30
0.0
 11
-114.0
 21
90.295981000000012
 31
0.0
  0
ARC
  5
AC
  8
DETAIL
  6
CONTINUOUS
 62
     5
 10
-109.0
 20
-89.693542000000008
 30
0.0
 40
5.0
 50
180.0
 51
270.0
  0
ARC
  5
AD
  8
DETAIL
  6
CONTINUOUS
 62
     5
 10
-109.0
 20
90.295981000000012
 30
0.0
 40
5.0
 50
90.0
 51
180.0
  0
CIRCLE
  5
AE
  8
FIX
  6
CONTINUOUS
 62
    11
 10
-75.0
 20
125.0
 30
0.0
 40
3.0
  0
LINE
  5
AF
  8
NOTE
  6
CONTINUOUS
 62
     4
 10
-75.0
 20
105.0
 30
0.0
 11
-75.0
 21
145.0
 31
0.0
  0
LINE
  5
B0
  8
NOTE
  6
CONTINUOUS
 62
     4
 10
-55.0
 20
125.0
 30
0.0
 11
-95.0
 21
125.0
 31
0.0
  0
CIRCLE
  5
B1
  8
FIX
  6
CONTINUOUS
 62
    11
 10
75.0
 20
125.0
 30
0.0
 40
3.0
  0
LINE
  5
B2
  8
NOTE
  6
CONTINUOUS
 62
     4
 10
75.0
 20
105.0
 30
0.0
 11
75.0
 21
145.0
 31
0.0
  0
LINE
  5
B3
  8
NOTE
  6
CONTINUOUS
 62
     4
 10
95.0
 20
125.0
 30
0.0
 11
55.0
 21
125.0
 31
0.0
  0
TEXT
  5
B4
  8
NOTE
  6
CONTINUOUS
 62
     4
 10
-644.54664600000001
 20
-549.84537199999988
 30
0.0
 40
64.0
  1
12-φ6×10
 41
0.9
  0
LINE
  5
B5
  8
NOTE
  6
CONTINUOUS
 62
     4
 10
-652.89600999999993
 20
-588.889816
 30
0.0
 11
-181.34005500000001
 21
-588.889816
 31
0.0
  0
LINE
  5
B6
  8
NOTE
  6
CONTINUOUS
 62
     4
 10
-75.0
 20
-95.0
 30
0.0
 11
-181.34005500000001
 21
-588.889816
 31
0.0
  0
LINE
  5
B7
  8
NOTE
  6
CONTINUOUS
 62
     4
 10
-72.862736999999996
 20
-134.94286099999999
 30
0.0
 11
-75.0
 21
-95.0
 31
0.0
  0
LINE
  5
B8
  8
NOTE
  6
CONTINUOUS
 62
     4
 10
-75.0
 20
-95.0
 30
0.0
 11
-93.120506999999975
 21
-130.66016300000001
 31
0.0
  0
POINT
  5
B9
  8
ARRANGE
  6
CONTINUOUS
 62
     1
 10
0.0
 20
0.0
 30
0.0
  0
CIRCLE
  5
BA
  8
ARRANGE
  6
CONTINUOUS
 62
     1
 10
0.0
 20
0.0
 30
0.0
 40
40.0
  0
LINE
  5
BB
  8
DETAIL
  6
CONTINUOUS
 62
     5
 10
-90.0
 20
-127.0
 30
0.0
 11
90.0
 21
-127.0
 31
0.0
  0
LINE
  5
BC
  8
DETAIL
  6
CONTINUOUS
 62
     5
 10
-78.0
 20
99.0
 30
0.0
 11
-78.0
 21
91.0
 31
0.0
  0
LINE
  5
BD
  8
DETAIL
  6
CONTINUOUS
 62
     5
 10
-72.0
 20
99.0
 30
0.0
 11
-72.0
 21
91.0
 31
0.0
  0
ARC
  5
BE
  8
DETAIL
  6
CONTINUOUS
 62
     5
 10
-75.0
 20
95.0
 30
0.0
 40
5.0
 50
53.130102000000001
 51
126.86989800000001
  0
ARC
  5
BF
  8
DETAIL
  6
CONTINUOUS
 62
     5
 10
-75.0
 20
95.0
 30
0.0
 40
5.0
 50
233.13010199999999
 51
306.86989799999998
  0
CIRCLE
  5
C0
  8
FIX
  6
CONTINUOUS
 62
    11
 10
-75.0
 20
95.0
 30
0.0
 40
3.0
  0
LINE
  5
C1
  8
NOTE
  6
CONTINUOUS
 62
     4
 10
-75.0
 20
115.0
 30
0.0
 11
-75.0
 21
75.0
 31
0.0
  0
LINE
  5
C2
  8
NOTE
  6
CONTINUOUS
 62
     4
 10
-55.0
 20
95.0
 30
0.0
 11
-95.0
 21
95.0
 31
0.0
  0
LINE
  5
C3
  8
DETAIL
  6
CONTINUOUS
 62
     5
 10
-148.5
 20
50.099995999999997
 30
0.0
 11
-114.0
 21
50.099995999999997
 31
0.0
  0
LINE
  5
C4
  8
DETAIL
  6
CONTINUOUS
 62
     5
 10
-148.5
 20
-46.100003999999991
 30
0.0
 11
-114.0
 21
-46.100003999999991
 31
0.0
  0
LINE
  5
C5
  8
DETAIL
  6
CONTINUOUS
 62
     5
 10
-151.0
 20
-43.600003999999991
 30
0.0
 11
-151.0
 21
47.599995999999997
 31
0.0
  0
ARC
  5
C6
  8
DETAIL
  6
CONTINUOUS
 62
     5
 10
-148.5
 20
-43.600003999999991
 30
0.0
 40
2.5
 50
180.0
 51
270.0
  0
ARC
  5
C7
  8
DETAIL
  6
CONTINUOUS
 62
     5
 10
-148.5
 20
47.599995999999997
 30
0.0
 40
2.5
 50
90.0
 51
180.0
  0
LINE
  5
C8
  8
SIZE
  6
CONTINUOUS
 62
    30
 10
105.0
 20
125.0
 30
0.0
 11
675.84768599999995
 21
125.0
 31
0.0
  0
LINE
  5
C9
  8
SIZE
  6
CONTINUOUS
 62
    30
 10
110.0
 20
-125.0
 30
0.0
 11
675.84768599999995
 21
-125.0
 31
0.0
  0
LINE
  5
CA
  8
SIZE
  6
CONTINUOUS
 62
    30
 10
655.84768599999995
 20
113.0
 30
0.0
 11
655.84768599999995
 21
-113.0
 31
0.0
  0
TEXT
  5
CB
  8
SIZE
  6
CONTINUOUS
 62
    30
 10
630.84768599999995
 20
-74.05714285714285
 30
0.0
 40
64.0
  1
250
 50
90.0
 41
0.9
 72
     1
 11
630.84768599999995
 21
0.0
 31
0.0
  0
CIRCLE
  5
CC
  8
SIZE
  6
CONTINUOUS
 62
    30
 10
655.84768599999995
 20
125.0
 30
0.0
 40
6.0
  0
LINE
  5
CD
  8
SIZE
  6
CONTINUOUS
 62
    30
 10
655.84768599999995
 20
125.0
 30
0.0
 11
655.84768599999995
 21
113.0
 31
0.0
  0
CIRCLE
  5
CE
  8
SIZE
  6
CONTINUOUS
 62
    30
 10
655.84768599999995
 20
-125.0
 30
0.0
 40
6.0
  0
LINE
  5
CF
  8
SIZE
  6
CONTINUOUS
 62
    30
 10
655.84768599999995
 20
-125.0
 30
0.0
 11
655.84768599999995
 21
-113.0
 31
0.0
  0
POINT
  5
D0
  8
DEFPOINTS
  6
CONTINUOUS
 62
    30
 10
85.0
 20
125.0
 30
0.0
  0
POINT
  5
D1
  8
DEFPOINTS
  6
CONTINUOUS
 62
    30
 10
90.0
 20
-125.0
 30
0.0
  0
POINT
  5
D2
  8
DEFPOINTS
  6
CONTINUOUS
 62
    30
 10
655.84768599999995
 20
-125.0
 30
0.0
  0
LINE
  5
D3
  8
SIZE
  6
CONTINUOUS
 62
    30
 10
85.0
 20
145.0
 30
0.0
 11
85.0
 21
480.78390000000002
 31
0.0
  0
LINE
  5
D4
  8
SIZE
  6
CONTINUOUS
 62
    30
 10
-151.0
 20
67.59999599999999
 30
0.0
 11
-151.0
 21
480.78390000000002
 31
0.0
  0
LINE
  5
D5
  8
SIZE
  6
CONTINUOUS
 62
    30
 10
73.0
 20
460.78390000000002
 30
0.0
 11
-139.0
 21
460.78390000000002
 31
0.0
  0
TEXT
  5
D6
  8
SIZE
  6
CONTINUOUS
 62
    30
 10
-110.5857142857143
 20
487.6931889999999
 30
0.0
 40
64.0
  1
236
 41
0.9
 72
     1
 11
-37.899999999999999
 21
487.6931889999999
 31
0.0
  0
CIRCLE
  5
D7
  8
SIZE
  6
CONTINUOUS
 62
    30
 10
85.0
 20
460.78390000000002
 30
0.0
 40
6.0
  0
LINE
  5
D8
  8
SIZE
  6
CONTINUOUS
 62
    30
 10
85.0
 20
460.78390000000002
 30
0.0
 11
73.0
 21
460.78390000000002
 31
0.0
  0
CIRCLE
  5
D9
  8
SIZE
  6
CONTINUOUS
 62
    30
 10
-151.0
 20
460.78390000000002
 30
0.0
 40
6.0
  0
LINE
  5
DA
  8
SIZE
  6
CONTINUOUS
 62
    30
 10
-151.0
 20
460.78390000000002
 30
0.0
 11
-139.0
 21
460.78390000000002
 31
0.0
  0
POINT
  5
DB
  8
DEFPOINTS
  6
CONTINUOUS
 62
    30
 10
85.0
 20
125.0
 30
0.0
  0
POINT
  5
DC
  8
DEFPOINTS
  6
CONTINUOUS
 62
    30
 10
-151.0
 20
47.599995999999997
 30
0.0
  0
POINT
  5
DD
  8
DEFPOINTS
  6
CONTINUOUS
 62
    30
 10
-151.0
 20
460.78390000000002
 30
0.0
  0
LINE
  5
DE
  8
SIZE
  6
CONTINUOUS
 62
    30
 10
-75.0
 20
-125.0
 30
0.0
 11
-75.0
 21
-458.14788899999991
 31
0.0
  0
LINE
  5
DF
  8
SIZE
  6
CONTINUOUS
 62
    30
 10
75.0
 20
-125.0
 30
0.0
 11
75.0
 21
-458.14788899999991
 31
0.0
  0
LINE
  5
E0
  8
SIZE
  6
CONTINUOUS
 62
    30
 10
-63.0
 20
-438.14788899999991
 30
0.0
 11
63.0
 21
-438.14788899999991
 31
0.0
  0
LINE
  5
E1
  8
SIZE
  6
CONTINUOUS
 62
    30
 10
318.94385399999999
 20
-438.14788899999991
 30
0.0
 11
75.0
 21
-438.14788899999991
 31
0.0
  0
TEXT
  5
E2
  8
SIZE
  6
CONTINUOUS
 62
    30
 10
156.80099742857141
 20
-413.14788900000002
 30
0.0
 40
64.0
  1
150
 41
0.9
 72
     1
 11
225.37242599999999
 21
-413.14788900000002
 31
0.0
  0
CIRCLE
  5
E3
  8
SIZE
  6
CONTINUOUS
 62
    30
 10
-75.0
 20
-438.14788899999991
 30
0.0
 40
6.0
  0
LINE
  5
E4
  8
SIZE
  6
CONTINUOUS
 62
    30
 10
-75.0
 20
-438.14788899999991
 30
0.0
 11
-63.0
 21
-438.14788899999991
 31
0.0
  0
CIRCLE
  5
E5
  8
SIZE
  6
CONTINUOUS
 62
    30
 10
75.0
 20
-438.14788899999991
 30
0.0
 40
6.0
  0
LINE
  5
E6
  8
SIZE
  6
CONTINUOUS
 62
    30
 10
75.0
 20
-438.14788899999991
 30
0.0
 11
63.0
 21
-438.14788899999991
 31
0.0
  0
POINT
  5
E7
  8
DEFPOINTS
  6
CONTINUOUS
 62
    30
 10
-75.0
 20
-105.0
 30
0.0
  0
POINT
  5
E8
  8
DEFPOINTS
  6
CONTINUOUS
 62
    30
 10
75.0
 20
-105.0
 30
0.0
  0
POINT
  5
E9
  8
DEFPOINTS
  6
CONTINUOUS
 62
    30
 10
75.0
 20
-438.14788899999991
 30
0.0
  0
LINE
  5
EA
  8
SIZE
  6
CONTINUOUS
 62
    30
 10
-90.0
 20
-147.0
 30
0.0
 11
-90.0
 21
-585.44234400000005
 31
0.0
  0
LINE
  5
EB
  8
SIZE
  6
CONTINUOUS
 62
    30
 10
90.0
 20
-147.0
 30
0.0
 11
90.0
 21
-585.44234400000005
 31
0.0
  0
LINE
  5
EC
  8
SIZE
  6
CONTINUOUS
 62
    30
 10
-78.0
 20
-565.44234400000005
 30
0.0
 11
78.0
 21
-565.44234400000005
 31
0.0
  0
TEXT
  5
ED
  8
SIZE
  6
CONTINUOUS
 62
    30
 10
-108.89142857142851
 20
-538.48205599999994
 30
0.0
 40
64.0
  1
φ180
 41
0.9
 72
     1
 11
0.0
 21
-538.48205599999994
 31
0.0
  0
CIRCLE
  5
EE
  8
SIZE
  6
CONTINUOUS
 62
    30
 10
-90.0
 20
-565.44234400000005
 30
0.0
 40
6.0
  0
LINE
  5
EF
  8
SIZE
  6
CONTINUOUS
 62
    30
 10
-90.0
 20
-565.44234400000005
 30
0.0
 11
-78.0
 21
-565.44234400000005
 31
0.0
  0
CIRCLE
  5
F0
  8
SIZE
  6
CONTINUOUS
 62
    30
 10
90.0
 20
-565.44234400000005
 30
0.0
 40
6.0
  0
LINE
  5
F1
  8
SIZE
  6
CONTINUOUS
 62
    30
 10
90.0
 20
-565.44234400000005
 30
0.0
 11
78.0
 21
-565.44234400000005
 31
0.0
  0
POINT
  5
F2
  8
DEFPOINTS
  6
CONTINUOUS
 62
    30
 10
-90.0
 20
-127.0
 30
0.0
  0
POINT
  5
F3
  8
DEFPOINTS
  6
CONTINUOUS
 62
    30
 10
90.0
 20
-127.0
 30
0.0
  0
POINT
  5
F4
  8
DEFPOINTS
  6
CONTINUOUS
 62
    30
 10
90.0
 20
-565.44234400000005
 30
0.0
  0
LINE
  5
F5
  8
SIZE
  6
CONTINUOUS
 62
    30
 10
85.0
 20
145.0
 30
0.0
 11
85.0
 21
364.31754100000001
 31
0.0
  0
LINE
  5
F6
  8
SIZE
  6
CONTINUOUS
 62
    30
 10
-85.0
 20
145.0
 30
0.0
 11
-85.0
 21
364.31754100000001
 31
0.0
  0
LINE
  5
F7
  8
SIZE
  6
CONTINUOUS
 62
    30
 10
73.0
 20
344.31754100000001
 30
0.0
 11
-73.0
 21
344.31754100000001
 31
0.0
  0
TEXT
  5
F8
  8
SIZE
  6
CONTINUOUS
 62
    30
 10
-68.571428571428569
 20
367.408253
 30
0.0
 40
64.0
  1
170
 41
0.9
 72
     1
 11
0.0
 21
367.408253
 31
0.0
  0
CIRCLE
  5
F9
  8
SIZE
  6
CONTINUOUS
 62
    30
 10
85.0
 20
344.31754100000001
 30
0.0
 40
6.0
  0
LINE
  5
FA
  8
SIZE
  6
CONTINUOUS
 62
    30
 10
85.0
 20
344.31754100000001
 30
0.0
 11
73.0
 21
344.31754100000001
 31
0.0
  0
CIRCLE
  5
FB
  8
SIZE
  6
CONTINUOUS
 62
    30
 10
-85.0
 20
344.31754100000001
 30
0.0
 40
6.0
  0
LINE
  5
FC
  8
SIZE
  6
CONTINUOUS
 62
    30
 10
-85.0
 20
344.31754100000001
 30
0.0
 11
-73.0
 21
344.31754100000001
 31
0.0
  0
POINT
  5
FD
  8
DEFPOINTS
  6
CONTINUOUS
 62
    30
 10
85.0
 20
125.0
 30
0.0
  0
POINT
  5
FE
  8
DEFPOINTS
  6
CONTINUOUS
 62
    30
 10
-85.0
 20
125.0
 30
0.0
  0
POINT
  5
FF
  8
DEFPOINTS
  6
CONTINUOUS
 62
    30
 10
-85.0
 20
344.31754100000001
 30
0.0
  0
LINE
  5
100
  8
SIZE
  6
CONTINUOUS
 62
    30
 10
-65.0
 20
145.0
 30
0.0
 11
-65.0
 21
255.04806400000001
 31
0.0
  0
LINE
  5
101
  8
SIZE
  6
CONTINUOUS
 62
    30
 10
-85.0
 20
145.0
 30
0.0
 11
-85.0
 21
255.04806400000001
 31
0.0
  0
LINE
  5
102
  8
SIZE
  6
CONTINUOUS
 62
    30
 10
-53.0
 20
235.04806400000001
 30
0.0
 11
-41.0
 21
235.04806400000001
 31
0.0
  0
LINE
  5
103
  8
SIZE
  6
CONTINUOUS
 62
    30
 10
-97.0
 20
235.04806400000001
 30
0.0
 11
-109.0
 21
235.04806400000001
 31
0.0
  0
LINE
  5
104
  8
SIZE
  6
CONTINUOUS
 62
    30
 10
-305.88155499999999
 20
235.04806400000001
 30
0.0
 11
-85.0
 21
235.04806400000001
 31
0.0
  0
TEXT
  5
105
  8
SIZE
  6
CONTINUOUS
 62
    30
 10
-280.88155442857141
 20
260.04806400000001
 30
0.0
 40
64.0
  1
20
 41
0.9
 72
     1
 11
-234.252983
 21
260.04806400000001
 31
0.0
  0
LINE
  5
106
  8
SIZE
  6
CONTINUOUS
 62
    30
 10
-65.0
 20
235.04806400000001
 30
0.0
 11
-85.0
 21
235.04806400000001
 31
0.0
  0
LINE
  5
107
  8
SIZE
  6
CONTINUOUS
 62
    30
 10
-65.0
 20
235.04806400000001
 30
0.0
 11
-85.0
 21
235.04806400000001
 31
0.0
  0
CIRCLE
  5
108
  8
SIZE
  6
CONTINUOUS
 62
    30
 10
-65.0
 20
235.04806400000001
 30
0.0
 40
6.0
  0
LINE
  5
109
  8
SIZE
  6
CONTINUOUS
 62
    30
 10
-65.0
 20
235.04806400000001
 30
0.0
 11
-53.0
 21
235.04806400000001
 31
0.0
  0
CIRCLE
  5
10A
  8
SIZE
  6
CONTINUOUS
 62
    30
 10
-85.0
 20
235.04806400000001
 30
0.0
 40
6.0
  0
LINE
  5
10B
  8
SIZE
  6
CONTINUOUS
 62
    30
 10
-85.0
 20
235.04806400000001
 30
0.0
 11
-97.0
 21
235.04806400000001
 31
0.0
  0
POINT
  5
10C
  8
DEFPOINTS
  6
CONTINUOUS
 62
    30
 10
-65.0
 20
125.0
 30
0.0
  0
POINT
  5
10D
  8
DEFPOINTS
  6
CONTINUOUS
 62
    30
 10
-85.0
 20
125.0
 30
0.0
  0
POINT
  5
10E
  8
DEFPOINTS
  6
CONTINUOUS
 62
    30
 10
-85.0
 20
235.04806400000001
 30
0.0
  0
LINE
  5
10F
  8
SIZE
  6
CONTINUOUS
 62
    30
 10
65.0
 20
145.0
 30
0.0
 11
65.0
 21
256.43463800000001
 31
0.0
  0
LINE
  5
110
  8
SIZE
  6
CONTINUOUS
 62
    30
 10
85.0
 20
145.0
 30
0.0
 11
85.0
 21
256.43463800000001
 31
0.0
  0
LINE
  5
111
  8
SIZE
  6
CONTINUOUS
 62
    30
 10
53.0
 20
236.43463800000001
 30
0.0
 11
41.0
 21
236.43463800000001
 31
0.0
  0
LINE
  5
112
  8
SIZE
  6
CONTINUOUS
 62
    30
 10
97.0
 20
236.43463800000001
 30
0.0
 11
109.0
 21
236.43463800000001
 31
0.0
  0
LINE
  5
113
  8
SIZE
  6
CONTINUOUS
 62
    30
 10
255.86822100000001
 20
236.43463800000001
 30
0.0
 11
85.0
 21
236.43463800000001
 31
0.0
  0
TEXT
  5
114
  8
SIZE
  6
CONTINUOUS
 62
    30
 10
137.61107857142861
 20
261.43463800000001
 30
0.0
 40
64.0
  1
20
 41
0.9
 72
     1
 11
184.23965000000001
 21
261.43463800000001
 31
0.0
  0
LINE
  5
115
  8
SIZE
  6
CONTINUOUS
 62
    30
 10
65.0
 20
236.43463800000001
 30
0.0
 11
85.0
 21
236.43463800000001
 31
0.0
  0
LINE
  5
116
  8
SIZE
  6
CONTINUOUS
 62
    30
 10
65.0
 20
236.43463800000001
 30
0.0
 11
85.0
 21
236.43463800000001
 31
0.0
  0
CIRCLE
  5
117
  8
SIZE
  6
CONTINUOUS
 62
    30
 10
65.0
 20
236.43463800000001
 30
0.0
 40
6.0
  0
LINE
  5
118
  8
SIZE
  6
CONTINUOUS
 62
    30
 10
65.0
 20
236.43463800000001
 30
0.0
 11
53.0
 21
236.43463800000001
 31
0.0
  0
CIRCLE
  5
119
  8
SIZE
  6
CONTINUOUS
 62
    30
 10
85.0
 20
236.43463800000001
 30
0.0
 40
6.0
  0
LINE
  5
11A
  8
SIZE
  6
CONTINUOUS
 62
    30
 10
85.0
 20
236.43463800000001
 30
0.0
 11
97.0
 21
236.43463800000001
 31
0.0
  0
POINT
  5
11B
  8
DEFPOINTS
  6
CONTINUOUS
 62
    30
 10
65.0
 20
125.0
 30
0.0
  0
POINT
  5
11C
  8
DEFPOINTS
  6
CONTINUOUS
 62
    30
 10
85.0
 20
125.0
 30
0.0
  0
POINT
  5
11D
  8
DEFPOINTS
  6
CONTINUOUS
 62
    30
 10
85.0
 20
236.43463800000001
 30
0.0
  0
LINE
  5
11E
  8
SIZE
  6
CONTINUOUS
 62
    30
 10
-87.0
 20
235.04806400000001
 30
0.0
 11
-288.01662599999997
 21
235.04806400000001
 31
0.0
  0
LINE
  5
11F
  8
SIZE
  6
CONTINUOUS
 62
    30
 10
87.0
 20
236.43463800000001
 30
0.0
 11
258.181622
 21
236.43463800000001
 31
0.0
  0
ARC
  5
120
  8
OUTLINE
  6
CONTINUOUS
 62
     3
 10
-148.5
 20
47.599995999999997
 30
0.0
 40
2.5
 50
90.0
 51
180.0
  0
ARC
  5
121
  8
OUTLINE
  6
CONTINUOUS
 62
     3
 10
-148.5
 20
-43.600003999999991
 30
0.0
 40
2.5
 50
180.0
 51
270.0
  0
LINE
  5
122
  8
OUTLINE
  6
CONTINUOUS
 62
     3
 10
-151.0
 20
-43.600003999999991
 30
0.0
 11
-151.0
 21
47.599995999999997
 31
0.0
  0
LINE
  5
123
  8
OUTLINE
  6
CONTINUOUS
 62
     3
 10
-148.5
 20
-46.100003999999991
 30
0.0
 11
-114.0
 21
-46.100003999999991
 31
0.0
  0
LINE
  5
124
  8
OUTLINE
  6
CONTINUOUS
 62
     3
 10
-148.5
 20
50.099995999999997
 30
0.0
 11
-114.0
 21
50.099995999999997
 31
0.0
  0
LINE
  5
125
  8
OUTLINE
  6
CONTINUOUS
 62
     3
 10
85.0
 20
-90.0
 30
0.0
 11
85.0
 21
90.0
 31
0.0
  0
ARC
  5
126
  8
OUTLINE
  6
CONTINUOUS
 62
     3
 10
-109.0
 20
90.295981000000012
 30
0.0
 40
5.0
 50
90.0
 51
180.0
  0
ARC
  5
127
  8
OUTLINE
  6
CONTINUOUS
 62
     3
 10
-109.0
 20
-89.693542000000008
 30
0.0
 40
5.0
 50
180.0
 51
270.0
  0
LINE
  5
128
  8
OUTLINE
  6
CONTINUOUS
 62
     3
 10
-114.0
 20
-89.693542000000008
 30
0.0
 11
-114.0
 21
90.295981000000012
 31
0.0
  0
LINE
  5
129
  8
OUTLINE
  6
CONTINUOUS
 62
     3
 10
-109.0
 20
-94.693542000000008
 30
0.0
 11
-85.0
 21
-94.693542000000008
 31
0.0
  0
LINE
  5
12A
  8
OUTLINE
  6
CONTINUOUS
 62
     3
 10
-109.0
 20
95.295981000000012
 30
0.0
 11
-85.0
 21
95.295981000000012
 31
0.0
  0
LINE
  5
12B
  8
OUTLINE
  6
CONTINUOUS
 62
     3
 10
-85.0
 20
-125.0
 30
0.0
 11
85.0
 21
-125.0
 31
0.0
  0
LINE
  5
12C
  8
OUTLINE
  6
CONTINUOUS
 62
     3
 10
-85.0
 20
125.0
 30
0.0
 11
-65.0
 21
125.0
 31
0.0
  0
LINE
  5
12D
  8
OUTLINE
  6
CONTINUOUS
 62
     3
 10
-85.0
 20
-125.0
 30
0.0
 11
-85.0
 21
125.0
 31
0.0
  0
LINE
  5
12E
  8
OUTLINE
  6
CONTINUOUS
 62
     3
 10
85.0
 20
-125.0
 30
0.0
 11
85.0
 21
125.0
 31
0.0
  0
LINE
  5
12F
  8
OUTLINE
  6
CONTINUOUS
 62
     3
 10
-65.0
 20
-125.0
 30
0.0
 11
-65.0
 21
125.0
 31
0.0
  0
LINE
  5
130
  8
OUTLINE
  6
CONTINUOUS
 62
     3
 10
65.0
 20
-125.0
 30
0.0
 11
65.0
 21
125.0
 31
0.0
  0
LINE
  5
131
  8
OUTLINE
  6
CONTINUOUS
 62
     3
 10
-65.0
 20
-100.0
 30
0.0
 11
65.0
 21
-100.0
 31
0.0
  0
LINE
  5
132
  8
OUTLINE
  6
CONTINUOUS
 62
     3
 10
-65.0
 20
100.0
 30
0.0
 11
65.0
 21
100.0
 31
0.0
  0
LINE
  5
133
  8
OUTLINE
  6
CONTINUOUS
 62
     3
 10
65.0
 20
125.0
 30
0.0
 11
85.0
 21
125.0
 31
0.0
  0
LINE
  5
134
  8
BASIS
  6
DASHDOT
 62
     6
 10
-168.39398899999989
 20
1.0
 30
0.0
 11
-87.432420999999991
 21
1.0
 31
0.0
  0
LINE
  5
135
  8
SIZE
  6
CONTINUOUS
 62
    30
 10
-168.5
 20
50.099995999999997
 30
0.0
 11
-392.20944400000002
 21
50.099995999999997
 31
0.0
  0
LINE
  5
136
  8
SIZE
  6
CONTINUOUS
 62
    30
 10
-168.5
 20
-46.100003999999991
 30
0.0
 11
-392.20944400000002
 21
-46.100003999999991
 31
0.0
  0
LINE
  5
137
  8
SIZE
  6
CONTINUOUS
 62
    30
 10
-372.20944400000002
 20
38.099996000000012
 30
0.0
 11
-372.20944400000002
 21
-34.100003999999998
 31
0.0
  0
LINE
  5
138
  8
SIZE
  6
CONTINUOUS
 62
    30
 10
-372.20944400000002
 20
-463.98092800000001
 30
0.0
 11
-372.20944400000002
 21
-46.100003999999991
 31
0.0
  0
TEXT
  5
139
  8
SIZE
  6
CONTINUOUS
 62
    30
 10
-397.20944400000002
 20
-450.50092857142852
 30
0.0
 40
64.0
  1
φ96.2
 50
90.0
 41
0.9
 72
     1
 11
-397.20944400000002
 21
-322.40949999999998
 31
0.0
  0
CIRCLE
  5
13A
  8
SIZE
  6
CONTINUOUS
 62
    30
 10
-372.20944400000002
 20
50.099995999999997
 30
0.0
 40
6.0
  0
LINE
  5
13B
  8
SIZE
  6
CONTINUOUS
 62
    30
 10
-372.20944400000002
 20
50.099995999999997
 30
0.0
 11
-372.20944400000002
 21
38.099996000000012
 31
0.0
  0
CIRCLE
  5
13C
  8
SIZE
  6
CONTINUOUS
 62
    30
 10
-372.20944400000002
 20
-46.100003999999991
 30
0.0
 40
6.0
  0
LINE
  5
13D
  8
SIZE
  6
CONTINUOUS
 62
    30
 10
-372.20944400000002
 20
-46.100003999999991
 30
0.0
 11
-372.20944400000002
 21
-34.100003999999998
 31
0.0
  0
POINT
  5
13E
  8
DEFPOINTS
  6
CONTINUOUS
 62
    30
 10
-148.5
 20
50.099995999999997
 30
0.0
  0
POINT
  5
13F
  8
DEFPOINTS
  6
CONTINUOUS
 62
    30
 10
-148.5
 20
-46.100003999999991
 30
0.0
  0
POINT
  5
140
  8
DEFPOINTS
  6
CONTINUOUS
 62
    30
 10
-372.20944400000002
 20
-46.100003999999991
 30
0.0
  0
LINE
  5
141
  8
BASIS
  6
DASHDOT
 62
     6
 10
73.083689000000007
 20
0.5
 30
0.0
 11
119.67932999999999
 21
0.5
 31
0.0
  0
LINE
  5
142
  8
SIZE
  6
CONTINUOUS
 62
    30
 10
-198.1939889999999
 20
1.0
 30
0.0
 11
-280.10592800000001
 21
1.0
 31
0.0
  0
LINE
  5
143
  8
SIZE
  6
CONTINUOUS
 62
    30
 10
-110.0
 20
-125.0
 30
0.0
 11
-280.10592800000001
 21
-125.0
 31
0.0
  0
LINE
  5
144
  8
SIZE
  6
CONTINUOUS
 62
    30
 10
-260.10592800000001
 20
-11.0
 30
0.0
 11
-260.10592800000001
 21
-113.0
 31
0.0
  0
LINE
  5
145
  8
SIZE
  6
CONTINUOUS
 62
    30
 10
-260.10592800000001
 20
-352.86649
 30
0.0
 11
-260.10592800000001
 21
-125.0
 31
0.0
  0
TEXT
  5
146
  8
SIZE
  6
CONTINUOUS
 62
    30
 10
-285.10592800000001
 20
-327.86649
 30
0.0
 40
64.0
  1
126
 50
90.0
 41
0.9
 72
     1
 11
-285.10592800000001
 21
-260.66649000000001
 31
0.0
  0
CIRCLE
  5
147
  8
SIZE
  6
CONTINUOUS
 62
    30
 10
-260.10592800000001
 20
1.0
 30
0.0
 40
6.0
  0
LINE
  5
148
  8
SIZE
  6
CONTINUOUS
 62
    30
 10
-260.10592800000001
 20
1.0
 30
0.0
 11
-260.10592800000001
 21
-11.0
 31
0.0
  0
CIRCLE
  5
149
  8
SIZE
  6
CONTINUOUS
 62
    30
 10
-260.10592800000001
 20
-125.0
 30
0.0
 40
6.0
  0
LINE
  5
14A
  8
SIZE
  6
CONTINUOUS
 62
    30
 10
-260.10592800000001
 20
-125.0
 30
0.0
 11
-260.10592800000001
 21
-113.0
 31
0.0
  0
POINT
  5
14B
  8
DEFPOINTS
  6
CONTINUOUS
 62
    30
 10
-178.19398899999999
 20
1.0
 30
0.0
  0
POINT
  5
14C
  8
DEFPOINTS
  6
CONTINUOUS
 62
    30
 10
-90.0
 20
-125.0
 30
0.0
  0
POINT
  5
14D
  8
DEFPOINTS
  6
CONTINUOUS
 62
    30
 10
-260.10592800000001
 20
-125.0
 30
0.0
  0
LINE
  5
14E
  8
SIZE
  6
CONTINUOUS
 62
    30
 10
-260.10592800000001
 20
-125.0
 30
0.0
 11
-260.10592800000001
 21
-327.67326500000001
 31
0.0
  0
LINE
  5
150
  8
DETAIL
  6
CONTINUOUS
 62
     5
 10
78.0
 20
-99.0
 30
0.0
 11
78.0
 21
-91.0
 31
0.0
  0
LINE
  5
151
  8
DETAIL
  6
CONTINUOUS
 62
     5
 10
72.0
 20
-99.0
 30
0.0
 11
72.0
 21
-91.0
 31
0.0
  0
ARC
  5
152
  8
DETAIL
  6
CONTINUOUS
 62
     5
 10
75.0
 20
-95.0
 30
0.0
 40
5.0
 50
233.13010199999999
 51
306.86989799999998
  0
ARC
  5
153
  8
DETAIL
  6
CONTINUOUS
 62
     5
 10
75.0
 20
-95.0
 30
0.0
 40
5.0
 50
53.130102000000001
 51
126.86989800000001
  0
CIRCLE
  5
154
  8
FIX
  6
CONTINUOUS
 62
    11
 10
75.0
 20
-95.0
 30
0.0
 40
3.0
  0
LINE
  5
155
  8
NOTE
  6
CONTINUOUS
 62
     4
 10
75.0
 20
-115.0
 30
0.0
 11
75.0
 21
-75.0
 31
0.0
  0
LINE
  5
156
  8
NOTE
  6
CONTINUOUS
 62
     4
 10
55.0
 20
-95.0
 30
0.0
 11
95.0
 21
-95.0
 31
0.0
  0
CIRCLE
  5
157
  8
FIX
  6
CONTINUOUS
 62
    11
 10
75.0
 20
95.0
 30
0.0
 40
3.0
  0
ARC
  5
158
  8
DETAIL
  6
CONTINUOUS
 62
     5
 10
75.0
 20
95.0
 30
0.0
 40
5.0
 50
233.13010199999999
 51
306.86989799999998
  0
ARC
  5
159
  8
DETAIL
  6
CONTINUOUS
 62
     5
 10
75.0
 20
95.0
 30
0.0
 40
5.0
 50
53.130102000000001
 51
126.86989800000001
  0
LINE
  5
15A
  8
DETAIL
  6
CONTINUOUS
 62
     5
 10
72.0
 20
99.0
 30
0.0
 11
72.0
 21
91.0
 31
0.0
  0
LINE
  5
15B
  8
DETAIL
  6
CONTINUOUS
 62
     5
 10
78.0
 20
99.0
 30
0.0
 11
78.0
 21
91.0
 31
0.0
  0
LINE
  5
15C
  8
NOTE
  6
CONTINUOUS
 62
     4
 10
75.0
 20
115.0
 30
0.0
 11
75.0
 21
75.0
 31
0.0
  0
LINE
  5
15D
  8
NOTE
  6
CONTINUOUS
 62
     4
 10
55.0
 20
95.0
 30
0.0
 11
95.0
 21
95.0
 31
0.0
  0
LINE
  5
15E
  8
SIZE
  6
CONTINUOUS
 62
    30
 10
-115.0
 20
95.0
 30
0.0
 11
-474.11916600000001
 21
95.0
 31
0.0
  0
LINE
  5
15F
  8
SIZE
  6
CONTINUOUS
 62
    30
 10
-115.0
 20
-95.0
 30
0.0
 11
-474.11916600000001
 21
-95.0
 31
0.0
  0
LINE
  5
160
  8
SIZE
  6
CONTINUOUS
 62
    30
 10
-454.11916599999989
 20
83.0
 30
0.0
 11
-454.11916599999989
 21
-83.0
 31
0.0
  0
CIRCLE
  5
161
  8
SIZE
  6
CONTINUOUS
 62
    30
 10
-454.11916599999989
 20
95.0
 30
0.0
 40
6.0
  0
LINE
  5
162
  8
SIZE
  6
CONTINUOUS
 62
    30
 10
-454.11916599999989
 20
95.0
 30
0.0
 11
-454.11916599999989
 21
83.0
 31
0.0
  0
CIRCLE
  5
163
  8
SIZE
  6
CONTINUOUS
 62
    30
 10
-454.11916599999989
 20
-95.0
 30
0.0
 40
6.0
  0
LINE
  5
164
  8
SIZE
  6
CONTINUOUS
 62
    30
 10
-454.11916599999989
 20
-95.0
 30
0.0
 11
-454.11916599999989
 21
-83.0
 31
0.0
  0
TEXT
  5
165
  8
SIZE
  6
CONTINUOUS
 62
    30
 10
-479.11916599999989
 20
-68.571428571428569
 30
0.0
 40
64.0
  1
190
 50
90.0
 41
0.9
 72
     1
 11
-479.11916599999989
 21
0.0
 31
0.0
  0
POINT
  5
166
  8
DEFPOINTS
  6
CONTINUOUS
 62
    30
 10
-95.0
 20
95.0
 30
0.0
  0
POINT
  5
167
  8
DEFPOINTS
  6
CONTINUOUS
 62
    30
 10
-95.0
 20
-95.0
 30
0.0
  0
POINT
  5
168
  8
DEFPOINTS
  6
CONTINUOUS
 62
    30
 10
-454.11916599999989
 20
-95.0
 30
0.0
  0
TEXT
  5
169
  8
NOTE
  6
CONTINUOUS
 62
     4
 10
-819.24795699999993
 20
-555.01398600000005
 30
0.0
 40
64.0
  1
AH
 41
0.9
  0
TEXT
  5
16A
  8
NOTE
  6
CONTINUOUS
 62
     4
 10
193.72291799999999
 20
-59.550060000000002
 30
0.0
 40
64.0
  1
入口
 50
90.0
 41
0.9
  0
TEXT
  5
16B
  8
NOTE
  6
CONTINUOUS
 62
     4
 10
-60.330736999999999
 20
-246.50803500000001
 30
0.0
 40
64.0
  1
出口
 41
0.9
  0
LINE
  5
16C
  8
NOTE
  6
CONTINUOUS
 62
     4
 10
-652.89600999999993
 20
-588.889816
 30
0.0
 11
-829.54667099999995
 21
-588.889816
 31
0.0
  0
LINE
  5
16D
  8
SIZE
  6
CONTINUOUS
 62
    30
 10
105.0
 20
-125.0
 30
0.0
 11
511.26045399999992
 21
-125.0
 31
0.0
  0
LINE
  5
16E
  8
SIZE
  6
CONTINUOUS
 62
    30
 10
139.67932999999999
 20
0.5
 30
0.0
 11
511.26045399999992
 21
0.5
 31
0.0
  0
LINE
  5
16F
  8
SIZE
  6
CONTINUOUS
 62
    30
 10
491.26045399999998
 20
-113.0
 30
0.0
 11
491.26045399999998
 21
-11.5
 31
0.0
  0
LINE
  5
170
  8
SIZE
  6
CONTINUOUS
 62
    30
 10
491.26045399999998
 20
-422.67162100000002
 30
0.0
 11
491.26045399999998
 21
-125.0
 31
0.0
  0
TEXT
  5
171
  8
SIZE
  6
CONTINUOUS
 62
    30
 10
466.26045399999998
 20
-397.67162171428572
 30
0.0
 40
64.0
  1
125.5
 50
90.0
 41
0.9
 72
     1
 11
466.26045399999998
 21
-287.957336
 31
0.0
  0
CIRCLE
  5
172
  8
SIZE
  6
CONTINUOUS
 62
    30
 10
491.26045399999998
 20
-125.0
 30
0.0
 40
6.0
  0
LINE
  5
173
  8
SIZE
  6
CONTINUOUS
 62
    30
 10
491.26045399999998
 20
-125.0
 30
0.0
 11
491.26045399999998
 21
-113.0
 31
0.0
  0
CIRCLE
  5
174
  8
SIZE
  6
CONTINUOUS
 62
    30
 10
491.26045399999998
 20
0.5
 30
0.0
 40
6.0
  0
LINE
  5
175
  8
SIZE
  6
CONTINUOUS
 62
    30
 10
491.26045399999998
 20
0.5
 30
0.0
 11
491.26045399999998
 21
-11.5
 31
0.0
  0
POINT
  5
176
  8
DEFPOINTS
  6
CONTINUOUS
 62
    30
 10
85.0
 20
-125.0
 30
0.0
  0
POINT
  5
177
  8
DEFPOINTS
  6
CONTINUOUS
 62
    30
 10
119.67932999999999
 20
0.5
 30
0.0
  0
POINT
  5
178
  8
DEFPOINTS
  6
CONTINUOUS
 62
    30
 10
491.26045399999998
 20
0.5
 30
0.0
  0
TEXT
  5
180
  8
ETC
  6
CONTINUOUS
 62
    61
 10
346.65029225097419
 20
512.01733633063088
 30
0.0
 40
64.0
  1
産業扇
 41
0.9
  0
TEXT
  5
181
  8
ETC
  6
CONTINUOUS
 62
    61
 10
341.81802425097419
 20
623.36196633063105
 30
0.0
 40
64.0
  1
BF-16S3_6
 41
0.9
  0
TEXT
  5
182
  8
ETC
  6
CONTINUOUS
 62
    61
 10
430.5142343585228
 20
402.163535104272
 30
0.0
 40
64.0
  1
BF-16S3
 41
0.9
  0
ENDSEC
  0
EOF
