  0
SECTION
  2
HEADER
  9
$ACADVER
  1
AC1009
  9
$DWGCODEPAGE
  3
dos932
  9
$INSBASE
 10
0.0
 20
0.0
 30
0.0
  9
$EXTMIN
 10
-816.64121901458384
 20
-586.71568670160559
 30
-0.00000000001125
  9
$EXTMAX
 10
798.96699128319233
 20
616.51612133313392
 30
0.000000000000296
  9
$LIMMIN
 10
-2970.0
 20
-2100.0
  9
$LIMMAX
 10
2970.0
 20
2100.0
  9
$ORTHOMODE
 70
     1
  9
$REGENMODE
 70
     1
  9
$FILLMODE
 70
     1
  9
$QTEXTMODE
 70
     0
  9
$MIRRTEXT
 70
     0
  9
$LTSCALE
 40
20.0
  9
$ATTMODE
 70
     1
  9
$TEXTSIZE
 40
64.0
  9
$TRACEWID
 40
0.05
  9
$TEXTSTYLE
  7
STANDARD
  9
$CLAYER
  8
NOTE
  9
$CELTYPE
  6
CONTINUOUS
  9
$CECOLOR
 62
     7
  9
$DIMSCALE
 40
1.0
  9
$DIMASZ
 40
12.0
  9
$DIMEXO
 40
20.0
  9
$DIMDLI
 40
200.0
  9
$DIMRND
 40
0.0
  9
$DIMDLE
 40
0.0
  9
$DIMEXE
 40
20.0
  9
$DIMTP
 40
0.0
  9
$DIMTM
 40
0.0
  9
$DIMTXT
 40
64.0
  9
$DIMCEN
 40
0.09
  9
$DIMTSZ
 40
0.0
  9
$DIMTOL
 70
     0
  9
$DIMLIM
 70
     0
  9
$DIMTIH
 70
     0
  9
$DIMTOH
 70
     0
  9
$DIMSE1
 70
     0
  9
$DIMSE2
 70
     0
  9
$DIMTAD
 70
     1
  9
$DIMZIN
 70
     8
  9
$DIMBLK
  1

  9
$DIMASO
 70
     1
  9
$DIMSHO
 70
     0
  9
$DIMPOST
  1

  9
$DIMAPOST
  1

  9
$DIMALT
 70
     0
  9
$DIMALTD
 70
     2
  9
$DIMALTF
 40
25.399999999999999
  9
$DIMLFAC
 40
1.0
  9
$DIMTOFL
 70
     1
  9
$DIMTVP
 40
0.0
  9
$DIMTIX
 70
     1
  9
$DIMSOXD
 70
     0
  9
$DIMSAH
 70
     0
  9
$DIMBLK1
  1

  9
$DIMBLK2
  1

  9
$DIMSTYLE
  2
STANDARD
  9
$DIMCLRD
 70
     7
  9
$DIMCLRE
 70
     7
  9
$DIMCLRT
 70
     7
  9
$DIMTFAC
 40
1.0
  9
$DIMGAP
 40
25.0
  9
$LUNITS
 70
     2
  9
$LUPREC
 70
     4
  9
$SKETCHINC
 40
0.1
  9
$FILLETRAD
 40
3.0
  9
$AUNITS
 70
     1
  9
$AUPREC
 70
     3
  9
$MENU
  1
ACAD
  9
$ELEVATION
 40
0.0
  9
$PELEVATION
 40
0.0
  9
$THICKNESS
 40
50.0
  9
$LIMCHECK
 70
     0
  9
$CHAMFERA
 40
0.0
  9
$CHAMFERB
 40
0.0
  9
$SKPOLY
 70
     0
  9
$TDCREATE
 40
2453019.62301037
  9
$TDUPDATE
 40
2458911.471775289
  9
$TDINDWG
 40
1.7104212616
  9
$TDUSRTIMER
 40
1.7104212616
  9
$USRTIMER
 70
     1
  9
$ANGBASE
 50
0.0
  9
$ANGDIR
 70
     0
  9
$PDMODE
 70
     3
  9
$PDSIZE
 40
-2.0
  9
$PLINEWID
 40
0.0
  9
$SPLFRAME
 70
     0
  9
$SPLINETYPE
 70
     6
  9
$SPLINESEGS
 70
     8
  9
$SURFTAB1
 70
     6
  9
$SURFTAB2
 70
     6
  9
$SURFTYPE
 70
     6
  9
$SURFU
 70
     6
  9
$SURFV
 70
     6
  9
$UCSNAME
  2

  9
$UCSORG
 10
0.0
 20
0.0
 30
0.0
  9
$UCSXDIR
 10
1.0
 20
0.0
 30
0.0
  9
$UCSYDIR
 10
0.0
 20
1.0
 30
0.0
  9
$PUCSNAME
  2

  9
$PUCSORG
 10
0.0
 20
0.0
 30
0.0
  9
$PUCSXDIR
 10
1.0
 20
0.0
 30
0.0
  9
$PUCSYDIR
 10
0.0
 20
1.0
 30
0.0
  9
$USERI1
 70
     0
  9
$USERI2
 70
     0
  9
$USERI3
 70
     0
  9
$USERI4
 70
     0
  9
$USERI5
 70
     0
  9
$USERR1
 40
20.0
  9
$USERR2
 40
0.0
  9
$USERR3
 40
0.0
  9
$USERR4
 40
0.0
  9
$USERR5
 40
0.0
  9
$WORLDVIEW
 70
     1
  9
$SHADEDGE
 70
     3
  9
$SHADEDIF
 70
    70
  9
$TILEMODE
 70
     1
  9
$MAXACTVP
 70
    48
  9
$PINSBASE
 10
0.0
 20
0.0
 30
0.0
  9
$PLIMCHECK
 70
     0
  9
$PEXTMIN
 10
-100000000000000000000.0
 20
-100000000000000000000.0
 30
-100000000000000000000.0
  9
$PEXTMAX
 10
100000000000000000000.0
 20
100000000000000000000.0
 30
100000000000000000000.0
  9
$PLIMMIN
 10
0.0
 20
0.0
  9
$PLIMMAX
 10
12.0
 20
9.0
  9
$UNITMODE
 70
     0
  9
$VISRETAIN
 70
     0
  9
$PLINEGEN
 70
     0
  9
$PSLTSCALE
 70
     0
  9
$TREEDEPTH
 70
  3020
  9
$ATTDIA
 70
     0
  9
$ATTREQ
 70
     1
  9
$BLIPMODE
 70
     1
  9
$COORDS
 70
     1
  9
$DRAGMODE
 70
     2
  9
$OSMODE
 70
     0
  9
$HANDLING
 70
     0
  9
$HANDSEED
  5
E5E0
  0
ENDSEC
  0
SECTION
  2
TABLES
  0
TABLE
  2
LTYPE
 70
     2
  0
LTYPE
  2
CONTINUOUS
 70
     0
  3
実線
 72
    65
 73
     0
 40
0.0
  0
LTYPE
  2
DASHDOT
 70
     0
  3
____ _ ____ _ ____ _ ____ _ ____ _ ____ _ ____
 72
    65
 73
     4
 40
5.5
 49
4.0
 49
-0.6
 49
0.3
 49
-0.6
  0
ENDTAB
  0
TABLE
  2
LAYER
 70
    12
  0
LAYER
  2
0
 70
     0
 62
     7
  6
CONTINUOUS
  0
LAYER
  2
BASIS
 70
     0
 62
     6
  6
DASHDOT
  0
LAYER
  2
OUTLINE
 70
     0
 62
     3
  6
CONTINUOUS
  0
LAYER
  2
DETAIL
 70
     0
 62
     5
  6
CONTINUOUS
  0
LAYER
  2
SIZE
 70
     0
 62
    30
  6
CONTINUOUS
  0
LAYER
  2
ARRANGE
 70
     0
 62
     1
  6
CONTINUOUS
  0
LAYER
  2
ETC
 70
     0
 62
    61
  6
CONTINUOUS
  0
LAYER
  2
FIX
 70
     0
 62
    11
  6
CONTINUOUS
  0
LAYER
  2
NOTE
 70
     0
 62
     4
  6
CONTINUOUS
  0
LAYER
  2
DEFPOINTS
 70
    64
 62
     7
  6
CONTINUOUS
  0
LAYER
  2
SERVICESPACE
 70
    64
 62
     2
  6
DASHDOT
  0
LAYER
  2
SYMBOLLINE
 70
    64
 62
    15
  6
CONTINUOUS
  0
ENDTAB
  0
TABLE
  2
STYLE
 70
     1
  0
STYLE
  2
STANDARD
 70
     0
 40
64.0
 41
0.9
 50
0.0
 71
     0
 42
64.0
  3
SIMPLEX.shx
  4
BIGFONT.shx
  0
ENDTAB
  0
TABLE
  2
APPID
 70
    16
  0
APPID
  2
ACAD
 70
     0
  0
APPID
  2
AUTOCAD_POSTSCRIPT_FIGURE
 70
     0
  0
APPID
  2
ACAD_EXEMPT_FROM_CAD_STANDARDS
 70
     0
  0
APPID
  2
ACAD_PSEXT
 70
     0
  0
APPID
  2
ACAUTHENVIRON
 70
     0
  0
APPID
  2
GENIUS_GENOENT_13
 70
     0
  0
APPID
  2
GENIUS_GENCFG_13
 70
     0
  0
APPID
  2
GENIUS_GENCFG0_13
 70
     0
  0
APPID
  2
GENIUS_GENCFG1_13
 70
     0
  0
APPID
  2
GENIUS_GENCFG2_13
 70
     0
  0
APPID
  2
GENIUS_GENCFG3_13
 70
     0
  0
APPID
  2
GENIUS_GENCFG4_13
 70
     0
  0
APPID
  2
GENIUS_GEVCFG0_13
 70
     0
  0
APPID
  2
CONTENTBLOCKICON
 70
     0
  0
APPID
  2
CONTENTBLOCKDESCRIPTION
 70
     0
  0
APPID
  2
ACAD_NAV_VCDISPLAY
 70
     0
  0
ENDTAB
  0
TABLE
  2
DIMSTYLE
 70
     1
  0
DIMSTYLE
  2
STANDARD
 70
     0
  3

  4

  5
_ORIGIN
  6

  7

 40
1.0
 41
12.0
 42
20.0
 43
200.0
 44
20.0
 45
0.0
 46
0.0
 47
0.0
 48
0.0
140
64.0
141
0.09
142
0.0
143
25.399999999999999
144
1.0
145
0.0
146
1.0
147
25.0
 71
     0
 72
     0
 73
     0
 74
     0
 75
     0
 76
     0
 77
     1
 78
     8
170
     0
171
     2
172
     1
173
     0
174
     1
175
     0
176
     7
177
     7
178
     7
  0
ENDTAB
  0
TABLE
  2
VIEW
 70
     1
  0
VIEW
  2
ALL
 70
     0
 40
4282.6198079999986
 10
0.0
 20
41.309904000000003
 41
5940.0
 11
0.0
 21
0.0
 31
1.0
 12
0.0
 22
0.0
 32
0.0
 42
50.0
 43
0.0
 44
0.0
 50
0.0
 71
     0
  0
ENDTAB
  0
TABLE
  2
UCS
 70
     0
  0
ENDTAB
  0
TABLE
  2
VPORT
 70
     1
  0
VPORT
  2
*ACTIVE
 70
     0
 10
0.0
 20
0.0
 11
1.0
 21
1.0
 12
-8.837113865695812
 22
14.90021731576417
 13
0.0
 23
0.0
 14
1.0
 24
1.0
 15
0.0
 25
0.0
 16
0.0
 26
0.0
 36
1.0
 17
0.0
 27
0.0
 37
0.0
 40
1211.84683291327
 41
1.798088410991637
 42
50.0
 43
0.0
 44
0.0
 50
0.0
 51
0.0
 71
     0
 72
  1000
 73
     1
 74
     3
 75
     0
 76
     0
 77
     0
 78
     0
  0
ENDTAB
  0
ENDSEC
  0
SECTION
  2
BLOCKS
  0
BLOCK
  8
0
  2
_ORIGIN
 70
     0
 10
0.0
 20
0.0
 30
0.0
  3
_ORIGIN
  1
_ORIGIN
  0
CIRCLE
  8
0
  6
CONTINUOUS
 62
     7
 10
0.0
 20
0.0
 30
0.0
 40
0.5
  0
LINE
  8
0
  6
CONTINUOUS
 62
     7
 10
0.0
 20
0.0
 30
0.0
 11
-1.0
 21
0.0
 31
0.0
  0
ENDBLK
  8
0
  0
ENDSEC
  0
SECTION
  2
ENTITIES
  0
LINE
  8
DETAIL
  6
CONTINUOUS
 62
     5
 10
65.0
 20
124.0
 30
0.0
 11
85.0
 21
124.0
 31
0.0
  0
LINE
  8
DETAIL
  6
CONTINUOUS
 62
     5
 10
-65.0
 20
99.0
 30
0.0
 11
65.0
 21
99.0
 31
0.0
  0
LINE
  8
DETAIL
  6
CONTINUOUS
 62
     5
 10
-65.0
 20
-101.0
 30
0.0
 11
65.0
 21
-101.0
 31
0.0
  0
LINE
  8
DETAIL
  6
CONTINUOUS
 62
     5
 10
65.0
 20
-126.0
 30
0.0
 11
65.0
 21
124.0
 31
0.0
  0
LINE
  8
DETAIL
  6
CONTINUOUS
 62
     5
 10
-65.0
 20
-126.0
 30
0.0
 11
-65.0
 21
124.0
 31
0.0
  0
LINE
  8
DETAIL
  6
CONTINUOUS
 62
     5
 10
85.0
 20
-126.0
 30
0.0
 11
85.0
 21
124.0
 31
0.0
  0
LINE
  8
DETAIL
  6
CONTINUOUS
 62
     5
 10
-85.0
 20
-126.0
 30
0.0
 11
-85.0
 21
124.0
 31
0.0
  0
LINE
  8
BASIS
  6
DASHDOT
 62
     6
 10
0.0
 20
-189.155407
 30
0.0
 11
0.0
 21
150.359667
 31
0.0
  0
LINE
  8
DETAIL
  6
CONTINUOUS
 62
     5
 10
-85.0
 20
124.0
 30
0.0
 11
-65.0
 21
124.0
 31
0.0
  0
LINE
  8
DETAIL
  6
CONTINUOUS
 62
     5
 10
-72.5
 20
-126.0
 30
0.0
 11
72.5
 21
-126.0
 31
0.0
  0
LINE
  8
DETAIL
  6
CONTINUOUS
 62
     5
 10
-90.0
 20
-126.8
 30
0.0
 11
-90.0
 21
-126.0
 31
0.0
  0
LINE
  8
DETAIL
  6
CONTINUOUS
 62
     5
 10
90.0
 20
-126.8
 30
0.0
 11
90.0
 21
-126.0
 31
0.0
  0
LINE
  8
DETAIL
  6
CONTINUOUS
 62
     5
 10
-72.5
 20
-126.0
 30
0.0
 11
-90.0
 21
-126.0
 31
0.0
  0
LINE
  8
DETAIL
  6
CONTINUOUS
 62
     5
 10
72.5
 20
-126.0
 30
0.0
 11
90.0
 21
-126.0
 31
0.0
  0
CIRCLE
  8
FIX
  6
CONTINUOUS
 62
    11
 10
-75.0
 20
-96.0
 30
0.0
 40
3.0
  0
ARC
  8
DETAIL
  6
CONTINUOUS
 62
     5
 10
-75.0
 20
-96.0
 30
0.0
 40
5.0
 50
53.130102000000349
 51
126.86989799999969
  0
ARC
  8
DETAIL
  6
CONTINUOUS
 62
     5
 10
-75.0
 20
-96.0
 30
0.0
 40
5.0
 50
233.13010200000039
 51
306.86989799999958
  0
LINE
  8
DETAIL
  6
CONTINUOUS
 62
     5
 10
-72.0
 20
-100.0
 30
0.0
 11
-72.0
 21
-92.0
 31
0.0
  0
LINE
  8
DETAIL
  6
CONTINUOUS
 62
     5
 10
-78.0
 20
-100.0
 30
0.0
 11
-78.0
 21
-92.0
 31
0.0
  0
LINE
  8
NOTE
  6
CONTINUOUS
 62
     4
 10
-75.0
 20
-116.0
 30
0.0
 11
-75.0
 21
-76.0
 31
0.0
  0
LINE
  8
NOTE
  6
CONTINUOUS
 62
     4
 10
-55.0
 20
-96.0
 30
0.0
 11
-95.0
 21
-96.0
 31
0.0
  0
LINE
  8
DETAIL
  6
CONTINUOUS
 62
     5
 10
-109.0
 20
94.295980999999983
 30
0.0
 11
-85.0
 21
94.295980999999983
 31
0.0
  0
LINE
  8
DETAIL
  6
CONTINUOUS
 62
     5
 10
-109.0
 20
-95.693541999999994
 30
0.0
 11
-85.0
 21
-95.693541999999994
 31
0.0
  0
LINE
  8
DETAIL
  6
CONTINUOUS
 62
     5
 10
-114.0
 20
-90.693541999999994
 30
0.0
 11
-114.0
 21
89.295980999999983
 31
0.0
  0
ARC
  8
DETAIL
  6
CONTINUOUS
 62
     5
 10
-109.0
 20
-90.693541999999994
 30
0.0
 40
5.0
 50
180.0
 51
270.0
  0
ARC
  8
DETAIL
  6
CONTINUOUS
 62
     5
 10
-109.0
 20
89.295980999999983
 30
0.0
 40
5.0
 50
90.0
 51
180.0
  0
LINE
  8
NOTE
  6
CONTINUOUS
 62
     4
 10
-114.0
 20
20.99999600000001
 30
0.0
 11
-114.0
 21
60.999995999999982
 31
0.0
  0
LINE
  8
NOTE
  6
CONTINUOUS
 62
     4
 10
-94.0
 20
40.99999600000001
 30
0.0
 11
-134.0
 21
40.99999600000001
 31
0.0
  0
LINE
  8
NOTE
  6
CONTINUOUS
 62
     4
 10
-152.27639600000001
 20
52.615394999999978
 30
0.0
 11
-114.0
 21
40.99999600000001
 31
0.0
  0
LINE
  8
NOTE
  6
CONTINUOUS
 62
     4
 10
-114.0
 20
40.99999600000001
 30
0.0
 11
-141.340631
 21
70.19742500000001
 31
0.0
  0
LINE
  8
NOTE
  6
CONTINUOUS
 62
     4
 10
-114.0
 20
40.99999600000001
 30
0.0
 11
-306.91778699999998
 21
161.16544400000001
 31
0.0
  0
LINE
  8
NOTE
  6
CONTINUOUS
 62
     4
 10
-413.73100099999999
 20
161.16544400000001
 30
0.0
 11
-306.91778699999998
 21
161.16544400000001
 31
0.0
  0
TEXT
  8
NOTE
  6
CONTINUOUS
 62
     4
 10
-406.00043699999998
 20
181.43512899999999
 30
0.0
 40
64.0
  1
EL
 41
0.9
  0
CIRCLE
  8
FIX
  6
CONTINUOUS
 62
    11
 10
-75.0
 20
124.0
 30
0.0
 40
3.0
  0
LINE
  8
NOTE
  6
CONTINUOUS
 62
     4
 10
-75.0
 20
104.0
 30
0.0
 11
-75.0
 21
144.0
 31
0.0
  0
LINE
  8
NOTE
  6
CONTINUOUS
 62
     4
 10
-55.0
 20
124.0
 30
0.0
 11
-95.0
 21
124.0
 31
0.0
  0
CIRCLE
  8
FIX
  6
CONTINUOUS
 62
    11
 10
75.0
 20
124.0
 30
0.0
 40
3.0
  0
LINE
  8
NOTE
  6
CONTINUOUS
 62
     4
 10
75.0
 20
104.0
 30
0.0
 11
75.0
 21
144.0
 31
0.0
  0
LINE
  8
NOTE
  6
CONTINUOUS
 62
     4
 10
95.0
 20
124.0
 30
0.0
 11
55.0
 21
124.0
 31
0.0
  0
TEXT
  8
NOTE
  6
CONTINUOUS
 62
     4
 10
-649.79105700000002
 20
-556.78200500000003
 30
0.0
 40
64.0
  1
12-φ10×6
 41
0.9
  0
LINE
  8
NOTE
  6
CONTINUOUS
 62
     4
 10
-658.14042099999995
 20
-586.0345269999998
 30
0.0
 11
-188.61434499999999
 21
-586.0345269999998
 31
0.0
  0
LINE
  8
NOTE
  6
CONTINUOUS
 62
     4
 10
-75.0
 20
-96.0
 30
0.0
 11
-188.61434499999999
 21
-586.0345269999998
 31
0.0
  0
LINE
  8
NOTE
  6
CONTINUOUS
 62
     4
 10
-73.492106000000007
 20
-135.97156799999999
 30
0.0
 11
-75.0
 21
-96.0
 31
0.0
  0
LINE
  8
NOTE
  6
CONTINUOUS
 62
     4
 10
-75.0
 20
-96.0
 30
0.0
 11
-93.679910000000007
 21
-131.37034
 31
0.0
  0
POINT
  8
ARRANGE
  6
CONTINUOUS
 62
     1
 10
0.0
 20
0.0
 30
0.0
  0
CIRCLE
  8
ARRANGE
  6
CONTINUOUS
 62
     1
 10
0.0
 20
0.0
 30
0.0
 40
40.0
  0
LINE
  8
DETAIL
  6
CONTINUOUS
 62
     5
 10
-90.0
 20
-126.8
 30
0.0
 11
90.0
 21
-126.8
 31
0.0
  0
LINE
  8
DETAIL
  6
CONTINUOUS
 62
     5
 10
78.0
 20
-100.0
 30
0.0
 11
78.0
 21
-92.0
 31
0.0
  0
LINE
  8
DETAIL
  6
CONTINUOUS
 62
     5
 10
72.0
 20
-100.0
 30
0.0
 11
72.0
 21
-92.0
 31
0.0
  0
ARC
  8
DETAIL
  6
CONTINUOUS
 62
     5
 10
75.0
 20
-96.0
 30
0.0
 40
5.0
 50
233.13010200000039
 51
306.86989799999958
  0
ARC
  8
DETAIL
  6
CONTINUOUS
 62
     5
 10
75.0
 20
-96.0
 30
0.0
 40
5.0
 50
53.130102000000349
 51
126.86989799999969
  0
CIRCLE
  8
FIX
  6
CONTINUOUS
 62
    11
 10
75.0
 20
-96.0
 30
0.0
 40
3.0
  0
LINE
  8
NOTE
  6
CONTINUOUS
 62
     4
 10
75.0
 20
-116.0
 30
0.0
 11
75.0
 21
-76.0
 31
0.0
  0
LINE
  8
NOTE
  6
CONTINUOUS
 62
     4
 10
55.0
 20
-96.0
 30
0.0
 11
95.0
 21
-96.0
 31
0.0
  0
CIRCLE
  8
FIX
  6
CONTINUOUS
 62
    11
 10
75.0
 20
94.0
 30
0.0
 40
3.0
  0
ARC
  8
DETAIL
  6
CONTINUOUS
 62
     5
 10
75.0
 20
94.0
 30
0.0
 40
5.0
 50
233.13010200000039
 51
306.86989799999958
  0
ARC
  8
DETAIL
  6
CONTINUOUS
 62
     5
 10
75.0
 20
94.0
 30
0.0
 40
5.0
 50
53.130102000000349
 51
126.86989799999969
  0
LINE
  8
DETAIL
  6
CONTINUOUS
 62
     5
 10
72.0
 20
98.0
 30
0.0
 11
72.0
 21
90.0
 31
0.0
  0
LINE
  8
DETAIL
  6
CONTINUOUS
 62
     5
 10
78.0
 20
98.0
 30
0.0
 11
78.0
 21
90.0
 31
0.0
  0
LINE
  8
NOTE
  6
CONTINUOUS
 62
     4
 10
75.0
 20
114.0
 30
0.0
 11
75.0
 21
74.0
 31
0.0
  0
LINE
  8
NOTE
  6
CONTINUOUS
 62
     4
 10
55.0
 20
94.0
 30
0.0
 11
95.0
 21
94.0
 31
0.0
  0
LINE
  8
DETAIL
  6
CONTINUOUS
 62
     5
 10
-78.0
 20
98.0
 30
0.0
 11
-78.0
 21
90.0
 31
0.0
  0
LINE
  8
DETAIL
  6
CONTINUOUS
 62
     5
 10
-72.0
 20
98.0
 30
0.0
 11
-72.0
 21
90.0
 31
0.0
  0
ARC
  8
DETAIL
  6
CONTINUOUS
 62
     5
 10
-75.0
 20
94.0
 30
0.0
 40
5.0
 50
53.130102000000349
 51
126.86989799999969
  0
ARC
  8
DETAIL
  6
CONTINUOUS
 62
     5
 10
-75.0
 20
94.0
 30
0.0
 40
5.0
 50
233.13010200000039
 51
306.86989799999958
  0
CIRCLE
  8
FIX
  6
CONTINUOUS
 62
    11
 10
-75.0
 20
94.0
 30
0.0
 40
3.0
  0
LINE
  8
NOTE
  6
CONTINUOUS
 62
     4
 10
-75.0
 20
114.0
 30
0.0
 11
-75.0
 21
74.0
 31
0.0
  0
LINE
  8
NOTE
  6
CONTINUOUS
 62
     4
 10
-55.0
 20
94.0
 30
0.0
 11
-95.0
 21
94.0
 31
0.0
  0
LINE
  8
DETAIL
  6
CONTINUOUS
 62
     5
 10
-140.5
 20
26.99999600000001
 30
0.0
 11
-114.0
 21
26.99999600000001
 31
0.0
  0
LINE
  8
DETAIL
  6
CONTINUOUS
 62
     5
 10
-140.5
 20
-37.000005000000002
 30
0.0
 11
-114.0
 21
-37.000005000000002
 31
0.0
  0
LINE
  8
DETAIL
  6
CONTINUOUS
 62
     5
 10
-148.5
 20
49.099995999999997
 30
0.0
 11
-114.0
 21
49.099995999999997
 31
0.0
  0
LINE
  8
DETAIL
  6
CONTINUOUS
 62
     5
 10
-148.5
 20
-47.100003999999977
 30
0.0
 11
-114.0
 21
-47.100003999999977
 31
0.0
  0
LINE
  8
DETAIL
  6
CONTINUOUS
 62
     5
 10
-151.0
 20
-44.600003999999977
 30
0.0
 11
-151.0
 21
46.599995999999997
 31
0.0
  0
ARC
  8
DETAIL
  6
CONTINUOUS
 62
     5
 10
-148.5
 20
-44.600003999999977
 30
0.0
 40
2.5
 50
180.0
 51
270.0
  0
ARC
  8
DETAIL
  6
CONTINUOUS
 62
     5
 10
-148.5
 20
46.599995999999997
 30
0.0
 40
2.5
 50
90.0
 51
180.0
  0
LINE
  8
DETAIL
  6
CONTINUOUS
 62
     5
 10
-145.5
 20
-32.000005000000002
 30
0.0
 11
-145.5
 21
21.99999600000001
 31
0.0
  0
ARC
  8
DETAIL
  6
CONTINUOUS
 62
     5
 10
-140.5
 20
-32.000005000000002
 30
0.0
 40
5.0
 50
180.0
 51
270.0
  0
ARC
  8
DETAIL
  6
CONTINUOUS
 62
     5
 10
-140.5
 20
21.99999600000001
 30
0.0
 40
5.0
 50
90.0
 51
180.0
  0
LINE
  8
SIZE
  6
CONTINUOUS
 62
    30
 10
105.0
 20
124.0
 30
0.0
 11
439.16404299999999
 21
124.0
 31
0.0
  0
LINE
  8
SIZE
  6
CONTINUOUS
 62
    30
 10
110.0
 20
-126.0
 30
0.0
 11
439.16404299999999
 21
-126.0
 31
0.0
  0
LINE
  8
SIZE
  6
CONTINUOUS
 62
    30
 10
419.16404299999999
 20
112.0
 30
0.0
 11
419.16404299999999
 21
-114.0
 31
0.0
  0
TEXT
  8
SIZE
  6
CONTINUOUS
 62
    30
 10
394.16404299999999
 20
-75.05714285714285
 30
0.0
 40
64.0
  1
250
 50
90.0
 41
0.9
 72
     1
 11
394.16404299999999
 21
-1.0
 31
0.0
  0
CIRCLE
  8
SIZE
  6
CONTINUOUS
 62
    30
 10
419.16404299999999
 20
124.0
 30
0.0
 40
6.0
  0
LINE
  8
SIZE
  6
CONTINUOUS
 62
    30
 10
419.16404299999999
 20
124.0
 30
0.0
 11
419.16404299999999
 21
112.0
 31
0.0
  0
CIRCLE
  8
SIZE
  6
CONTINUOUS
 62
    30
 10
419.16404299999999
 20
-126.0
 30
0.0
 40
6.0
  0
LINE
  8
SIZE
  6
CONTINUOUS
 62
    30
 10
419.16404299999999
 20
-126.0
 30
0.0
 11
419.16404299999999
 21
-114.0
 31
0.0
  0
LINE
  8
SIZE
  6
CONTINUOUS
 62
    30
 10
85.0
 20
144.0
 30
0.0
 11
85.0
 21
463.40021300000001
 31
0.0
  0
LINE
  8
SIZE
  6
CONTINUOUS
 62
    30
 10
-151.0
 20
66.599995999999976
 30
0.0
 11
-151.0
 21
463.40021300000001
 31
0.0
  0
LINE
  8
SIZE
  6
CONTINUOUS
 62
    30
 10
73.0
 20
443.40021300000001
 30
0.0
 11
-139.0
 21
443.40021300000001
 31
0.0
  0
TEXT
  8
SIZE
  6
CONTINUOUS
 62
    30
 10
-110.5857142857143
 20
468.40021300000001
 30
0.0
 40
64.0
  1
236
 41
0.9
 72
     1
 11
-37.900000000000013
 21
468.40021300000001
 31
0.0
  0
CIRCLE
  8
SIZE
  6
CONTINUOUS
 62
    30
 10
85.0
 20
443.40021300000001
 30
0.0
 40
6.0
  0
LINE
  8
SIZE
  6
CONTINUOUS
 62
    30
 10
85.0
 20
443.40021300000001
 30
0.0
 11
73.0
 21
443.40021300000001
 31
0.0
  0
CIRCLE
  8
SIZE
  6
CONTINUOUS
 62
    30
 10
-151.0
 20
443.40021300000001
 30
0.0
 40
6.0
  0
LINE
  8
SIZE
  6
CONTINUOUS
 62
    30
 10
-151.0
 20
443.40021300000001
 30
0.0
 11
-139.0
 21
443.40021300000001
 31
0.0
  0
LINE
  8
SIZE
  6
CONTINUOUS
 62
    30
 10
-75.0
 20
-126.0
 30
0.0
 11
-75.0
 21
-459.14788899999991
 31
0.0
  0
LINE
  8
SIZE
  6
CONTINUOUS
 62
    30
 10
75.0
 20
-126.0
 30
0.0
 11
75.0
 21
-459.14788899999991
 31
0.0
  0
LINE
  8
SIZE
  6
CONTINUOUS
 62
    30
 10
-63.0
 20
-439.14788899999991
 30
0.0
 11
63.0
 21
-439.14788899999991
 31
0.0
  0
TEXT
  8
SIZE
  6
CONTINUOUS
 62
    30
 10
-68.571428571428569
 20
-414.29382900000002
 30
0.0
 40
64.0
  1
150
 41
0.9
 72
     1
 11
0.0
 21
-414.29382900000002
 31
0.0
  0
CIRCLE
  8
SIZE
  6
CONTINUOUS
 62
    30
 10
-75.0
 20
-439.14788899999991
 30
0.0
 40
6.0
  0
LINE
  8
SIZE
  6
CONTINUOUS
 62
    30
 10
-75.0
 20
-439.14788899999991
 30
0.0
 11
-63.0
 21
-439.14788899999991
 31
0.0
  0
CIRCLE
  8
SIZE
  6
CONTINUOUS
 62
    30
 10
75.0
 20
-439.14788899999991
 30
0.0
 40
6.0
  0
LINE
  8
SIZE
  6
CONTINUOUS
 62
    30
 10
75.0
 20
-439.14788899999991
 30
0.0
 11
63.0
 21
-439.14788899999991
 31
0.0
  0
LINE
  8
SIZE
  6
CONTINUOUS
 62
    30
 10
-90.0
 20
-148.0
 30
0.0
 11
-90.0
 21
-586.44234400000016
 31
0.0
  0
LINE
  8
SIZE
  6
CONTINUOUS
 62
    30
 10
90.0
 20
-148.0
 30
0.0
 11
90.0
 21
-586.44234400000016
 31
0.0
  0
LINE
  8
SIZE
  6
CONTINUOUS
 62
    30
 10
-78.0
 20
-566.44234400000016
 30
0.0
 11
78.0
 21
-566.44234400000016
 31
0.0
  0
TEXT
  8
SIZE
  6
CONTINUOUS
 62
    30
 10
-98.742857142857147
 20
-543.06079599999987
 30
0.0
 40
64.0
  1
φ180
 41
0.9
 72
     1
 11
0.0
 21
-543.06079599999987
 31
0.0
  0
CIRCLE
  8
SIZE
  6
CONTINUOUS
 62
    30
 10
-90.0
 20
-566.44234400000016
 30
0.0
 40
6.0
  0
LINE
  8
SIZE
  6
CONTINUOUS
 62
    30
 10
-90.0
 20
-566.44234400000016
 30
0.0
 11
-78.0
 21
-566.44234400000016
 31
0.0
  0
CIRCLE
  8
SIZE
  6
CONTINUOUS
 62
    30
 10
90.0
 20
-566.44234400000016
 30
0.0
 40
6.0
  0
LINE
  8
SIZE
  6
CONTINUOUS
 62
    30
 10
90.0
 20
-566.44234400000016
 30
0.0
 11
78.0
 21
-566.44234400000016
 31
0.0
  0
LINE
  8
SIZE
  6
CONTINUOUS
 62
    30
 10
85.0
 20
144.0
 30
0.0
 11
85.0
 21
352.64761900000002
 31
0.0
  0
LINE
  8
SIZE
  6
CONTINUOUS
 62
    30
 10
-85.0
 20
144.0
 30
0.0
 11
-85.0
 21
352.64761900000002
 31
0.0
  0
LINE
  8
SIZE
  6
CONTINUOUS
 62
    30
 10
73.0
 20
332.64761900000002
 30
0.0
 11
-73.0
 21
332.64761900000002
 31
0.0
  0
TEXT
  8
SIZE
  6
CONTINUOUS
 62
    30
 10
-68.571428571428569
 20
357.64761900000002
 30
0.0
 40
64.0
  1
170
 41
0.9
 72
     1
 11
0.0
 21
357.64761900000002
 31
0.0
  0
CIRCLE
  8
SIZE
  6
CONTINUOUS
 62
    30
 10
85.0
 20
332.64761900000002
 30
0.0
 40
6.0
  0
LINE
  8
SIZE
  6
CONTINUOUS
 62
    30
 10
85.0
 20
332.64761900000002
 30
0.0
 11
73.0
 21
332.64761900000002
 31
0.0
  0
CIRCLE
  8
SIZE
  6
CONTINUOUS
 62
    30
 10
-85.0
 20
332.64761900000002
 30
0.0
 40
6.0
  0
LINE
  8
SIZE
  6
CONTINUOUS
 62
    30
 10
-85.0
 20
332.64761900000002
 30
0.0
 11
-73.0
 21
332.64761900000002
 31
0.0
  0
LINE
  8
SIZE
  6
CONTINUOUS
 62
    30
 10
-65.0
 20
144.0
 30
0.0
 11
-65.0
 21
238.18902700000001
 31
0.0
  0
LINE
  8
SIZE
  6
CONTINUOUS
 62
    30
 10
-85.0
 20
144.0
 30
0.0
 11
-85.0
 21
238.18902700000001
 31
0.0
  0
LINE
  8
SIZE
  6
CONTINUOUS
 62
    30
 10
-53.0
 20
218.18902700000001
 30
0.0
 11
-41.0
 21
218.18902700000001
 31
0.0
  0
LINE
  8
SIZE
  6
CONTINUOUS
 62
    30
 10
-97.0
 20
218.18902700000001
 30
0.0
 11
-109.0
 21
218.18902700000001
 31
0.0
  0
LINE
  8
SIZE
  6
CONTINUOUS
 62
    30
 10
-305.88155499999999
 20
218.18902700000001
 30
0.0
 11
-85.0
 21
218.18902700000001
 31
0.0
  0
TEXT
  8
SIZE
  6
CONTINUOUS
 62
    30
 10
-280.88155442857141
 20
243.18902700000001
 30
0.0
 40
64.0
  1
20
 41
0.9
 72
     1
 11
-234.252983
 21
243.18902700000001
 31
0.0
  0
LINE
  8
SIZE
  6
CONTINUOUS
 62
    30
 10
-65.0
 20
218.18902700000001
 30
0.0
 11
-85.0
 21
218.18902700000001
 31
0.0
  0
LINE
  8
SIZE
  6
CONTINUOUS
 62
    30
 10
-65.0
 20
218.18902700000001
 30
0.0
 11
-85.0
 21
218.18902700000001
 31
0.0
  0
CIRCLE
  8
SIZE
  6
CONTINUOUS
 62
    30
 10
-65.0
 20
218.18902700000001
 30
0.0
 40
6.0
  0
LINE
  8
SIZE
  6
CONTINUOUS
 62
    30
 10
-65.0
 20
218.18902700000001
 30
0.0
 11
-53.0
 21
218.18902700000001
 31
0.0
  0
CIRCLE
  8
SIZE
  6
CONTINUOUS
 62
    30
 10
-85.0
 20
218.18902700000001
 30
0.0
 40
6.0
  0
LINE
  8
SIZE
  6
CONTINUOUS
 62
    30
 10
-85.0
 20
218.18902700000001
 30
0.0
 11
-97.0
 21
218.18902700000001
 31
0.0
  0
LINE
  8
SIZE
  6
CONTINUOUS
 62
    30
 10
65.0
 20
144.0
 30
0.0
 11
65.0
 21
239.57560000000001
 31
0.0
  0
LINE
  8
SIZE
  6
CONTINUOUS
 62
    30
 10
85.0
 20
144.0
 30
0.0
 11
85.0
 21
239.57560000000001
 31
0.0
  0
LINE
  8
SIZE
  6
CONTINUOUS
 62
    30
 10
53.0
 20
219.57560000000001
 30
0.0
 11
41.0
 21
219.57560000000001
 31
0.0
  0
LINE
  8
SIZE
  6
CONTINUOUS
 62
    30
 10
97.0
 20
219.57560000000001
 30
0.0
 11
109.0
 21
219.57560000000001
 31
0.0
  0
LINE
  8
SIZE
  6
CONTINUOUS
 62
    30
 10
255.86822100000001
 20
219.57560000000001
 30
0.0
 11
85.0
 21
219.57560000000001
 31
0.0
  0
TEXT
  8
SIZE
  6
CONTINUOUS
 62
    30
 10
137.61107857142849
 20
244.57560000000001
 30
0.0
 40
64.0
  1
20
 41
0.9
 72
     1
 11
184.23965000000001
 21
244.57560000000001
 31
0.0
  0
LINE
  8
SIZE
  6
CONTINUOUS
 62
    30
 10
65.0
 20
219.57560000000001
 30
0.0
 11
85.0
 21
219.57560000000001
 31
0.0
  0
LINE
  8
SIZE
  6
CONTINUOUS
 62
    30
 10
65.0
 20
219.57560000000001
 30
0.0
 11
85.0
 21
219.57560000000001
 31
0.0
  0
CIRCLE
  8
SIZE
  6
CONTINUOUS
 62
    30
 10
65.0
 20
219.57560000000001
 30
0.0
 40
6.0
  0
LINE
  8
SIZE
  6
CONTINUOUS
 62
    30
 10
65.0
 20
219.57560000000001
 30
0.0
 11
53.0
 21
219.57560000000001
 31
0.0
  0
CIRCLE
  8
SIZE
  6
CONTINUOUS
 62
    30
 10
85.0
 20
219.57560000000001
 30
0.0
 40
6.0
  0
LINE
  8
SIZE
  6
CONTINUOUS
 62
    30
 10
85.0
 20
219.57560000000001
 30
0.0
 11
97.0
 21
219.57560000000001
 31
0.0
  0
LINE
  8
SIZE
  6
CONTINUOUS
 62
    30
 10
-87.0
 20
218.18902700000001
 30
0.0
 11
-288.01662599999997
 21
218.18902700000001
 31
0.0
  0
LINE
  8
SIZE
  6
CONTINUOUS
 62
    30
 10
87.0
 20
219.57560000000001
 30
0.0
 11
258.181622
 21
219.57560000000001
 31
0.0
  0
ARC
  8
OUTLINE
  6
CONTINUOUS
 62
     3
 10
-148.5
 20
46.599995999999997
 30
0.0
 40
2.5
 50
90.0
 51
180.0
  0
ARC
  8
OUTLINE
  6
CONTINUOUS
 62
     3
 10
-148.5
 20
-44.600003999999977
 30
0.0
 40
2.5
 50
180.0
 51
270.0
  0
LINE
  8
OUTLINE
  6
CONTINUOUS
 62
     3
 10
-151.0
 20
-44.600003999999977
 30
0.0
 11
-151.0
 21
46.599995999999997
 31
0.0
  0
LINE
  8
OUTLINE
  6
CONTINUOUS
 62
     3
 10
-148.5
 20
-47.100003999999977
 30
0.0
 11
-114.0
 21
-47.100003999999977
 31
0.0
  0
LINE
  8
OUTLINE
  6
CONTINUOUS
 62
     3
 10
-148.5
 20
49.099995999999997
 30
0.0
 11
-114.0
 21
49.099995999999997
 31
0.0
  0
LINE
  8
OUTLINE
  6
CONTINUOUS
 62
     3
 10
85.0
 20
-91.0
 30
0.0
 11
85.0
 21
89.0
 31
0.0
  0
ARC
  8
OUTLINE
  6
CONTINUOUS
 62
     3
 10
-109.0
 20
89.295980999999983
 30
0.0
 40
5.0
 50
90.0
 51
180.0
  0
ARC
  8
OUTLINE
  6
CONTINUOUS
 62
     3
 10
-109.0
 20
-90.693541999999994
 30
0.0
 40
5.0
 50
180.0
 51
270.0
  0
LINE
  8
OUTLINE
  6
CONTINUOUS
 62
     3
 10
-114.0
 20
-90.693541999999994
 30
0.0
 11
-114.0
 21
-47.100003999999977
 31
0.0
  0
LINE
  8
OUTLINE
  6
CONTINUOUS
 62
     3
 10
-114.0
 20
49.099995999999997
 30
0.0
 11
-114.0
 21
89.295980999999983
 31
0.0
  0
LINE
  8
OUTLINE
  6
CONTINUOUS
 62
     3
 10
-109.0
 20
-95.693541999999994
 30
0.0
 11
-85.0
 21
-95.693541999999994
 31
0.0
  0
LINE
  8
OUTLINE
  6
CONTINUOUS
 62
     3
 10
-109.0
 20
94.295980999999983
 30
0.0
 11
-85.0
 21
94.295980999999983
 31
0.0
  0
LINE
  8
OUTLINE
  6
CONTINUOUS
 62
     3
 10
-85.0
 20
124.0
 30
0.0
 11
-65.0
 21
124.0
 31
0.0
  0
LINE
  8
OUTLINE
  6
CONTINUOUS
 62
     3
 10
-85.0
 20
-126.0
 30
0.0
 11
-85.0
 21
-95.693541999999994
 31
0.0
  0
LINE
  8
OUTLINE
  6
CONTINUOUS
 62
     3
 10
-85.0
 20
94.295981000000012
 30
0.0
 11
-85.0
 21
124.0
 31
0.0
  0
LINE
  8
OUTLINE
  6
CONTINUOUS
 62
     3
 10
85.0
 20
-126.0
 30
0.0
 11
85.0
 21
124.0
 31
0.0
  0
LINE
  8
OUTLINE
  6
CONTINUOUS
 62
     3
 10
-65.0
 20
99.0
 30
0.0
 11
-65.0
 21
124.0
 31
0.0
  0
LINE
  8
OUTLINE
  6
CONTINUOUS
 62
     3
 10
65.0
 20
99.0
 30
0.0
 11
65.0
 21
124.0
 31
0.0
  0
LINE
  8
OUTLINE
  6
CONTINUOUS
 62
     3
 10
-65.0
 20
99.0
 30
0.0
 11
65.0
 21
99.0
 31
0.0
  0
LINE
  8
OUTLINE
  6
CONTINUOUS
 62
     3
 10
65.0
 20
124.0
 30
0.0
 11
85.0
 21
124.0
 31
0.0
  0
LINE
  8
BASIS
  6
DASHDOT
 62
     6
 10
-178.19398899999999
 20
0.0
 30
0.0
 11
119.7911319018021
 21
0.0
 31
0.0
  0
LINE
  8
SIZE
  6
CONTINUOUS
 62
    30
 10
-168.5
 20
49.099995999999997
 30
0.0
 11
-402.00944399999992
 21
49.099995999999997
 31
0.0
  0
LINE
  8
SIZE
  6
CONTINUOUS
 62
    30
 10
-168.5
 20
-47.100003999999977
 30
0.0
 11
-402.00944399999992
 21
-47.100003999999977
 31
0.0
  0
LINE
  8
SIZE
  6
CONTINUOUS
 62
    30
 10
-382.00944399999997
 20
37.099995999999997
 30
0.0
 11
-382.00944399999997
 21
-35.100003999999998
 31
0.0
  0
LINE
  8
SIZE
  6
CONTINUOUS
 62
    30
 10
-382.00944399999997
 20
-464.98092800000001
 30
0.0
 11
-382.00944399999997
 21
-47.100003999999977
 31
0.0
  0
TEXT
  8
SIZE
  6
CONTINUOUS
 62
    30
 10
-407.00944399999997
 20
-441.3523571428571
 30
0.0
 40
64.0
  1
φ96.2
 50
90.0
 41
0.9
 72
     1
 11
-407.00944399999997
 21
-323.40949999999998
 31
0.0
  0
CIRCLE
  8
SIZE
  6
CONTINUOUS
 62
    30
 10
-382.00944399999997
 20
49.099995999999997
 30
0.0
 40
6.0
  0
LINE
  8
SIZE
  6
CONTINUOUS
 62
    30
 10
-382.00944399999997
 20
49.099995999999997
 30
0.0
 11
-382.00944399999997
 21
37.099995999999997
 31
0.0
  0
CIRCLE
  8
SIZE
  6
CONTINUOUS
 62
    30
 10
-382.00944399999997
 20
-47.100003999999977
 30
0.0
 40
6.0
  0
LINE
  8
SIZE
  6
CONTINUOUS
 62
    30
 10
-382.00944399999997
 20
-47.100003999999977
 30
0.0
 11
-382.00944399999997
 21
-35.100003999999998
 31
0.0
  0
LINE
  8
SIZE
  6
CONTINUOUS
 62
    30
 10
-382.00944399999997
 20
-47.100003999999977
 30
0.0
 11
-382.00944399999997
 21
-430.90482500000002
 31
0.0
  0
LINE
  8
BASIS
  6
DASHDOT
 62
     6
 10
73.083688999999993
 20
-0.5
 30
0.0
 11
119.67932999999999
 21
-0.5
 31
0.0
  0
LINE
  8
SIZE
  6
CONTINUOUS
 62
    30
 10
-198.1939889999999
 20
0.0
 30
0.0
 11
-280.10592800000001
 21
0.0
 31
0.0
  0
LINE
  8
SIZE
  6
CONTINUOUS
 62
    30
 10
-110.0
 20
-126.0
 30
0.0
 11
-280.10592800000001
 21
-126.0
 31
0.0
  0
LINE
  8
SIZE
  6
CONTINUOUS
 62
    30
 10
-260.10592800000001
 20
-12.0
 30
0.0
 11
-260.10592800000001
 21
-114.0
 31
0.0
  0
LINE
  8
SIZE
  6
CONTINUOUS
 62
    30
 10
-260.10592800000001
 20
-353.86649
 30
0.0
 11
-260.10592800000001
 21
-126.0
 31
0.0
  0
TEXT
  8
SIZE
  6
CONTINUOUS
 62
    30
 10
-285.10592800000001
 20
-328.86649
 30
0.0
 40
64.0
  1
126
 50
90.0
 41
0.9
 72
     1
 11
-285.10592800000001
 21
-261.66649000000001
 31
0.0
  0
CIRCLE
  8
SIZE
  6
CONTINUOUS
 62
    30
 10
-260.10592800000001
 20
0.0
 30
0.0
 40
6.0
  0
LINE
  8
SIZE
  6
CONTINUOUS
 62
    30
 10
-260.10592800000001
 20
0.0
 30
0.0
 11
-260.10592800000001
 21
-12.0
 31
0.0
  0
CIRCLE
  8
SIZE
  6
CONTINUOUS
 62
    30
 10
-260.10592800000001
 20
-126.0
 30
0.0
 40
6.0
  0
LINE
  8
SIZE
  6
CONTINUOUS
 62
    30
 10
-260.10592800000001
 20
-126.0
 30
0.0
 11
-260.10592800000001
 21
-114.0
 31
0.0
  0
LINE
  8
SIZE
  6
CONTINUOUS
 62
    30
 10
-260.10592800000001
 20
-126.0
 30
0.0
 11
-260.10592800000001
 21
-328.67326500000001
 31
0.0
  0
LINE
  8
SIZE
  6
CONTINUOUS
 62
    30
 10
-115.0
 20
94.0
 30
0.0
 11
-526.92045299999995
 21
94.0
 31
0.0
  0
LINE
  8
SIZE
  6
CONTINUOUS
 62
    30
 10
-115.0
 20
-96.0
 30
0.0
 11
-526.92045299999995
 21
-96.0
 31
0.0
  0
LINE
  8
SIZE
  6
CONTINUOUS
 62
    30
 10
-506.92045300000001
 20
82.0
 30
0.0
 11
-506.92045300000001
 21
-84.0
 31
0.0
  0
CIRCLE
  8
SIZE
  6
CONTINUOUS
 62
    30
 10
-506.92045300000001
 20
94.0
 30
0.0
 40
6.0
  0
LINE
  8
SIZE
  6
CONTINUOUS
 62
    30
 10
-506.92045300000001
 20
94.0
 30
0.0
 11
-506.92045300000001
 21
82.0
 31
0.0
  0
CIRCLE
  8
SIZE
  6
CONTINUOUS
 62
    30
 10
-506.92045300000001
 20
-96.0
 30
0.0
 40
6.0
  0
LINE
  8
SIZE
  6
CONTINUOUS
 62
    30
 10
-506.92045300000001
 20
-96.0
 30
0.0
 11
-506.92045300000001
 21
-84.0
 31
0.0
  0
TEXT
  8
SIZE
  6
CONTINUOUS
 62
    30
 10
-531.92045299999995
 20
-69.571428571428569
 30
0.0
 40
64.0
  1
190
 50
90.0
 41
0.9
 72
     1
 11
-531.92045299999995
 21
-1.0
 31
0.0
  0
TEXT
  8
NOTE
  6
CONTINUOUS
 62
     4
 10
-811.08212200000003
 20
-561.27449200000001
 30
0.0
 40
64.0
  1
AH
 41
0.9
  0
TEXT
  8
NOTE
  6
CONTINUOUS
 62
     4
 10
185.322597
 20
-62.587883999999988
 30
0.0
 40
64.0
  1
入口
 50
90.0
 41
0.9
  0
TEXT
  8
NOTE
  6
CONTINUOUS
 62
     4
 10
-56.95732799999999
 20
-255.21439000000001
 30
0.0
 40
64.0
  1
出口
 41
0.9
  0
LINE
  8
NOTE
  6
CONTINUOUS
 62
     4
 10
-658.14042099999995
 20
-586.0345269999998
 30
0.0
 11
-816.23147899999981
 21
-586.0345269999998
 31
0.0
  0
LINE
  8
SIZE
  6
CONTINUOUS
 62
    30
 10
139.67932999999999
 20
-0.5
 30
0.0
 11
312.05153999999999
 21
-0.5
 31
0.0
  0
LINE
  8
SIZE
  6
CONTINUOUS
 62
    30
 10
105.0
 20
-126.0
 30
0.0
 11
312.05153999999999
 21
-126.0
 31
0.0
  0
LINE
  8
SIZE
  6
CONTINUOUS
 62
    30
 10
292.05153999999999
 20
-12.5
 30
0.0
 11
292.05153999999999
 21
-114.0
 31
0.0
  0
LINE
  8
SIZE
  6
CONTINUOUS
 62
    30
 10
292.05153999999999
 20
-459.70693099999988
 30
0.0
 11
292.05153999999999
 21
-126.0
 31
0.0
  0
TEXT
  8
SIZE
  6
CONTINUOUS
 62
    30
 10
267.05153999999999
 20
-434.7069317142857
 30
0.0
 40
64.0
  1
125.5
 50
90.0
 41
0.9
 72
     1
 11
267.05153999999999
 21
-324.99264599999998
 31
0.0
  0
CIRCLE
  8
SIZE
  6
CONTINUOUS
 62
    30
 10
292.05153999999999
 20
-0.5
 30
0.0
 40
6.0
  0
LINE
  8
SIZE
  6
CONTINUOUS
 62
    30
 10
292.05153999999999
 20
-0.5
 30
0.0
 11
292.05153999999999
 21
-12.5
 31
0.0
  0
CIRCLE
  8
SIZE
  6
CONTINUOUS
 62
    30
 10
292.05153999999999
 20
-126.0
 30
0.0
 40
6.0
  0
LINE
  8
SIZE
  6
CONTINUOUS
 62
    30
 10
292.05153999999999
 20
-126.0
 30
0.0
 11
292.05153999999999
 21
-114.0
 31
0.0
  0
TEXT
  8
ETC
  6
CONTINUOUS
 62
    61
 10
337.19648337148169
 20
440.96377085733212
 30
0.0
 40
64.0
  1
産業扇
 41
0.9
  0
TEXT
  8
ETC
  6
CONTINUOUS
 62
    61
 10
332.36421537148158
 20
552.30840085733212
 30
0.0
 40
64.0
  1
BF-16S5_1
 41
0.9
  0
TEXT
  8
ETC
  6
CONTINUOUS
 62
    61
 10
421.0604254790303
 20
331.10996963097318
 30
0.0
 40
64.0
  1
BF-16S5
 41
0.9
  0
LINE
  8
OUTLINE
  6
CONTINUOUS
 62
     3
 10
-90.0
 20
-126.8
 30
0.0
 11
-90.0
 21
-126.0
 31
0.0
  0
LINE
  8
OUTLINE
  6
CONTINUOUS
 62
     3
 10
90.0
 20
-126.8
 30
0.0
 11
90.0
 21
-126.0
 31
0.0
  0
LINE
  8
OUTLINE
  6
CONTINUOUS
 62
     3
 10
-85.0
 20
-126.0
 30
0.0
 11
-90.0
 21
-126.0
 31
0.0
  0
LINE
  8
OUTLINE
  6
CONTINUOUS
 62
     3
 10
85.0
 20
-126.0
 30
0.0
 11
90.0
 21
-126.0
 31
0.0
  0
LINE
  8
OUTLINE
  6
CONTINUOUS
 62
     3
 10
-90.0
 20
-126.8
 30
0.0
 11
90.0
 21
-126.8
 31
0.0
  0
ENDSEC
  0
EOF
