  0
SECTION
  2
HEADER
  9
$ACADVER
  1
AC1009
  9
$INSBASE
 10
0.0
 20
0.0
 30
0.0
  9
$EXTMIN
 10
-947.55103499999996
 20
-613.41163200000005
 30
0.0
  9
$EXTMAX
 10
806.76767525898265
 20
768.92178870202065
 30
0.0
  9
$LIMMIN
 10
-2970.0
 20
-2100.0
  9
$LIMMAX
 10
2970.0
 20
2100.0
  9
$ORTHOMODE
 70
     1
  9
$REGENMODE
 70
     0
  9
$FILLMODE
 70
     1
  9
$QTEXTMODE
 70
     0
  9
$MIRRTEXT
 70
     0
  9
$DRAGMODE
 70
     2
  9
$LTSCALE
 40
20.0
  9
$OSMODE
 70
    37
  9
$ATTMODE
 70
     1
  9
$TEXTSIZE
 40
64.0
  9
$TRACEWID
 40
0.05
  9
$TEXTSTYLE
  7
STANDARD
  9
$CLAYER
  8
SIZE
  9
$CELTYPE
  6
CONTINUOUS
  9
$CECOLOR
 62
     8
  9
$DIMSCALE
 40
1.0
  9
$DIMASZ
 40
12.0
  9
$DIMEXO
 40
20.0
  9
$DIMDLI
 40
200.0
  9
$DIMRND
 40
0.0
  9
$DIMDLE
 40
0.0
  9
$DIMEXE
 40
20.0
  9
$DIMTP
 40
0.0
  9
$DIMTM
 40
0.0
  9
$DIMTXT
 40
64.0
  9
$DIMCEN
 40
0.09
  9
$DIMTSZ
 40
0.0
  9
$DIMTOL
 70
     0
  9
$DIMLIM
 70
     0
  9
$DIMTIH
 70
     0
  9
$DIMTOH
 70
     0
  9
$DIMSE1
 70
     0
  9
$DIMSE2
 70
     0
  9
$DIMTAD
 70
     1
  9
$DIMZIN
 70
     8
  9
$DIMBLK
  1
DOT1
  9
$DIMASO
 70
     1
  9
$DIMSHO
 70
     0
  9
$DIMPOST
  1

  9
$DIMAPOST
  1

  9
$DIMALT
 70
     0
  9
$DIMALTD
 70
     2
  9
$DIMALTF
 40
25.399999999999999
  9
$DIMLFAC
 40
1.0
  9
$DIMTOFL
 70
     1
  9
$DIMTVP
 40
0.0
  9
$DIMTIX
 70
     1
  9
$DIMSOXD
 70
     0
  9
$DIMSAH
 70
     1
  9
$DIMBLK1
  1
ORIGIN
  9
$DIMBLK2
  1
ORIGIN
  9
$DIMSTYLE
  2
STANDARD
  9
$DIMCLRD
 70
     0
  9
$DIMCLRE
 70
     0
  9
$DIMCLRT
 70
     0
  9
$DIMTFAC
 40
1.0
  9
$DIMGAP
 40
0.09
  9
$LUNITS
 70
     2
  9
$LUPREC
 70
     4
  9
$SKETCHINC
 40
0.1
  9
$FILLETRAD
 40
4.0
  9
$AUNITS
 70
     1
  9
$AUPREC
 70
     3
  9
$MENU
  1
ACAD
  9
$ELEVATION
 40
0.0
  9
$PELEVATION
 40
0.0
  9
$THICKNESS
 40
50.0
  9
$LIMCHECK
 70
     0
  9
$BLIPMODE
 70
     0
  9
$CHAMFERA
 40
0.0
  9
$CHAMFERB
 40
0.0
  9
$SKPOLY
 70
     0
  9
$TDCREATE
 40
2452321.3961996529
  9
$TDUPDATE
 40
2454922.655124085
  9
$TDINDWG
 40
0.0087365972
  9
$TDUSRTIMER
 40
0.0087365972
  9
$USRTIMER
 70
     1
  9
$ANGBASE
 50
0.0
  9
$ANGDIR
 70
     0
  9
$PDMODE
 70
     3
  9
$PDSIZE
 40
-2.0
  9
$PLINEWID
 40
0.0
  9
$COORDS
 70
     0
  9
$SPLFRAME
 70
     0
  9
$SPLINETYPE
 70
     6
  9
$SPLINESEGS
 70
     8
  9
$ATTDIA
 70
     0
  9
$ATTREQ
 70
     1
  9
$HANDLING
 70
     1
  9
$HANDSEED
  5
1D1
  9
$SURFTAB1
 70
     6
  9
$SURFTAB2
 70
     6
  9
$SURFTYPE
 70
     6
  9
$SURFU
 70
     6
  9
$SURFV
 70
     6
  9
$UCSNAME
  2

  9
$UCSORG
 10
0.0
 20
0.0
 30
0.0
  9
$UCSXDIR
 10
1.0
 20
0.0
 30
0.0
  9
$UCSYDIR
 10
0.0
 20
1.0
 30
0.0
  9
$PUCSNAME
  2

  9
$PUCSORG
 10
0.0
 20
0.0
 30
0.0
  9
$PUCSXDIR
 10
1.0
 20
0.0
 30
0.0
  9
$PUCSYDIR
 10
0.0
 20
1.0
 30
0.0
  9
$USERI1
 70
     0
  9
$USERI2
 70
     0
  9
$USERI3
 70
     0
  9
$USERI4
 70
     0
  9
$USERI5
 70
     0
  9
$USERR1
 40
20.0
  9
$USERR2
 40
0.0
  9
$USERR3
 40
0.0
  9
$USERR4
 40
0.0
  9
$USERR5
 40
0.0
  9
$WORLDVIEW
 70
     1
  9
$SHADEDGE
 70
     3
  9
$SHADEDIF
 70
    70
  9
$TILEMODE
 70
     1
  9
$MAXACTVP
 70
    64
  9
$PLIMCHECK
 70
     0
  9
$PEXTMIN
 10
1.0000000000000000E+020
 20
1.0000000000000000E+020
 30
1.0000000000000000E+020
  9
$PEXTMAX
 10
-1.0000000000000000E+020
 20
-1.0000000000000000E+020
 30
-1.0000000000000000E+020
  9
$PLIMMIN
 10
0.0
 20
0.0
  9
$PLIMMAX
 10
12.0
 20
9.0
  9
$UNITMODE
 70
     0
  9
$VISRETAIN
 70
     1
  9
$PLINEGEN
 70
     0
  9
$PSLTSCALE
 70
     1
  0
ENDSEC
  0
SECTION
  2
TABLES
  0
TABLE
  2
VPORT
 70
     1
  0
VPORT
  2
*ACTIVE
 70
     0
 10
0.0
 20
0.0
 11
1.0
 21
1.0
 12
-102.6466230000001
 22
166.46201161366301
 13
0.0
 23
0.0
 14
1.0
 24
1.0
 15
0.0
 25
0.0
 16
0.0
 26
0.0
 36
1.0
 17
0.0
 27
0.0
 37
0.0
 40
1574.052944227326
 41
1.3387096774193541
 42
50.0
 43
0.0
 44
0.0
 50
0.0
 51
0.0
 71
     0
 72
   100
 73
     1
 74
     0
 75
     0
 76
     0
 77
     0
 78
     0
  0
ENDTAB
  0
TABLE
  2
LTYPE
 70
     3
  0
LTYPE
  2
CONTINUOUS
 70
     0
  3
実線
 72
    65
 73
     0
 40
0.0
  0
LTYPE
  2
DASHDOT
 70
     0
  3
____ _ ____ _ ____ _ ____ _ ____ _ ____ _ ____
 72
    65
 73
     4
 40
5.5
 49
4.0
 49
-0.6
 49
0.3
 49
-0.6
  0
ENDTAB
  0
TABLE
  2
LAYER
 70
    12
  0
LAYER
  2
0
 70
     0
 62
     7
  6
CONTINUOUS
  0
LAYER
  2
SIZE
 70
     0
 62
    30
  6
CONTINUOUS
  0
LAYER
  2
BASIS
 70
     0
 62
     6
  6
DASHDOT
  0
LAYER
  2
OUTLINE
 70
     0
 62
     3
  6
CONTINUOUS
  0
LAYER
  2
DETAIL
 70
     0
 62
     5
  6
CONTINUOUS
  0
LAYER
  2
ARRANGE
 70
     0
 62
     1
  6
CONTINUOUS
  0
LAYER
  2
DEFPOINTS
 70
     0
 62
     7
  6
CONTINUOUS
  0
LAYER
  2
ETC
 70
     0
 62
    61
  6
CONTINUOUS
  0
LAYER
  2
FIX
 70
     0
 62
    11
  6
CONTINUOUS
  0
LAYER
  2
NOTE
 70
     0
 62
     4
  6
CONTINUOUS
  0
LAYER
  2
SERVICESPACE
 70
     0
 62
     2
  6
DASHDOT
  0
LAYER
  2
SYMBOLLINE
 70
     0
 62
    15
  6
CONTINUOUS
  0
ENDTAB
  0
TABLE
  2
STYLE
 70
     2
  0
STYLE
  2
STANDARD
 70
     0
 40
64.0
 41
0.9
 50
0.0
 71
     0
 42
64.0
  3
SIMPLEX.shx
  4
BIGFONT.shx
  0
STYLE
  2
ANNOTATIVE
 70
     0
 40
0.0
 41
1.0
 50
0.0
 71
     0
 42
0.2
  3
txt
  4

  0
ENDTAB
  0
TABLE
  2
VIEW
 70
     1
  0
VIEW
  2
ALL
 70
     0
 40
4282.6198079999986
 10
0.0
 20
41.309903999999989
 41
5940.0
 11
0.0
 21
0.0
 31
1.0
 12
0.0
 22
0.0
 32
0.0
 42
50.0
 43
0.0
 44
0.0
 50
0.0
 71
     0
  0
ENDTAB
  0
TABLE
  2
UCS
 70
     0
  0
ENDTAB
  0
TABLE
  2
APPID
 70
     4
  0
APPID
  2
ACAD
 70
     0
  0
APPID
  2
ACADANNOTATIVE
 70
     0
  0
APPID
  2
ACAD_MLEADERVER
 70
     0
  0
APPID
  2
ACAD_EXEMPT_FROM_CAD_STANDARDS
 70
     0
  0
ENDTAB
  0
TABLE
  2
DIMSTYLE
 70
     2
  0
DIMSTYLE
  2
STANDARD
 70
     0
  3

  4

  5

  6

  7

 40
1.0
 41
0.18
 42
0.0625
 43
0.38
 44
0.18
 45
0.0
 46
0.0
 47
0.0
 48
0.0
140
0.18
141
0.09
142
0.0
143
25.399999999999999
144
1.0
145
0.0
146
1.0
147
0.09
 71
     0
 72
     0
 73
     1
 74
     1
 75
     0
 76
     0
 77
     0
 78
     0
170
     0
171
     2
172
     0
173
     0
174
     0
175
     0
176
     0
177
     0
178
     0
  0
DIMSTYLE
  2
ANNOTATIVE
 70
     0
  3

  4

  5

  6

  7

 40
1.0
 41
0.18
 42
0.0625
 43
0.38
 44
0.18
 45
0.0
 46
0.0
 47
0.0
 48
0.0
140
0.18
141
0.09
142
0.0
143
25.399999999999999
144
1.0
145
0.0
146
1.0
147
0.09
 71
     0
 72
     0
 73
     1
 74
     1
 75
     0
 76
     0
 77
     0
 78
     0
170
     0
171
     2
172
     0
173
     0
174
     0
175
     0
176
     0
177
     0
178
     0
  0
ENDTAB
  0
ENDSEC
  0
SECTION
  2
BLOCKS
  0
BLOCK
  8
0
  2
$MODEL_SPACE
 70
     0
 10
0.0
 20
0.0
 30
0.0
  3
$MODEL_SPACE
  1

  0
ENDBLK
  5
76
  8
0
  0
BLOCK
 67
     1
  8
0
  2
$PAPER_SPACE
 70
     0
 10
0.0
 20
0.0
 30
0.0
  3
$PAPER_SPACE
  1

  0
ENDBLK
  5
72
 67
     1
  8
0
  0
BLOCK
  8
0
  2
DOT1
 70
     0
 10
0.0
 20
0.0
 30
0.0
  3
DOT1
  1

  0
CIRCLE
  5
8B
  8
SIZE
  6
CONTINUOUS
 62
     7
 10
0.0
 20
0.0
 30
0.0
 40
3.0
  0
ENDBLK
  5
8C
  8
0
  0
BLOCK
  8
0
  2
_ORIGIN
 70
     0
 10
0.0
 20
0.0
 30
0.0
  3
_ORIGIN
  1

  0
CIRCLE
  5
8F
  8
0
  6
CONTINUOUS
 62
     7
 10
0.0
 20
0.0
 30
0.0
 40
0.5
  0
LINE
  5
90
  8
0
  6
CONTINUOUS
 62
     7
 10
0.0
 20
0.0
 30
0.0
 11
-1.0
 21
0.0
 31
0.0
  0
ENDBLK
  5
91
  8
0
  0
ENDSEC
  0
SECTION
  2
ENTITIES
  0
LINE
  5
93
  8
DETAIL
  6
CONTINUOUS
 62
     5
 10
0.0
 20
150.0
 30
0.0
 11
-92.499999000000003
 21
150.0
 31
0.0
  0
LINE
  5
94
  8
DETAIL
  6
CONTINUOUS
 62
     5
 10
0.0
 20
150.0
 30
0.0
 11
92.5
 21
150.0
 31
0.0
  0
LINE
  5
95
  8
DETAIL
  6
CONTINUOUS
 62
     5
 10
106.141687
 20
-69.400000000000006
 30
0.0
 11
106.141687
 21
-68.900000000000006
 31
0.0
  0
LINE
  5
96
  8
DETAIL
  6
CONTINUOUS
 62
     5
 10
92.699999000000005
 20
-69.400000000000006
 30
0.0
 11
106.141687
 21
-69.400000000000006
 31
0.0
  0
LINE
  5
97
  8
DETAIL
  6
CONTINUOUS
 62
     5
 10
106.141687
 20
-68.900000000000006
 30
0.0
 11
137.0
 21
-68.900000000000006
 31
0.0
  0
ARC
  5
98
  8
DETAIL
  6
CONTINUOUS
 62
     5
 10
137.0
 20
-66.400000000000006
 30
0.0
 40
2.5
 50
270.0
 51
0.0
  0
LINE
  5
99
  8
DETAIL
  6
CONTINUOUS
 62
     5
 10
139.5
 20
-66.400000000000006
 30
0.0
 11
139.5
 21
-20.535710000000002
 31
0.0
  0
ARC
  5
9A
  8
DETAIL
  6
CONTINUOUS
 62
     5
 10
137.0
 20
25.399999999999999
 30
0.0
 40
2.5
 50
0.0
 51
90.0
  0
LINE
  5
9B
  8
DETAIL
  6
CONTINUOUS
 62
     5
 10
139.5
 20
25.399999999999999
 30
0.0
 11
139.5
 21
-20.535710000000002
 31
0.0
  0
LINE
  5
9C
  8
DETAIL
  6
CONTINUOUS
 62
     5
 10
106.141687
 20
27.899999999999999
 30
0.0
 11
137.0
 21
27.899999999999999
 31
0.0
  0
LINE
  5
9D
  8
DETAIL
  6
CONTINUOUS
 62
     5
 10
106.141687
 20
-20.5
 30
0.0
 11
106.141687
 21
-20.535724999999999
 31
0.0
  0
LINE
  5
9E
  8
DETAIL
  6
CONTINUOUS
 62
     5
 10
106.141687
 20
-68.900000000000006
 30
0.0
 11
106.141687
 21
-20.535695
 31
0.0
  0
LINE
  5
9F
  8
DETAIL
  6
CONTINUOUS
 62
     5
 10
70.0
 20
-146.110929
 30
0.0
 11
-70.0
 21
-146.110929
 31
0.0
  0
LINE
  5
A0
  8
DETAIL
  6
CONTINUOUS
 62
     5
 10
-92.5
 20
-20.5
 30
0.0
 11
-92.5
 21
-150.0
 31
0.0
  0
LINE
  5
A1
  8
DETAIL
  6
CONTINUOUS
 62
     5
 10
-92.5
 20
149.0
 30
0.0
 11
-92.5
 21
148.19999999999999
 31
0.0
  0
LINE
  5
A2
  8
DETAIL
  6
CONTINUOUS
 62
     5
 10
-92.5
 20
-148.19999999999999
 30
0.0
 11
-92.5
 21
-149.0
 31
0.0
  0
LINE
  5
A3
  8
DETAIL
  6
CONTINUOUS
 62
     5
 10
-70.0
 20
-150.0
 30
0.0
 11
-92.5
 21
-150.0
 31
0.0
  0
LINE
  5
A4
  8
DETAIL
  6
CONTINUOUS
 62
     5
 10
92.5
 20
-47.522312999999997
 30
0.0
 11
92.5
 21
-70.995087999999996
 31
0.0
  0
LINE
  5
A5
  8
DETAIL
  6
CONTINUOUS
 62
     5
 10
92.5
 20
150.0
 30
0.0
 11
92.5
 21
133.32825199999999
 31
0.0
  0
LINE
  5
A6
  8
DETAIL
  6
CONTINUOUS
 62
     5
 10
70.0
 20
-150.0
 30
0.0
 11
92.5
 21
-150.0
 31
0.0
  0
LINE
  5
A7
  8
DETAIL
  6
CONTINUOUS
 62
     5
 10
92.5
 20
-70.995087999999996
 30
0.0
 11
92.5
 21
-150.0
 31
0.0
  0
LINE
  5
A8
  8
DETAIL
  6
CONTINUOUS
 62
     5
 10
92.5
 20
150.0
 30
0.0
 11
92.5
 21
-51.527225000000001
 31
0.0
  0
LINE
  5
A9
  8
BASIS
  6
DASHDOT
 62
     6
 10
0.0
 20
217.48276300000001
 30
0.0
 11
0.0
 21
-183.267326
 31
0.0
  0
LINE
  5
AA
  8
BASIS
  6
DASHDOT
 62
     6
 10
157.55112299999999
 20
-20.5
 30
0.0
 11
79.099547000000001
 21
-20.5
 31
0.0
  0
LINE
  5
AB
  8
DETAIL
  6
CONTINUOUS
 62
     5
 10
139.5
 20
91.876750999999985
 30
0.0
 11
139.5
 21
51.376750000000001
 31
0.0
  0
ARC
  5
AC
  8
DETAIL
  6
CONTINUOUS
 62
     5
 10
134.5
 20
91.876750999999985
 30
0.0
 40
5.0
 50
0.0
 51
90.0
  0
LINE
  5
AD
  8
DETAIL
  6
CONTINUOUS
 62
     5
 10
134.5
 20
96.876750999999985
 30
0.0
 11
92.5
 21
96.876750999999985
 31
0.0
  0
ARC
  5
AE
  8
DETAIL
  6
CONTINUOUS
 62
     5
 10
134.5
 20
51.376750999999999
 30
0.0
 40
5.0
 50
270.0
 51
0.0
  0
LINE
  5
AF
  8
DETAIL
  6
CONTINUOUS
 62
     5
 10
134.5
 20
46.376750999999999
 30
0.0
 11
92.5
 21
46.376750999999999
 31
0.0
  0
LINE
  5
B0
  8
DETAIL
  6
CONTINUOUS
 62
     5
 10
70.0
 20
150.0
 30
0.0
 11
70.0
 21
-150.0
 31
0.0
  0
LINE
  5
B1
  8
DETAIL
  6
CONTINUOUS
 62
     5
 10
-70.0
 20
150.0
 30
0.0
 11
-70.0
 21
-150.0
 31
0.0
  0
ARC
  5
B2
  8
DETAIL
  6
CONTINUOUS
 62
     5
 10
0.0
 20
65.0
 30
0.0
 40
115.0
 50
47.657395000000001
 51
132.34260499999999
  0
LINE
  5
B3
  8
BASIS
  6
DASHDOT
 62
     6
 10
175.164053
 20
0.0
 30
0.0
 11
-142.64088599999999
 21
0.0
 31
0.0
  0
LINE
  5
B4
  8
SIZE
  6
CONTINUOUS
 62
    30
 10
-92.499999000000003
 20
170.0
 30
0.0
 11
-92.499999000000003
 21
411.46978000000001
 31
0.0
  0
LINE
  5
B5
  8
SIZE
  6
CONTINUOUS
 62
    30
 10
92.5
 20
170.0
 30
0.0
 11
92.5
 21
411.46978000000001
 31
0.0
  0
LINE
  5
B6
  8
SIZE
  6
CONTINUOUS
 62
    30
 10
-80.499999000000017
 20
391.4697799999999
 30
0.0
 11
80.5
 21
391.4697799999999
 31
0.0
  0
TEXT
  5
B7
  8
SIZE
  6
CONTINUOUS
 62
    30
 10
-68.571428571428569
 20
416.42420099999993
 30
0.0
 40
64.0
  1
185
 41
0.9
 72
     1
 11
0.0
 21
416.42420099999993
 31
0.0
  0
CIRCLE
  5
B8
  8
SIZE
  6
CONTINUOUS
 62
    30
 10
-92.499999000000003
 20
391.4697799999999
 30
0.0
 40
6.0
  0
LINE
  5
B9
  8
SIZE
  6
CONTINUOUS
 62
    30
 10
-92.499999000000003
 20
391.4697799999999
 30
0.0
 11
-80.499999000000017
 21
391.4697799999999
 31
0.0
  0
CIRCLE
  5
BA
  8
SIZE
  6
CONTINUOUS
 62
    30
 10
92.5
 20
391.4697799999999
 30
0.0
 40
6.0
  0
LINE
  5
BB
  8
SIZE
  6
CONTINUOUS
 62
    30
 10
92.5
 20
391.4697799999999
 30
0.0
 11
80.5
 21
391.4697799999999
 31
0.0
  0
POINT
  5
BC
  8
DEFPOINTS
  6
CONTINUOUS
 62
    30
 10
-92.499999000000003
 20
150.0
 30
0.0
  0
POINT
  5
BD
  8
DEFPOINTS
  6
CONTINUOUS
 62
    30
 10
92.5
 20
150.0
 30
0.0
  0
POINT
  5
BE
  8
DEFPOINTS
  6
CONTINUOUS
 62
    30
 10
92.5
 20
391.4697799999999
 30
0.0
  0
LINE
  5
BF
  8
SIZE
  6
CONTINUOUS
 62
    30
 10
-92.5
 20
-169.17648199999999
 30
0.0
 11
-92.5
 21
-367.04123900000002
 31
0.0
  0
LINE
  5
C0
  8
SIZE
  6
CONTINUOUS
 62
    30
 10
-70.0
 20
-169.17648199999999
 30
0.0
 11
-70.0
 21
-367.04123900000002
 31
0.0
  0
LINE
  5
C1
  8
SIZE
  6
CONTINUOUS
 62
    30
 10
-104.5
 20
-347.04123900000002
 30
0.0
 11
-116.5
 21
-347.04123900000002
 31
0.0
  0
LINE
  5
C2
  8
SIZE
  6
CONTINUOUS
 62
    30
 10
-58.0
 20
-347.04123900000002
 30
0.0
 11
-46.0
 21
-347.04123900000002
 31
0.0
  0
LINE
  5
C3
  8
SIZE
  6
CONTINUOUS
 62
    30
 10
-362.17095
 20
-347.04123900000002
 30
0.0
 11
-92.5
 21
-347.04123900000002
 31
0.0
  0
TEXT
  5
C4
  8
SIZE
  6
CONTINUOUS
 62
    30
 10
-337.17094957142848
 20
-322.04123900000002
 30
0.0
 40
64.0
  1
22.5
 41
0.9
 72
     1
 11
-249.39952099999999
 21
-322.04123900000002
 31
0.0
  0
LINE
  5
C5
  8
SIZE
  6
CONTINUOUS
 62
    30
 10
-92.5
 20
-347.04123900000002
 30
0.0
 11
-70.0
 21
-347.04123900000002
 31
0.0
  0
LINE
  5
C6
  8
SIZE
  6
CONTINUOUS
 62
    30
 10
-92.5
 20
-347.04123900000002
 30
0.0
 11
-70.0
 21
-347.04123900000002
 31
0.0
  0
CIRCLE
  5
C7
  8
SIZE
  6
CONTINUOUS
 62
    30
 10
-92.5
 20
-347.04123900000002
 30
0.0
 40
6.0
  0
LINE
  5
C8
  8
SIZE
  6
CONTINUOUS
 62
    30
 10
-92.5
 20
-347.04123900000002
 30
0.0
 11
-104.5
 21
-347.04123900000002
 31
0.0
  0
CIRCLE
  5
C9
  8
SIZE
  6
CONTINUOUS
 62
    30
 10
-70.0
 20
-347.04123900000002
 30
0.0
 40
6.0
  0
LINE
  5
CA
  8
SIZE
  6
CONTINUOUS
 62
    30
 10
-70.0
 20
-347.04123900000002
 30
0.0
 11
-58.0
 21
-347.04123900000002
 31
0.0
  0
POINT
  5
CB
  8
DEFPOINTS
  6
CONTINUOUS
 62
    30
 10
-92.5
 20
-149.17648199999999
 30
0.0
  0
POINT
  5
CC
  8
DEFPOINTS
  6
CONTINUOUS
 62
    30
 10
-70.0
 20
-149.17648199999999
 30
0.0
  0
POINT
  5
CD
  8
DEFPOINTS
  6
CONTINUOUS
 62
    30
 10
-70.0
 20
-347.04123900000002
 30
0.0
  0
LINE
  5
CE
  8
SIZE
  6
CONTINUOUS
 62
    30
 10
70.0
 20
-169.17648199999999
 30
0.0
 11
70.0
 21
-368.85364199999998
 31
0.0
  0
LINE
  5
CF
  8
SIZE
  6
CONTINUOUS
 62
    30
 10
92.5
 20
-169.17648199999999
 30
0.0
 11
92.5
 21
-368.85364199999998
 31
0.0
  0
LINE
  5
D0
  8
SIZE
  6
CONTINUOUS
 62
    30
 10
58.0
 20
-348.85364199999998
 30
0.0
 11
46.0
 21
-348.85364199999998
 31
0.0
  0
LINE
  5
D1
  8
SIZE
  6
CONTINUOUS
 62
    30
 10
104.5
 20
-348.85364199999998
 30
0.0
 11
116.5
 21
-348.85364199999998
 31
0.0
  0
LINE
  5
D2
  8
SIZE
  6
CONTINUOUS
 62
    30
 10
371.97967199999999
 20
-348.85364199999998
 30
0.0
 11
92.5
 21
-348.85364199999998
 31
0.0
  0
TEXT
  5
D3
  8
SIZE
  6
CONTINUOUS
 62
    30
 10
171.43681542857141
 20
-323.85364199999998
 30
0.0
 40
64.0
  1
22.5
 41
0.9
 72
     1
 11
259.20824399999998
 21
-323.85364199999998
 31
0.0
  0
LINE
  5
D4
  8
SIZE
  6
CONTINUOUS
 62
    30
 10
70.0
 20
-348.85364199999998
 30
0.0
 11
92.5
 21
-348.85364199999998
 31
0.0
  0
LINE
  5
D5
  8
SIZE
  6
CONTINUOUS
 62
    30
 10
70.0
 20
-348.85364199999998
 30
0.0
 11
92.5
 21
-348.85364199999998
 31
0.0
  0
CIRCLE
  5
D6
  8
SIZE
  6
CONTINUOUS
 62
    30
 10
70.0
 20
-348.85364199999998
 30
0.0
 40
6.0
  0
LINE
  5
D7
  8
SIZE
  6
CONTINUOUS
 62
    30
 10
70.0
 20
-348.85364199999998
 30
0.0
 11
58.0
 21
-348.85364199999998
 31
0.0
  0
CIRCLE
  5
D8
  8
SIZE
  6
CONTINUOUS
 62
    30
 10
92.5
 20
-348.85364199999998
 30
0.0
 40
6.0
  0
LINE
  5
D9
  8
SIZE
  6
CONTINUOUS
 62
    30
 10
92.5
 20
-348.85364199999998
 30
0.0
 11
104.5
 21
-348.85364199999998
 31
0.0
  0
POINT
  5
DA
  8
DEFPOINTS
  6
CONTINUOUS
 62
    30
 10
70.0
 20
-149.17648199999999
 30
0.0
  0
POINT
  5
DB
  8
DEFPOINTS
  6
CONTINUOUS
 62
    30
 10
92.5
 20
-149.17648199999999
 30
0.0
  0
POINT
  5
DC
  8
DEFPOINTS
  6
CONTINUOUS
 62
    30
 10
92.5
 20
-348.85364199999998
 30
0.0
  0
LINE
  5
DD
  8
NOTE
  6
CONTINUOUS
 62
     4
 10
82.5
 20
-170.0
 30
0.0
 11
82.5
 21
-130.0
 31
0.0
  0
LINE
  5
DE
  8
NOTE
  6
CONTINUOUS
 62
     4
 10
102.5
 20
-150.0
 30
0.0
 11
62.5
 21
-150.0
 31
0.0
  0
LINE
  5
DF
  8
NOTE
  6
CONTINUOUS
 62
     4
 10
-82.5
 20
-170.0
 30
0.0
 11
-82.5
 21
-130.0
 31
0.0
  0
LINE
  5
E0
  8
NOTE
  6
CONTINUOUS
 62
     4
 10
-62.5
 20
-150.0
 30
0.0
 11
-102.5
 21
-150.0
 31
0.0
  0
LINE
  5
E1
  8
NOTE
  6
CONTINUOUS
 62
     4
 10
82.5
 20
170.0
 30
0.0
 11
82.5
 21
130.0
 31
0.0
  0
LINE
  5
E2
  8
NOTE
  6
CONTINUOUS
 62
     4
 10
102.5
 20
150.0
 30
0.0
 11
62.5
 21
150.0
 31
0.0
  0
LINE
  5
E3
  8
NOTE
  6
CONTINUOUS
 62
     4
 10
-82.5
 20
170.0
 30
0.0
 11
-82.5
 21
130.0
 31
0.0
  0
LINE
  5
E4
  8
NOTE
  6
CONTINUOUS
 62
     4
 10
-62.5
 20
150.0
 30
0.0
 11
-102.5
 21
150.0
 31
0.0
  0
LINE
  5
E5
  8
SIZE
  6
CONTINUOUS
 62
    30
 10
-82.5
 20
-190.0
 30
0.0
 11
-82.5
 21
-490.03468500000002
 31
0.0
  0
LINE
  5
E6
  8
SIZE
  6
CONTINUOUS
 62
    30
 10
82.5
 20
-190.0
 30
0.0
 11
82.5
 21
-490.03468500000002
 31
0.0
  0
LINE
  5
E7
  8
SIZE
  6
CONTINUOUS
 62
    30
 10
-70.5
 20
-470.03468499999991
 30
0.0
 11
70.5
 21
-470.03468499999991
 31
0.0
  0
TEXT
  5
E8
  8
SIZE
  6
CONTINUOUS
 62
    30
 10
-68.571428571428569
 20
-445.03468499999991
 30
0.0
 40
64.0
  1
165
 41
0.9
 72
     1
 11
0.0
 21
-445.03468499999991
 31
0.0
  0
CIRCLE
  5
E9
  8
SIZE
  6
CONTINUOUS
 62
    30
 10
-82.5
 20
-470.03468499999991
 30
0.0
 40
6.0
  0
LINE
  5
EA
  8
SIZE
  6
CONTINUOUS
 62
    30
 10
-82.5
 20
-470.03468499999991
 30
0.0
 11
-70.5
 21
-470.03468499999991
 31
0.0
  0
CIRCLE
  5
EB
  8
SIZE
  6
CONTINUOUS
 62
    30
 10
82.5
 20
-470.03468499999991
 30
0.0
 40
6.0
  0
LINE
  5
EC
  8
SIZE
  6
CONTINUOUS
 62
    30
 10
82.5
 20
-470.03468499999991
 30
0.0
 11
70.5
 21
-470.03468499999991
 31
0.0
  0
POINT
  5
ED
  8
DEFPOINTS
  6
CONTINUOUS
 62
    30
 10
-82.5
 20
-170.0
 30
0.0
  0
POINT
  5
EE
  8
DEFPOINTS
  6
CONTINUOUS
 62
    30
 10
82.5
 20
-170.0
 30
0.0
  0
POINT
  5
EF
  8
DEFPOINTS
  6
CONTINUOUS
 62
    30
 10
82.5
 20
-470.03468499999991
 30
0.0
  0
LINE
  5
F0
  8
SIZE
  6
CONTINUOUS
 62
    30
 10
-92.5
 20
-169.0
 30
0.0
 11
-92.5
 21
-613.41163200000005
 31
0.0
  0
LINE
  5
F1
  8
SIZE
  6
CONTINUOUS
 62
    30
 10
139.5
 20
-86.400000000000006
 30
0.0
 11
139.5
 21
-613.41163200000005
 31
0.0
  0
LINE
  5
F2
  8
SIZE
  6
CONTINUOUS
 62
    30
 10
-80.5
 20
-593.41163200000005
 30
0.0
 11
127.5
 21
-593.41163200000005
 31
0.0
  0
TEXT
  5
F3
  8
SIZE
  6
CONTINUOUS
 62
    30
 10
-50.55714285714285
 20
-568.13069900000005
 30
0.0
 40
64.0
  1
232
 41
0.9
 72
     1
 11
23.5
 21
-568.13069900000005
 31
0.0
  0
CIRCLE
  5
F4
  8
SIZE
  6
CONTINUOUS
 62
    30
 10
-92.5
 20
-593.41163200000005
 30
0.0
 40
6.0
  0
LINE
  5
F5
  8
SIZE
  6
CONTINUOUS
 62
    30
 10
-92.5
 20
-593.41163200000005
 30
0.0
 11
-80.5
 21
-593.41163200000005
 31
0.0
  0
CIRCLE
  5
F6
  8
SIZE
  6
CONTINUOUS
 62
    30
 10
139.5
 20
-593.41163200000005
 30
0.0
 40
6.0
  0
LINE
  5
F7
  8
SIZE
  6
CONTINUOUS
 62
    30
 10
139.5
 20
-593.41163200000005
 30
0.0
 11
127.5
 21
-593.41163200000005
 31
0.0
  0
POINT
  5
F8
  8
DEFPOINTS
  6
CONTINUOUS
 62
    30
 10
-92.5
 20
-149.0
 30
0.0
  0
POINT
  5
F9
  8
DEFPOINTS
  6
CONTINUOUS
 62
    30
 10
139.5
 20
-66.400000000000006
 30
0.0
  0
POINT
  5
FA
  8
DEFPOINTS
  6
CONTINUOUS
 62
    30
 10
139.5
 20
-593.41163200000005
 30
0.0
  0
LINE
  5
FB
  8
SIZE
  6
CONTINUOUS
 62
    30
 10
-92.5
 20
-347.04123900000002
 30
0.0
 11
-348.02410099999997
 21
-347.04123900000002
 31
0.0
  0
LINE
  5
FC
  8
SIZE
  6
CONTINUOUS
 62
    30
 10
94.500000000000014
 20
-348.85364199999998
 30
0.0
 11
352.598905
 21
-348.85364199999998
 31
0.0
  0
POINT
  5
FD
  8
ARRANGE
  6
CONTINUOUS
 62
     1
 10
0.0
 20
0.0
 30
0.0
  0
CIRCLE
  5
FE
  8
ARRANGE
  6
CONTINUOUS
 62
     1
 10
0.0
 20
0.0
 30
0.0
 40
40.0
  0
LINE
  5
FF
  8
NOTE
  6
CONTINUOUS
 62
     4
 10
-728.23129800000004
 20
351.40389499999998
 30
0.0
 11
-255.35613799999999
 21
351.40389499999998
 31
0.0
  0
LINE
  5
100
  8
NOTE
  6
CONTINUOUS
 62
     4
 10
-82.5
 20
150.0
 30
0.0
 11
-255.35613799999999
 21
351.40389499999998
 31
0.0
  0
LINE
  5
101
  8
NOTE
  6
CONTINUOUS
 62
     4
 10
-115.504198
 20
172.59917999999999
 30
0.0
 11
-82.5
 21
150.0
 31
0.0
  0
LINE
  5
102
  8
NOTE
  6
CONTINUOUS
 62
     4
 10
-82.5
 20
150.0
 30
0.0
 11
-99.782882999999998
 21
186.07356299999989
 31
0.0
  0
LINE
  5
104
  8
DETAIL
  6
CONTINUOUS
 62
     5
 10
-92.5
 20
-20.5
 30
0.0
 11
-92.5
 21
150.0
 31
0.0
  0
ARC
  5
105
  8
DETAIL
  6
CONTINUOUS
 62
     5
 10
0.0
 20
65.0
 30
0.0
 40
115.0
 50
341.179239
 51
350.680406
  0
ARC
  5
106
  8
DETAIL
  6
CONTINUOUS
 62
     5
 10
0.0
 20
65.0
 30
0.0
 40
115.0
 50
143.54731799999999
 51
208.35763700000001
  0
LINE
  5
107
  8
DETAIL
  6
CONTINUOUS
 62
     5
 10
92.5
 20
6.5223129999999987
 30
0.0
 11
92.5
 21
29.995087999999999
 31
0.0
  0
LINE
  5
108
  8
DETAIL
  6
CONTINUOUS
 62
     5
 10
92.699999000000005
 20
28.399999999999999
 30
0.0
 11
106.141687
 21
28.399999999999999
 31
0.0
  0
LINE
  5
109
  8
DETAIL
  6
CONTINUOUS
 62
     5
 10
106.141687
 20
28.399999999999999
 30
0.0
 11
106.141687
 21
27.899999999999999
 31
0.0
  0
LINE
  5
10A
  8
DETAIL
  6
CONTINUOUS
 62
     5
 10
106.141687
 20
27.899999999999999
 30
0.0
 11
106.141687
 21
-20.464305
 31
0.0
  0
ARC
  5
10B
  8
DETAIL
  6
CONTINUOUS
 62
     5
 10
0.0
 20
65.0
 30
0.0
 40
115.0
 50
16.092514999999999
 51
36.452682000000003
  0
LINE
  5
10C
  8
DETAIL
  6
CONTINUOUS
 62
     5
 10
-87.5
 20
126.244998
 30
0.0
 11
-87.5
 21
113.755002
 31
0.0
  0
LINE
  5
10D
  8
DETAIL
  6
CONTINUOUS
 62
     5
 10
-77.5
 20
126.244998
 30
0.0
 11
-77.5
 21
113.755002
 31
0.0
  0
ARC
  5
10E
  8
DETAIL
  6
CONTINUOUS
 62
     5
 10
-82.5
 20
120.0
 30
0.0
 40
8.0
 50
51.317813000000001
 51
128.682187
  0
ARC
  5
10F
  8
DETAIL
  6
CONTINUOUS
 62
     5
 10
-82.5
 20
120.0
 30
0.0
 40
8.0
 50
231.317813
 51
308.682187
  0
CIRCLE
  5
110
  8
FIX
  6
CONTINUOUS
 62
    11
 10
-82.5
 20
120.0
 30
0.0
 40
5.0
  0
LINE
  5
111
  8
NOTE
  6
CONTINUOUS
 62
     4
 10
-82.5
 20
140.0
 30
0.0
 11
-82.5
 21
100.0
 31
0.0
  0
LINE
  5
112
  8
NOTE
  6
CONTINUOUS
 62
     4
 10
-62.5
 20
120.0
 30
0.0
 11
-102.5
 21
120.0
 31
0.0
  0
CIRCLE
  5
113
  8
FIX
  6
CONTINUOUS
 62
    11
 10
-82.5
 20
150.0
 30
0.0
 40
5.0
  0
CIRCLE
  5
114
  8
FIX
  6
CONTINUOUS
 62
    11
 10
82.5
 20
150.0
 30
0.0
 40
5.0
  0
CIRCLE
  5
115
  8
FIX
  6
CONTINUOUS
 62
    11
 10
-82.5
 20
-150.0
 30
0.0
 40
5.0
  0
CIRCLE
  5
116
  8
FIX
  6
CONTINUOUS
 62
    11
 10
82.5
 20
-150.0
 30
0.0
 40
5.0
  0
LINE
  5
117
  8
NOTE
  6
CONTINUOUS
 62
     4
 10
82.5
 20
140.0
 30
0.0
 11
82.5
 21
100.0
 31
0.0
  0
LINE
  5
118
  8
NOTE
  6
CONTINUOUS
 62
     4
 10
62.5
 20
120.0
 30
0.0
 11
102.5
 21
120.0
 31
0.0
  0
CIRCLE
  5
119
  8
FIX
  6
CONTINUOUS
 62
    11
 10
82.5
 20
120.0
 30
0.0
 40
5.0
  0
ARC
  5
11A
  8
DETAIL
  6
CONTINUOUS
 62
     5
 10
82.5
 20
120.0
 30
0.0
 40
8.0
 50
231.317813
 51
308.682187
  0
ARC
  5
11B
  8
DETAIL
  6
CONTINUOUS
 62
     5
 10
82.5
 20
120.0
 30
0.0
 40
8.0
 50
51.317813000000001
 51
128.682187
  0
LINE
  5
11C
  8
DETAIL
  6
CONTINUOUS
 62
     5
 10
77.5
 20
126.244998
 30
0.0
 11
77.5
 21
113.755002
 31
0.0
  0
LINE
  5
11D
  8
DETAIL
  6
CONTINUOUS
 62
     5
 10
87.5
 20
126.244998
 30
0.0
 11
87.5
 21
113.755002
 31
0.0
  0
CIRCLE
  5
11E
  8
FIX
  6
CONTINUOUS
 62
    11
 10
-82.5
 20
-120.0
 30
0.0
 40
5.0
  0
ARC
  5
11F
  8
DETAIL
  6
CONTINUOUS
 62
     5
 10
-82.5
 20
-120.0
 30
0.0
 40
8.0
 50
51.317813000000001
 51
128.682187
  0
ARC
  5
120
  8
DETAIL
  6
CONTINUOUS
 62
     5
 10
-82.5
 20
-120.0
 30
0.0
 40
8.0
 50
231.317813
 51
308.682187
  0
LINE
  5
121
  8
DETAIL
  6
CONTINUOUS
 62
     5
 10
-77.5
 20
-126.244998
 30
0.0
 11
-77.5
 21
-113.755002
 31
0.0
  0
LINE
  5
122
  8
DETAIL
  6
CONTINUOUS
 62
     5
 10
-87.5
 20
-126.244998
 30
0.0
 11
-87.5
 21
-113.755002
 31
0.0
  0
LINE
  5
123
  8
NOTE
  6
CONTINUOUS
 62
     4
 10
-82.5
 20
-140.0
 30
0.0
 11
-82.5
 21
-100.0
 31
0.0
  0
LINE
  5
124
  8
NOTE
  6
CONTINUOUS
 62
     4
 10
-62.5
 20
-120.0
 30
0.0
 11
-102.5
 21
-120.0
 31
0.0
  0
LINE
  5
125
  8
DETAIL
  6
CONTINUOUS
 62
     5
 10
87.5
 20
-126.244998
 30
0.0
 11
87.5
 21
-113.755002
 31
0.0
  0
LINE
  5
126
  8
DETAIL
  6
CONTINUOUS
 62
     5
 10
77.5
 20
-126.244998
 30
0.0
 11
77.5
 21
-113.755002
 31
0.0
  0
ARC
  5
127
  8
DETAIL
  6
CONTINUOUS
 62
     5
 10
82.5
 20
-120.0
 30
0.0
 40
8.0
 50
231.317813
 51
308.682187
  0
ARC
  5
128
  8
DETAIL
  6
CONTINUOUS
 62
     5
 10
82.5
 20
-120.0
 30
0.0
 40
8.0
 50
51.317813000000001
 51
128.682187
  0
CIRCLE
  5
129
  8
FIX
  6
CONTINUOUS
 62
    11
 10
82.5
 20
-120.0
 30
0.0
 40
5.0
  0
LINE
  5
12A
  8
NOTE
  6
CONTINUOUS
 62
     4
 10
82.5
 20
-140.0
 30
0.0
 11
82.5
 21
-100.0
 31
0.0
  0
LINE
  5
12B
  8
NOTE
  6
CONTINUOUS
 62
     4
 10
62.5
 20
-120.0
 30
0.0
 11
102.5
 21
-120.0
 31
0.0
  0
TEXT
  5
12C
  8
NOTE
  6
CONTINUOUS
 62
     4
 10
-938.88115800000003
 20
378.77534100000003
 30
0.0
 40
64.0
  1
AH 12-φ10×16
 41
0.9
  0
LINE
  5
12D
  8
NOTE
  6
CONTINUOUS
 62
     4
 10
92.5
 20
90.376799999999989
 30
0.0
 11
92.5
 21
50.376800000000003
 31
0.0
  0
LINE
  5
12E
  8
NOTE
  6
CONTINUOUS
 62
     4
 10
72.5
 20
70.376800000000003
 30
0.0
 11
112.5
 21
70.376800000000003
 31
0.0
  0
LINE
  5
12F
  8
SIZE
  6
CONTINUOUS
 62
    30
 10
157.0
 20
-68.900000000000006
 30
0.0
 11
521.36324500000001
 21
-68.900000000000006
 31
0.0
  0
LINE
  5
130
  8
SIZE
  6
CONTINUOUS
 62
    30
 10
157.0
 20
27.899999999999999
 30
0.0
 11
521.36324500000001
 21
27.899999999999999
 31
0.0
  0
LINE
  5
131
  8
SIZE
  6
CONTINUOUS
 62
    30
 10
501.36324500000001
 20
-56.899999999999999
 30
0.0
 11
501.36324500000001
 21
15.9
 31
0.0
  0
LINE
  5
132
  8
SIZE
  6
CONTINUOUS
 62
    30
 10
501.36324500000001
 20
-368.73009000000002
 30
0.0
 11
501.36324500000001
 21
-68.900000000000006
 31
0.0
  0
TEXT
  5
133
  8
SIZE
  6
CONTINUOUS
 62
    30
 10
476.36324500000001
 20
-355.25009057142859
 30
0.0
 40
64.0
  1
φ96.8
 50
90.0
 41
0.9
 72
     1
 11
476.36324500000001
 21
-227.15866199999999
 31
0.0
  0
CIRCLE
  5
134
  8
SIZE
  6
CONTINUOUS
 62
    30
 10
501.36324500000001
 20
-68.900000000000006
 30
0.0
 40
6.0
  0
LINE
  5
135
  8
SIZE
  6
CONTINUOUS
 62
    30
 10
501.36324500000001
 20
-68.900000000000006
 30
0.0
 11
501.36324500000001
 21
-56.899999999999999
 31
0.0
  0
CIRCLE
  5
136
  8
SIZE
  6
CONTINUOUS
 62
    30
 10
501.36324500000001
 20
27.899999999999999
 30
0.0
 40
6.0
  0
LINE
  5
137
  8
SIZE
  6
CONTINUOUS
 62
    30
 10
501.36324500000001
 20
27.899999999999999
 30
0.0
 11
501.36324500000001
 21
15.9
 31
0.0
  0
POINT
  5
138
  8
DEFPOINTS
  6
CONTINUOUS
 62
    30
 10
137.0
 20
-68.900000000000006
 30
0.0
  0
POINT
  5
139
  8
DEFPOINTS
  6
CONTINUOUS
 62
    30
 10
137.0
 20
27.899999999999999
 30
0.0
  0
POINT
  5
13A
  8
DEFPOINTS
  6
CONTINUOUS
 62
    30
 10
501.36324500000001
 20
27.899999999999999
 30
0.0
  0
LINE
  5
13B
  8
SIZE
  6
CONTINUOUS
 62
    30
 10
112.5
 20
150.0
 30
0.0
 11
659.79561100000001
 21
150.0
 31
0.0
  0
LINE
  5
13C
  8
SIZE
  6
CONTINUOUS
 62
    30
 10
177.55112299999999
 20
-20.5
 30
0.0
 11
659.79561100000001
 21
-20.5
 31
0.0
  0
LINE
  5
13D
  8
SIZE
  6
CONTINUOUS
 62
    30
 10
639.79561099999989
 20
138.0
 30
0.0
 11
639.79561099999989
 21
-8.5
 31
0.0
  0
LINE
  5
13E
  8
SIZE
  6
CONTINUOUS
 62
    30
 10
639.79561099999989
 20
-361.27474899999999
 30
0.0
 11
639.79561099999989
 21
-20.5
 31
0.0
  0
TEXT
  5
13F
  8
SIZE
  6
CONTINUOUS
 62
    30
 10
614.79561099999989
 20
-336.27474871428569
 30
0.0
 40
64.0
  1
170.5
 50
90.0
 41
0.9
 72
     1
 11
614.79561099999989
 21
-226.560463
 31
0.0
  0
CIRCLE
  5
140
  8
SIZE
  6
CONTINUOUS
 62
    30
 10
639.79561099999989
 20
150.0
 30
0.0
 40
6.0
  0
LINE
  5
141
  8
SIZE
  6
CONTINUOUS
 62
    30
 10
639.79561099999989
 20
150.0
 30
0.0
 11
639.79561099999989
 21
138.0
 31
0.0
  0
CIRCLE
  5
142
  8
SIZE
  6
CONTINUOUS
 62
    30
 10
639.79561099999989
 20
-20.5
 30
0.0
 40
6.0
  0
LINE
  5
143
  8
SIZE
  6
CONTINUOUS
 62
    30
 10
639.79561099999989
 20
-20.5
 30
0.0
 11
639.79561099999989
 21
-8.5
 31
0.0
  0
POINT
  5
144
  8
DEFPOINTS
  6
CONTINUOUS
 62
    30
 10
92.5
 20
150.0
 30
0.0
  0
POINT
  5
145
  8
DEFPOINTS
  6
CONTINUOUS
 62
    30
 10
157.55112299999999
 20
-20.5
 30
0.0
  0
POINT
  5
146
  8
DEFPOINTS
  6
CONTINUOUS
 62
    30
 10
639.79561099999989
 20
-20.5
 30
0.0
  0
LINE
  5
147
  8
SIZE
  6
CONTINUOUS
 62
    30
 10
-112.499999
 20
150.0
 30
0.0
 11
-489.20254999999992
 21
150.0
 31
0.0
  0
LINE
  5
148
  8
SIZE
  6
CONTINUOUS
 62
    30
 10
-112.5
 20
-150.0
 30
0.0
 11
-489.20254999999992
 21
-150.0
 31
0.0
  0
LINE
  5
149
  8
SIZE
  6
CONTINUOUS
 62
    30
 10
-469.20254999999992
 20
138.0
 30
0.0
 11
-469.20254999999992
 21
-138.0
 31
0.0
  0
TEXT
  5
14A
  8
SIZE
  6
CONTINUOUS
 62
    30
 10
-496.09875399999987
 20
-74.05714285714285
 30
0.0
 40
64.0
  1
300
 50
90.0
 41
0.9
 72
     1
 11
-496.09875399999987
 21
0.0
 31
0.0
  0
CIRCLE
  5
14B
  8
SIZE
  6
CONTINUOUS
 62
    30
 10
-469.20254999999992
 20
150.0
 30
0.0
 40
6.0
  0
LINE
  5
14C
  8
SIZE
  6
CONTINUOUS
 62
    30
 10
-469.20254999999992
 20
150.0
 30
0.0
 11
-469.20254999999992
 21
138.0
 31
0.0
  0
CIRCLE
  5
14D
  8
SIZE
  6
CONTINUOUS
 62
    30
 10
-469.20254999999992
 20
-150.0
 30
0.0
 40
6.0
  0
LINE
  5
14E
  8
SIZE
  6
CONTINUOUS
 62
    30
 10
-469.20254999999992
 20
-150.0
 30
0.0
 11
-469.20254999999992
 21
-138.0
 31
0.0
  0
POINT
  5
14F
  8
DEFPOINTS
  6
CONTINUOUS
 62
    30
 10
-92.499999000000003
 20
150.0
 30
0.0
  0
POINT
  5
150
  8
DEFPOINTS
  6
CONTINUOUS
 62
    30
 10
-92.5
 20
-150.0
 30
0.0
  0
POINT
  5
151
  8
DEFPOINTS
  6
CONTINUOUS
 62
    30
 10
-469.20254999999992
 20
-150.0
 30
0.0
  0
LINE
  5
152
  8
SIZE
  6
CONTINUOUS
 62
    30
 10
-122.5
 20
120.0
 30
0.0
 11
-363.42865399999999
 21
120.0
 31
0.0
  0
LINE
  5
153
  8
SIZE
  6
CONTINUOUS
 62
    30
 10
-122.5
 20
-120.0
 30
0.0
 11
-363.42865399999999
 21
-120.0
 31
0.0
  0
LINE
  5
154
  8
SIZE
  6
CONTINUOUS
 62
    30
 10
-343.42865399999999
 20
108.0
 30
0.0
 11
-343.42865399999999
 21
-108.0
 31
0.0
  0
TEXT
  5
155
  8
SIZE
  6
CONTINUOUS
 62
    30
 10
-367.89499000000001
 20
-74.05714285714285
 30
0.0
 40
64.0
  1
240
 50
90.0
 41
0.9
 72
     1
 11
-367.89499000000001
 21
0.0
 31
0.0
  0
CIRCLE
  5
156
  8
SIZE
  6
CONTINUOUS
 62
    30
 10
-343.42865399999999
 20
120.0
 30
0.0
 40
6.0
  0
LINE
  5
157
  8
SIZE
  6
CONTINUOUS
 62
    30
 10
-343.42865399999999
 20
120.0
 30
0.0
 11
-343.42865399999999
 21
108.0
 31
0.0
  0
CIRCLE
  5
158
  8
SIZE
  6
CONTINUOUS
 62
    30
 10
-343.42865399999999
 20
-120.0
 30
0.0
 40
6.0
  0
LINE
  5
159
  8
SIZE
  6
CONTINUOUS
 62
    30
 10
-343.42865399999999
 20
-120.0
 30
0.0
 11
-343.42865399999999
 21
-108.0
 31
0.0
  0
POINT
  5
15A
  8
DEFPOINTS
  6
CONTINUOUS
 62
    30
 10
-102.5
 20
120.0
 30
0.0
  0
POINT
  5
15B
  8
DEFPOINTS
  6
CONTINUOUS
 62
    30
 10
-102.5
 20
-120.0
 30
0.0
  0
POINT
  5
15C
  8
DEFPOINTS
  6
CONTINUOUS
 62
    30
 10
-343.42865399999999
 20
-120.0
 30
0.0
  0
ARC
  5
15D
  8
OUTLINE
  6
CONTINUOUS
 62
     3
 10
0.0
 20
65.0
 30
0.0
 40
115.0
 50
16.092514999999999
 51
36.452682000000003
  0
LINE
  5
15E
  8
OUTLINE
  6
CONTINUOUS
 62
     3
 10
106.141687
 20
27.899999999999999
 30
0.0
 11
106.141687
 21
-20.464305
 31
0.0
  0
LINE
  5
15F
  8
OUTLINE
  6
CONTINUOUS
 62
     3
 10
106.141687
 20
28.399999999999999
 30
0.0
 11
106.141687
 21
27.899999999999999
 31
0.0
  0
LINE
  5
160
  8
OUTLINE
  6
CONTINUOUS
 62
     3
 10
92.699999000000005
 20
28.399999999999999
 30
0.0
 11
106.141687
 21
28.399999999999999
 31
0.0
  0
LINE
  5
161
  8
OUTLINE
  6
CONTINUOUS
 62
     3
 10
92.5
 20
6.5223129999999987
 30
0.0
 11
92.5
 21
29.995087999999999
 31
0.0
  0
ARC
  5
162
  8
OUTLINE
  6
CONTINUOUS
 62
     3
 10
0.0
 20
65.0
 30
0.0
 40
115.0
 50
143.54731799999999
 51
208.35763700000001
  0
ARC
  5
163
  8
OUTLINE
  6
CONTINUOUS
 62
     3
 10
0.0
 20
65.0
 30
0.0
 40
115.0
 50
341.179239
 51
350.680406
  0
LINE
  5
164
  8
OUTLINE
  6
CONTINUOUS
 62
     3
 10
-92.5
 20
-20.5
 30
0.0
 11
-92.5
 21
150.0
 31
0.0
  0
ARC
  5
165
  8
OUTLINE
  6
CONTINUOUS
 62
     3
 10
0.0
 20
65.0
 30
0.0
 40
115.0
 50
47.657395000000001
 51
132.34260499999999
  0
LINE
  5
166
  8
OUTLINE
  6
CONTINUOUS
 62
     3
 10
-70.0
 20
150.0
 30
0.0
 11
-70.0
 21
-150.0
 31
0.0
  0
LINE
  5
167
  8
OUTLINE
  6
CONTINUOUS
 62
     3
 10
70.0
 20
150.0
 30
0.0
 11
70.0
 21
-150.0
 31
0.0
  0
LINE
  5
168
  8
OUTLINE
  6
CONTINUOUS
 62
     3
 10
134.5
 20
46.376750999999999
 30
0.0
 11
92.5
 21
46.376750999999999
 31
0.0
  0
ARC
  5
169
  8
OUTLINE
  6
CONTINUOUS
 62
     3
 10
134.5
 20
51.376750999999999
 30
0.0
 40
5.0
 50
270.0
 51
0.0
  0
LINE
  5
16A
  8
OUTLINE
  6
CONTINUOUS
 62
     3
 10
134.5
 20
96.876750999999985
 30
0.0
 11
92.5
 21
96.876750999999985
 31
0.0
  0
ARC
  5
16B
  8
OUTLINE
  6
CONTINUOUS
 62
     3
 10
134.5
 20
91.876750999999985
 30
0.0
 40
5.0
 50
0.0
 51
90.0
  0
LINE
  5
16C
  8
OUTLINE
  6
CONTINUOUS
 62
     3
 10
139.5
 20
91.876750999999985
 30
0.0
 11
139.5
 21
51.376750000000001
 31
0.0
  0
LINE
  5
16D
  8
OUTLINE
  6
CONTINUOUS
 62
     3
 10
92.5
 20
150.0
 30
0.0
 11
92.5
 21
-51.527225000000001
 31
0.0
  0
LINE
  5
16E
  8
OUTLINE
  6
CONTINUOUS
 62
     3
 10
92.5
 20
-70.995087999999996
 30
0.0
 11
92.5
 21
-150.0
 31
0.0
  0
LINE
  5
16F
  8
OUTLINE
  6
CONTINUOUS
 62
     3
 10
70.0
 20
-150.0
 30
0.0
 11
92.5
 21
-150.0
 31
0.0
  0
LINE
  5
170
  8
OUTLINE
  6
CONTINUOUS
 62
     3
 10
92.5
 20
150.0
 30
0.0
 11
92.5
 21
133.32825199999999
 31
0.0
  0
LINE
  5
171
  8
OUTLINE
  6
CONTINUOUS
 62
     3
 10
92.5
 20
-47.522312999999997
 30
0.0
 11
92.5
 21
-70.995087999999996
 31
0.0
  0
LINE
  5
172
  8
OUTLINE
  6
CONTINUOUS
 62
     3
 10
-70.0
 20
-150.0
 30
0.0
 11
-92.5
 21
-150.0
 31
0.0
  0
LINE
  5
173
  8
OUTLINE
  6
CONTINUOUS
 62
     3
 10
-92.5
 20
-148.19999999999999
 30
0.0
 11
-92.5
 21
-149.0
 31
0.0
  0
LINE
  5
174
  8
OUTLINE
  6
CONTINUOUS
 62
     3
 10
-92.5
 20
149.0
 30
0.0
 11
-92.5
 21
148.19999999999999
 31
0.0
  0
LINE
  5
175
  8
OUTLINE
  6
CONTINUOUS
 62
     3
 10
-92.5
 20
-20.5
 30
0.0
 11
-92.5
 21
-150.0
 31
0.0
  0
LINE
  5
176
  8
OUTLINE
  6
CONTINUOUS
 62
     3
 10
70.0
 20
-146.110929
 30
0.0
 11
-70.0
 21
-146.110929
 31
0.0
  0
LINE
  5
177
  8
OUTLINE
  6
CONTINUOUS
 62
     3
 10
106.141687
 20
-68.900000000000006
 30
0.0
 11
106.141687
 21
-20.535695
 31
0.0
  0
LINE
  5
178
  8
OUTLINE
  6
CONTINUOUS
 62
     3
 10
106.141687
 20
-20.5
 30
0.0
 11
106.141687
 21
-20.535724999999999
 31
0.0
  0
LINE
  5
179
  8
OUTLINE
  6
CONTINUOUS
 62
     3
 10
106.141687
 20
27.899999999999999
 30
0.0
 11
137.0
 21
27.899999999999999
 31
0.0
  0
LINE
  5
17A
  8
OUTLINE
  6
CONTINUOUS
 62
     3
 10
139.5
 20
25.399999999999999
 30
0.0
 11
139.5
 21
-20.535710000000002
 31
0.0
  0
ARC
  5
17B
  8
OUTLINE
  6
CONTINUOUS
 62
     3
 10
137.0
 20
25.399999999999999
 30
0.0
 40
2.5
 50
0.0
 51
90.0
  0
LINE
  5
17C
  8
OUTLINE
  6
CONTINUOUS
 62
     3
 10
139.5
 20
-66.400000000000006
 30
0.0
 11
139.5
 21
-20.535710000000002
 31
0.0
  0
ARC
  5
17D
  8
OUTLINE
  6
CONTINUOUS
 62
     3
 10
137.0
 20
-66.400000000000006
 30
0.0
 40
2.5
 50
270.0
 51
0.0
  0
LINE
  5
17E
  8
OUTLINE
  6
CONTINUOUS
 62
     3
 10
106.141687
 20
-68.900000000000006
 30
0.0
 11
137.0
 21
-68.900000000000006
 31
0.0
  0
LINE
  5
17F
  8
OUTLINE
  6
CONTINUOUS
 62
     3
 10
92.699999000000005
 20
-69.400000000000006
 30
0.0
 11
106.141687
 21
-69.400000000000006
 31
0.0
  0
LINE
  5
180
  8
OUTLINE
  6
CONTINUOUS
 62
     3
 10
106.141687
 20
-69.400000000000006
 30
0.0
 11
106.141687
 21
-68.900000000000006
 31
0.0
  0
LINE
  5
181
  8
OUTLINE
  6
CONTINUOUS
 62
     3
 10
0.0
 20
150.0
 30
0.0
 11
92.5
 21
150.0
 31
0.0
  0
LINE
  5
182
  8
OUTLINE
  6
CONTINUOUS
 62
     3
 10
0.0
 20
150.0
 30
0.0
 11
-92.499999000000003
 21
150.0
 31
0.0
  0
TEXT
  5
183
  8
NOTE
  6
CONTINUOUS
 62
     4
 10
273.00858499999998
 20
231.33048299999999
 30
0.0
 40
64.0
  1
EL
 41
0.9
  0
LINE
  5
184
  8
NOTE
  6
CONTINUOUS
 62
     4
 10
92.5
 20
70.376800000000003
 30
0.0
 11
256.227418
 21
206.65787
 31
0.0
  0
LINE
  5
185
  8
NOTE
  6
CONTINUOUS
 62
     4
 10
256.227418
 20
206.65787
 30
0.0
 11
372.70845500000001
 21
206.65787
 31
0.0
  0
LINE
  5
186
  8
NOTE
  6
CONTINUOUS
 62
     4
 10
115.64559199999999
 20
103.000129
 30
0.0
 11
92.5
 21
70.376800000000003
 31
0.0
  0
LINE
  5
187
  8
NOTE
  6
CONTINUOUS
 62
     4
 10
92.5
 20
70.376800000000003
 30
0.0
 11
128.856335
 21
87.056634999999986
 31
0.0
  0
LINE
  5
188
  8
BASIS
  6
DASHDOT
 62
     6
 10
-82.450434000000001
 20
-20.0
 30
0.0
 11
-130.96485999999999
 21
-20.0
 31
0.0
  0
TEXT
  5
189
  8
NOTE
  6
CONTINUOUS
 62
     4
 10
-274.438197
 20
-43.727603000000002
 30
0.0
 40
64.0
  1
入口
 41
0.9
  0
LINE
  5
18A
  8
NOTE
  6
CONTINUOUS
 62
     4
 10
-728.23129800000004
 20
351.40389499999998
 30
0.0
 11
-947.55103499999996
 21
351.40389499999998
 31
0.0
  0
TEXT
  5
193
  8
ETC
  6
CONTINUOUS
 62
    61
 10
320.62851468755412
 20
593.57715870202014
 30
0.0
 40
64.0
  1
産業扇
 41
0.9
  0
TEXT
  5
194
  8
ETC
  6
CONTINUOUS
 62
    61
 10
315.79624668755412
 20
704.92178870202008
 30
0.0
 40
64.0
  1
BF-17S3_3
 41
0.9
  0
TEXT
  5
195
  8
ETC
  6
CONTINUOUS
 62
    61
 10
404.49245679510273
 20
483.7233574756612
 30
0.0
 40
64.0
  1
BF-17S3
 41
0.9
  0
TEXT
  5
196
  8
ETC
  6
CONTINUOUS
 62
    61
 10
404.49245679510273
 20
380.79133005580502
 30
0.0
 40
64.0
  1
BF-17T3
 41
0.9
  0
ENDSEC
  0
EOF
