  0
SECTION
  2
HEADER
  9
$ACADVER
  1
AC1009
  9
$DWGCODEPAGE
  3
dos932
  9
$INSBASE
 10
0.0
 20
0.0
 30
0.0
  9
$EXTMIN
 10
-947.6119833272096
 20
-593.12437811531709
 30
-0.0000000349181948
  9
$EXTMAX
 10
807.12433992550177
 20
694.70215658040433
 30
0.0000000814935746
  9
$LIMMIN
 10
-2970.0
 20
-2100.0
  9
$LIMMAX
 10
2970.0
 20
2100.0
  9
$ORTHOMODE
 70
     1
  9
$REGENMODE
 70
     1
  9
$FILLMODE
 70
     1
  9
$QTEXTMODE
 70
     0
  9
$MIRRTEXT
 70
     0
  9
$LTSCALE
 40
20.0
  9
$ATTMODE
 70
     1
  9
$TEXTSIZE
 40
64.0
  9
$TRACEWID
 40
0.05
  9
$TEXTSTYLE
  7
STANDARD
  9
$CLAYER
  8
SIZE
  9
$CELTYPE
  6
CONTINUOUS
  9
$CECOLOR
 62
     7
  9
$DIMSCALE
 40
1.0
  9
$DIMASZ
 40
12.0
  9
$DIMEXO
 40
20.0
  9
$DIMDLI
 40
200.0
  9
$DIMRND
 40
0.0
  9
$DIMDLE
 40
0.0
  9
$DIMEXE
 40
20.0
  9
$DIMTP
 40
0.0
  9
$DIMTM
 40
0.0
  9
$DIMTXT
 40
64.0
  9
$DIMCEN
 40
0.09
  9
$DIMTSZ
 40
0.0
  9
$DIMTOL
 70
     0
  9
$DIMLIM
 70
     0
  9
$DIMTIH
 70
     0
  9
$DIMTOH
 70
     0
  9
$DIMSE1
 70
     0
  9
$DIMSE2
 70
     0
  9
$DIMTAD
 70
     1
  9
$DIMZIN
 70
     8
  9
$DIMBLK
  1

  9
$DIMASO
 70
     1
  9
$DIMSHO
 70
     0
  9
$DIMPOST
  1

  9
$DIMAPOST
  1

  9
$DIMALT
 70
     0
  9
$DIMALTD
 70
     2
  9
$DIMALTF
 40
25.399999999999999
  9
$DIMLFAC
 40
1.0
  9
$DIMTOFL
 70
     1
  9
$DIMTVP
 40
0.0
  9
$DIMTIX
 70
     1
  9
$DIMSOXD
 70
     0
  9
$DIMSAH
 70
     0
  9
$DIMBLK1
  1

  9
$DIMBLK2
  1

  9
$DIMSTYLE
  2
STANDARD
  9
$DIMCLRD
 70
     7
  9
$DIMCLRE
 70
     7
  9
$DIMCLRT
 70
     7
  9
$DIMTFAC
 40
1.0
  9
$DIMGAP
 40
25.0
  9
$LUNITS
 70
     2
  9
$LUPREC
 70
     4
  9
$SKETCHINC
 40
0.1
  9
$FILLETRAD
 40
3.0
  9
$AUNITS
 70
     1
  9
$AUPREC
 70
     3
  9
$MENU
  1
ACAD
  9
$ELEVATION
 40
0.0
  9
$PELEVATION
 40
0.0
  9
$THICKNESS
 40
50.0
  9
$LIMCHECK
 70
     0
  9
$CHAMFERA
 40
0.0
  9
$CHAMFERB
 40
0.0
  9
$SKPOLY
 70
     0
  9
$TDCREATE
 40
2453019.62301037
  9
$TDUPDATE
 40
2458911.472343125
  9
$TDINDWG
 40
1.7428485995
  9
$TDUSRTIMER
 40
1.7428485995
  9
$USRTIMER
 70
     1
  9
$ANGBASE
 50
0.0
  9
$ANGDIR
 70
     0
  9
$PDMODE
 70
     3
  9
$PDSIZE
 40
-2.0
  9
$PLINEWID
 40
0.0
  9
$SPLFRAME
 70
     0
  9
$SPLINETYPE
 70
     6
  9
$SPLINESEGS
 70
     8
  9
$SURFTAB1
 70
     6
  9
$SURFTAB2
 70
     6
  9
$SURFTYPE
 70
     6
  9
$SURFU
 70
     6
  9
$SURFV
 70
     6
  9
$UCSNAME
  2

  9
$UCSORG
 10
0.0
 20
0.0
 30
0.0
  9
$UCSXDIR
 10
1.0
 20
0.0
 30
0.0
  9
$UCSYDIR
 10
0.0
 20
1.0
 30
0.0
  9
$PUCSNAME
  2

  9
$PUCSORG
 10
0.0
 20
0.0
 30
0.0
  9
$PUCSXDIR
 10
1.0
 20
0.0
 30
0.0
  9
$PUCSYDIR
 10
0.0
 20
1.0
 30
0.0
  9
$USERI1
 70
     0
  9
$USERI2
 70
     0
  9
$USERI3
 70
     0
  9
$USERI4
 70
     0
  9
$USERI5
 70
     0
  9
$USERR1
 40
20.0
  9
$USERR2
 40
0.0
  9
$USERR3
 40
0.0
  9
$USERR4
 40
0.0
  9
$USERR5
 40
0.0
  9
$WORLDVIEW
 70
     1
  9
$SHADEDGE
 70
     3
  9
$SHADEDIF
 70
    70
  9
$TILEMODE
 70
     1
  9
$MAXACTVP
 70
    48
  9
$PINSBASE
 10
0.0
 20
0.0
 30
0.0
  9
$PLIMCHECK
 70
     0
  9
$PEXTMIN
 10
-100000000000000000000.0
 20
-100000000000000000000.0
 30
-100000000000000000000.0
  9
$PEXTMAX
 10
100000000000000000000.0
 20
100000000000000000000.0
 30
100000000000000000000.0
  9
$PLIMMIN
 10
0.0
 20
0.0
  9
$PLIMMAX
 10
12.0
 20
9.0
  9
$UNITMODE
 70
     0
  9
$VISRETAIN
 70
     0
  9
$PLINEGEN
 70
     0
  9
$PSLTSCALE
 70
     0
  9
$TREEDEPTH
 70
  3020
  9
$ATTDIA
 70
     0
  9
$ATTREQ
 70
     1
  9
$BLIPMODE
 70
     1
  9
$COORDS
 70
     1
  9
$DRAGMODE
 70
     2
  9
$OSMODE
 70
     0
  9
$HANDLING
 70
     0
  9
$HANDSEED
  5
E93A
  0
ENDSEC
  0
SECTION
  2
TABLES
  0
TABLE
  2
LTYPE
 70
     2
  0
LTYPE
  2
CONTINUOUS
 70
     0
  3
実線
 72
    65
 73
     0
 40
0.0
  0
LTYPE
  2
DASHDOT
 70
     0
  3
____ _ ____ _ ____ _ ____ _ ____ _ ____ _ ____
 72
    65
 73
     4
 40
5.5
 49
4.0
 49
-0.6
 49
0.3
 49
-0.6
  0
ENDTAB
  0
TABLE
  2
LAYER
 70
    12
  0
LAYER
  2
0
 70
     0
 62
     7
  6
CONTINUOUS
  0
LAYER
  2
BASIS
 70
     0
 62
     6
  6
DASHDOT
  0
LAYER
  2
OUTLINE
 70
     0
 62
     3
  6
CONTINUOUS
  0
LAYER
  2
DETAIL
 70
     0
 62
     5
  6
CONTINUOUS
  0
LAYER
  2
SIZE
 70
     0
 62
    30
  6
CONTINUOUS
  0
LAYER
  2
ARRANGE
 70
     0
 62
     1
  6
CONTINUOUS
  0
LAYER
  2
DEFPOINTS
 70
     0
 62
     7
  6
CONTINUOUS
  0
LAYER
  2
ETC
 70
     0
 62
    61
  6
CONTINUOUS
  0
LAYER
  2
FIX
 70
     0
 62
    11
  6
CONTINUOUS
  0
LAYER
  2
NOTE
 70
     0
 62
     4
  6
CONTINUOUS
  0
LAYER
  2
SERVICESPACE
 70
    64
 62
     2
  6
DASHDOT
  0
LAYER
  2
SYMBOLLINE
 70
    64
 62
    15
  6
CONTINUOUS
  0
ENDTAB
  0
TABLE
  2
STYLE
 70
     1
  0
STYLE
  2
STANDARD
 70
     0
 40
64.0
 41
0.9
 50
0.0
 71
     0
 42
64.0
  3
SIMPLEX.shx
  4
BIGFONT.shx
  0
ENDTAB
  0
TABLE
  2
APPID
 70
    16
  0
APPID
  2
ACAD
 70
     0
  0
APPID
  2
AUTOCAD_POSTSCRIPT_FIGURE
 70
     0
  0
APPID
  2
ACAD_EXEMPT_FROM_CAD_STANDARDS
 70
     0
  0
APPID
  2
ACAD_PSEXT
 70
     0
  0
APPID
  2
ACAUTHENVIRON
 70
     0
  0
APPID
  2
GENIUS_GENOENT_13
 70
     0
  0
APPID
  2
GENIUS_GENCFG_13
 70
     0
  0
APPID
  2
GENIUS_GENCFG0_13
 70
     0
  0
APPID
  2
GENIUS_GENCFG1_13
 70
     0
  0
APPID
  2
GENIUS_GENCFG2_13
 70
     0
  0
APPID
  2
GENIUS_GENCFG3_13
 70
     0
  0
APPID
  2
GENIUS_GENCFG4_13
 70
     0
  0
APPID
  2
GENIUS_GEVCFG0_13
 70
     0
  0
APPID
  2
CONTENTBLOCKICON
 70
     0
  0
APPID
  2
CONTENTBLOCKDESCRIPTION
 70
     0
  0
APPID
  2
ACAD_NAV_VCDISPLAY
 70
     0
  0
ENDTAB
  0
TABLE
  2
DIMSTYLE
 70
     1
  0
DIMSTYLE
  2
STANDARD
 70
     0
  3

  4

  5
_ORIGIN
  6

  7

 40
1.0
 41
12.0
 42
20.0
 43
200.0
 44
20.0
 45
0.0
 46
0.0
 47
0.0
 48
0.0
140
64.0
141
0.09
142
0.0
143
25.399999999999999
144
1.0
145
0.0
146
1.0
147
25.0
 71
     0
 72
     0
 73
     0
 74
     0
 75
     0
 76
     0
 77
     1
 78
     8
170
     0
171
     2
172
     1
173
     0
174
     1
175
     0
176
     7
177
     7
178
     7
  0
ENDTAB
  0
TABLE
  2
VIEW
 70
     1
  0
VIEW
  2
ALL
 70
     0
 40
4282.6198079999986
 10
0.0
 20
41.309904000000003
 41
5940.0
 11
0.0
 21
0.0
 31
1.0
 12
0.0
 22
0.0
 32
0.0
 42
50.0
 43
0.0
 44
0.0
 50
0.0
 71
     0
  0
ENDTAB
  0
TABLE
  2
UCS
 70
     0
  0
ENDTAB
  0
TABLE
  2
VPORT
 70
     1
  0
VPORT
  2
*ACTIVE
 70
     0
 10
0.0
 20
0.0
 11
1.0
 21
1.0
 12
-70.243821700854085
 22
50.788889232543617
 13
0.0
 23
0.0
 14
1.0
 24
1.0
 15
0.0
 25
0.0
 16
0.0
 26
0.0
 36
1.0
 17
0.0
 27
0.0
 37
0.0
 40
1297.047249741275
 41
1.7980884109916371
 42
50.0
 43
0.0
 44
0.0
 50
0.0
 51
0.0
 71
     0
 72
  1000
 73
     1
 74
     3
 75
     0
 76
     0
 77
     0
 78
     0
  0
ENDTAB
  0
ENDSEC
  0
SECTION
  2
BLOCKS
  0
BLOCK
  8
0
  2
_ORIGIN
 70
     0
 10
0.0
 20
0.0
 30
0.0
  3
_ORIGIN
  1
_ORIGIN
  0
CIRCLE
  8
0
  6
CONTINUOUS
 62
     7
 10
0.0
 20
0.0
 30
0.0
 40
0.5
  0
LINE
  8
0
  6
CONTINUOUS
 62
     7
 10
0.0
 20
0.0
 30
0.0
 11
-1.0
 21
0.0
 31
0.0
  0
ENDBLK
  8
0
  0
ENDSEC
  0
SECTION
  2
ENTITIES
  0
LINE
  8
DETAIL
  6
CONTINUOUS
 62
     5
 10
0.0
 20
170.5
 30
0.0
 11
-92.499999000000003
 21
170.5
 31
0.0
  0
LINE
  8
DETAIL
  6
CONTINUOUS
 62
     5
 10
0.0
 20
170.5
 30
0.0
 11
92.5
 21
170.5
 31
0.0
  0
LINE
  8
DETAIL
  6
CONTINUOUS
 62
     5
 10
106.141687
 20
-48.900000000000013
 30
0.0
 11
106.141687
 21
-48.400000000000013
 31
0.0
  0
LINE
  8
DETAIL
  6
CONTINUOUS
 62
     5
 10
92.699998999999991
 20
-48.900000000000013
 30
0.0
 11
106.141687
 21
-48.900000000000013
 31
0.0
  0
LINE
  8
DETAIL
  6
CONTINUOUS
 62
     5
 10
106.141687
 20
-48.400000000000013
 30
0.0
 11
137.0
 21
-48.400000000000013
 31
0.0
  0
ARC
  8
DETAIL
  6
CONTINUOUS
 62
     5
 10
137.0
 20
-45.900000000000013
 30
0.0
 40
2.5
 50
270.0
 51
0.0
  0
LINE
  8
DETAIL
  6
CONTINUOUS
 62
     5
 10
139.5
 20
-45.900000000000013
 30
0.0
 11
139.5
 21
-0.0357099999999946
 31
0.0
  0
ARC
  8
DETAIL
  6
CONTINUOUS
 62
     5
 10
137.0
 20
45.900000000000013
 30
0.0
 40
2.5
 50
0.0
 51
90.0
  0
LINE
  8
DETAIL
  6
CONTINUOUS
 62
     5
 10
139.5
 20
45.900000000000013
 30
0.0
 11
139.5
 21
-0.0357099999999946
 31
0.0
  0
LINE
  8
DETAIL
  6
CONTINUOUS
 62
     5
 10
106.141687
 20
48.400000000000013
 30
0.0
 11
137.0
 21
48.400000000000013
 31
0.0
  0
LINE
  8
DETAIL
  6
CONTINUOUS
 62
     5
 10
106.141687
 20
0.0
 30
0.0
 11
106.141687
 21
-0.0357250000000136
 31
0.0
  0
LINE
  8
DETAIL
  6
CONTINUOUS
 62
     5
 10
106.141687
 20
-48.400000000000013
 30
0.0
 11
106.141687
 21
-0.035695000000004
 31
0.0
  0
LINE
  8
DETAIL
  6
CONTINUOUS
 62
     5
 10
70.0
 20
-125.610929
 30
0.0
 11
-70.0
 21
-125.610929
 31
0.0
  0
LINE
  8
DETAIL
  6
CONTINUOUS
 62
     5
 10
-92.5
 20
0.0
 30
0.0
 11
-92.5
 21
-129.5
 31
0.0
  0
LINE
  8
DETAIL
  6
CONTINUOUS
 62
     5
 10
-92.5
 20
169.5
 30
0.0
 11
-92.5
 21
168.69999999999999
 31
0.0
  0
LINE
  8
DETAIL
  6
CONTINUOUS
 62
     5
 10
-92.5
 20
-127.7
 30
0.0
 11
-92.5
 21
-128.5
 31
0.0
  0
LINE
  8
DETAIL
  6
CONTINUOUS
 62
     5
 10
-70.0
 20
-129.5
 30
0.0
 11
-92.5
 21
-129.5
 31
0.0
  0
LINE
  8
DETAIL
  6
CONTINUOUS
 62
     5
 10
92.5
 20
-27.022313
 30
0.0
 11
92.5
 21
-50.495088000000003
 31
0.0
  0
LINE
  8
DETAIL
  6
CONTINUOUS
 62
     5
 10
92.5
 20
170.5
 30
0.0
 11
92.5
 21
153.82825199999999
 31
0.0
  0
LINE
  8
DETAIL
  6
CONTINUOUS
 62
     5
 10
70.0
 20
-129.5
 30
0.0
 11
92.5
 21
-129.5
 31
0.0
  0
LINE
  8
DETAIL
  6
CONTINUOUS
 62
     5
 10
92.5
 20
-50.495088000000003
 30
0.0
 11
92.5
 21
-129.5
 31
0.0
  0
LINE
  8
DETAIL
  6
CONTINUOUS
 62
     5
 10
92.5
 20
170.5
 30
0.0
 11
92.5
 21
-31.027225000000001
 31
0.0
  0
LINE
  8
BASIS
  6
DASHDOT
 62
     6
 10
0.0
 20
237.98276300000001
 30
0.0
 11
0.0
 21
-162.767326
 31
0.0
  0
LINE
  8
BASIS
  6
DASHDOT
 62
     6
 10
157.55112299999999
 20
0.0
 30
0.0
 11
-130.93914181330001
 21
0.0
 31
0.0
  0
LINE
  8
DETAIL
  6
CONTINUOUS
 62
     5
 10
139.5
 20
112.376751
 30
0.0
 11
139.5
 21
71.876750000000015
 31
0.0
  0
ARC
  8
DETAIL
  6
CONTINUOUS
 62
     5
 10
134.5
 20
112.376751
 30
0.0
 40
5.0
 50
0.0
 51
90.0
  0
LINE
  8
DETAIL
  6
CONTINUOUS
 62
     5
 10
134.5
 20
117.376751
 30
0.0
 11
92.5
 21
117.376751
 31
0.0
  0
ARC
  8
DETAIL
  6
CONTINUOUS
 62
     5
 10
134.5
 20
71.876751000000013
 30
0.0
 40
5.0
 50
270.0
 51
0.0
  0
LINE
  8
DETAIL
  6
CONTINUOUS
 62
     5
 10
134.5
 20
66.876751000000013
 30
0.0
 11
92.5
 21
66.876751000000013
 31
0.0
  0
LINE
  8
DETAIL
  6
CONTINUOUS
 62
     5
 10
70.0
 20
170.5
 30
0.0
 11
70.0
 21
-129.5
 31
0.0
  0
LINE
  8
DETAIL
  6
CONTINUOUS
 62
     5
 10
-70.0
 20
170.5
 30
0.0
 11
-70.0
 21
-129.5
 31
0.0
  0
ARC
  8
DETAIL
  6
CONTINUOUS
 62
     5
 10
0.0
 20
85.5
 30
0.0
 40
115.0
 50
47.657395000000221
 51
132.34260499999979
  0
LINE
  8
SIZE
  6
CONTINUOUS
 62
    30
 10
-92.499999000000003
 20
190.5
 30
0.0
 11
-92.499999000000003
 21
431.96978000000001
 31
0.0
  0
LINE
  8
SIZE
  6
CONTINUOUS
 62
    30
 10
92.5
 20
190.5
 30
0.0
 11
92.5
 21
431.96978000000001
 31
0.0
  0
LINE
  8
SIZE
  6
CONTINUOUS
 62
    30
 10
-80.499999000000003
 20
411.9697799999999
 30
0.0
 11
80.5
 21
411.9697799999999
 31
0.0
  0
TEXT
  8
SIZE
  6
CONTINUOUS
 62
    30
 10
-68.571428571428569
 20
436.92420099999993
 30
0.0
 40
64.0
  1
185
 41
0.9
 72
     1
 11
0.0
 21
436.92420099999993
 31
0.0
  0
CIRCLE
  8
SIZE
  6
CONTINUOUS
 62
    30
 10
-92.499999000000003
 20
411.9697799999999
 30
0.0
 40
6.0
  0
LINE
  8
SIZE
  6
CONTINUOUS
 62
    30
 10
-92.499999000000003
 20
411.9697799999999
 30
0.0
 11
-80.499999000000003
 21
411.9697799999999
 31
0.0
  0
CIRCLE
  8
SIZE
  6
CONTINUOUS
 62
    30
 10
92.5
 20
411.9697799999999
 30
0.0
 40
6.0
  0
LINE
  8
SIZE
  6
CONTINUOUS
 62
    30
 10
92.5
 20
411.9697799999999
 30
0.0
 11
80.5
 21
411.9697799999999
 31
0.0
  0
LINE
  8
SIZE
  6
CONTINUOUS
 62
    30
 10
-92.5
 20
-148.67648199999999
 30
0.0
 11
-92.5
 21
-346.54123900000002
 31
0.0
  0
LINE
  8
SIZE
  6
CONTINUOUS
 62
    30
 10
-70.0
 20
-148.67648199999999
 30
0.0
 11
-70.0
 21
-346.54123900000002
 31
0.0
  0
LINE
  8
SIZE
  6
CONTINUOUS
 62
    30
 10
-104.5
 20
-326.54123900000002
 30
0.0
 11
-116.5
 21
-326.54123900000002
 31
0.0
  0
LINE
  8
SIZE
  6
CONTINUOUS
 62
    30
 10
-58.0
 20
-326.54123900000002
 30
0.0
 11
-46.0
 21
-326.54123900000002
 31
0.0
  0
LINE
  8
SIZE
  6
CONTINUOUS
 62
    30
 10
-362.17095
 20
-326.54123900000002
 30
0.0
 11
-92.5
 21
-326.54123900000002
 31
0.0
  0
TEXT
  8
SIZE
  6
CONTINUOUS
 62
    30
 10
-337.17094957142848
 20
-301.54123900000002
 30
0.0
 40
64.0
  1
22.5
 41
0.9
 72
     1
 11
-249.39952099999999
 21
-301.54123900000002
 31
0.0
  0
LINE
  8
SIZE
  6
CONTINUOUS
 62
    30
 10
-92.5
 20
-326.54123900000002
 30
0.0
 11
-70.0
 21
-326.54123900000002
 31
0.0
  0
LINE
  8
SIZE
  6
CONTINUOUS
 62
    30
 10
-92.5
 20
-326.54123900000002
 30
0.0
 11
-70.0
 21
-326.54123900000002
 31
0.0
  0
CIRCLE
  8
SIZE
  6
CONTINUOUS
 62
    30
 10
-92.5
 20
-326.54123900000002
 30
0.0
 40
6.0
  0
LINE
  8
SIZE
  6
CONTINUOUS
 62
    30
 10
-92.5
 20
-326.54123900000002
 30
0.0
 11
-104.5
 21
-326.54123900000002
 31
0.0
  0
CIRCLE
  8
SIZE
  6
CONTINUOUS
 62
    30
 10
-70.0
 20
-326.54123900000002
 30
0.0
 40
6.0
  0
LINE
  8
SIZE
  6
CONTINUOUS
 62
    30
 10
-70.0
 20
-326.54123900000002
 30
0.0
 11
-58.0
 21
-326.54123900000002
 31
0.0
  0
LINE
  8
SIZE
  6
CONTINUOUS
 62
    30
 10
70.0
 20
-148.67648199999999
 30
0.0
 11
70.0
 21
-348.35364199999998
 31
0.0
  0
LINE
  8
SIZE
  6
CONTINUOUS
 62
    30
 10
92.5
 20
-148.67648199999999
 30
0.0
 11
92.5
 21
-348.35364199999998
 31
0.0
  0
LINE
  8
SIZE
  6
CONTINUOUS
 62
    30
 10
58.0
 20
-328.35364199999998
 30
0.0
 11
46.0
 21
-328.35364199999998
 31
0.0
  0
LINE
  8
SIZE
  6
CONTINUOUS
 62
    30
 10
104.5
 20
-328.35364199999998
 30
0.0
 11
116.5
 21
-328.35364199999998
 31
0.0
  0
LINE
  8
SIZE
  6
CONTINUOUS
 62
    30
 10
371.97967199999999
 20
-328.35364199999998
 30
0.0
 11
92.5
 21
-328.35364199999998
 31
0.0
  0
TEXT
  8
SIZE
  6
CONTINUOUS
 62
    30
 10
171.43681542857141
 20
-303.35364199999998
 30
0.0
 40
64.0
  1
22.5
 41
0.9
 72
     1
 11
259.20824399999998
 21
-303.35364199999998
 31
0.0
  0
LINE
  8
SIZE
  6
CONTINUOUS
 62
    30
 10
70.0
 20
-328.35364199999998
 30
0.0
 11
92.5
 21
-328.35364199999998
 31
0.0
  0
LINE
  8
SIZE
  6
CONTINUOUS
 62
    30
 10
70.0
 20
-328.35364199999998
 30
0.0
 11
92.5
 21
-328.35364199999998
 31
0.0
  0
CIRCLE
  8
SIZE
  6
CONTINUOUS
 62
    30
 10
70.0
 20
-328.35364199999998
 30
0.0
 40
6.0
  0
LINE
  8
SIZE
  6
CONTINUOUS
 62
    30
 10
70.0
 20
-328.35364199999998
 30
0.0
 11
58.0
 21
-328.35364199999998
 31
0.0
  0
CIRCLE
  8
SIZE
  6
CONTINUOUS
 62
    30
 10
92.5
 20
-328.35364199999998
 30
0.0
 40
6.0
  0
LINE
  8
SIZE
  6
CONTINUOUS
 62
    30
 10
92.5
 20
-328.35364199999998
 30
0.0
 11
104.5
 21
-328.35364199999998
 31
0.0
  0
LINE
  8
NOTE
  6
CONTINUOUS
 62
     4
 10
82.5
 20
-149.5
 30
0.0
 11
82.5
 21
-109.5
 31
0.0
  0
LINE
  8
NOTE
  6
CONTINUOUS
 62
     4
 10
102.5
 20
-129.5
 30
0.0
 11
62.5
 21
-129.5
 31
0.0
  0
LINE
  8
NOTE
  6
CONTINUOUS
 62
     4
 10
-82.5
 20
-149.5
 30
0.0
 11
-82.5
 21
-109.5
 31
0.0
  0
LINE
  8
NOTE
  6
CONTINUOUS
 62
     4
 10
-62.5
 20
-129.5
 30
0.0
 11
-102.5
 21
-129.5
 31
0.0
  0
LINE
  8
NOTE
  6
CONTINUOUS
 62
     4
 10
82.5
 20
190.5
 30
0.0
 11
82.5
 21
150.5
 31
0.0
  0
LINE
  8
NOTE
  6
CONTINUOUS
 62
     4
 10
102.5
 20
170.5
 30
0.0
 11
62.5
 21
170.5
 31
0.0
  0
LINE
  8
NOTE
  6
CONTINUOUS
 62
     4
 10
-82.5
 20
190.5
 30
0.0
 11
-82.5
 21
150.5
 31
0.0
  0
LINE
  8
NOTE
  6
CONTINUOUS
 62
     4
 10
-62.5
 20
170.5
 30
0.0
 11
-102.5
 21
170.5
 31
0.0
  0
LINE
  8
SIZE
  6
CONTINUOUS
 62
    30
 10
-82.5
 20
-169.5
 30
0.0
 11
-82.5
 21
-469.53468500000002
 31
0.0
  0
LINE
  8
SIZE
  6
CONTINUOUS
 62
    30
 10
82.5
 20
-169.5
 30
0.0
 11
82.5
 21
-469.53468500000002
 31
0.0
  0
LINE
  8
SIZE
  6
CONTINUOUS
 62
    30
 10
-70.5
 20
-449.53468499999991
 30
0.0
 11
70.5
 21
-449.53468499999991
 31
0.0
  0
TEXT
  8
SIZE
  6
CONTINUOUS
 62
    30
 10
-68.571428571428569
 20
-424.53468499999991
 30
0.0
 40
64.0
  1
165
 41
0.9
 72
     1
 11
0.0
 21
-424.53468499999991
 31
0.0
  0
CIRCLE
  8
SIZE
  6
CONTINUOUS
 62
    30
 10
-82.5
 20
-449.53468499999991
 30
0.0
 40
6.0
  0
LINE
  8
SIZE
  6
CONTINUOUS
 62
    30
 10
-82.5
 20
-449.53468499999991
 30
0.0
 11
-70.5
 21
-449.53468499999991
 31
0.0
  0
CIRCLE
  8
SIZE
  6
CONTINUOUS
 62
    30
 10
82.5
 20
-449.53468499999991
 30
0.0
 40
6.0
  0
LINE
  8
SIZE
  6
CONTINUOUS
 62
    30
 10
82.5
 20
-449.53468499999991
 30
0.0
 11
70.5
 21
-449.53468499999991
 31
0.0
  0
LINE
  8
SIZE
  6
CONTINUOUS
 62
    30
 10
-92.5
 20
-148.5
 30
0.0
 11
-92.5
 21
-592.91163200000017
 31
0.0
  0
LINE
  8
SIZE
  6
CONTINUOUS
 62
    30
 10
139.5
 20
-65.900000000000006
 30
0.0
 11
139.5
 21
-592.91163200000017
 31
0.0
  0
LINE
  8
SIZE
  6
CONTINUOUS
 62
    30
 10
-80.5
 20
-572.91163200000017
 30
0.0
 11
127.5
 21
-572.91163200000017
 31
0.0
  0
TEXT
  8
SIZE
  6
CONTINUOUS
 62
    30
 10
-50.55714285714285
 20
-547.63069900000016
 30
0.0
 40
64.0
  1
232
 41
0.9
 72
     1
 11
23.5
 21
-547.63069900000016
 31
0.0
  0
CIRCLE
  8
SIZE
  6
CONTINUOUS
 62
    30
 10
-92.5
 20
-572.91163200000017
 30
0.0
 40
6.0
  0
LINE
  8
SIZE
  6
CONTINUOUS
 62
    30
 10
-92.5
 20
-572.91163200000017
 30
0.0
 11
-80.5
 21
-572.91163200000017
 31
0.0
  0
CIRCLE
  8
SIZE
  6
CONTINUOUS
 62
    30
 10
139.5
 20
-572.91163200000017
 30
0.0
 40
6.0
  0
LINE
  8
SIZE
  6
CONTINUOUS
 62
    30
 10
139.5
 20
-572.91163200000017
 30
0.0
 11
127.5
 21
-572.91163200000017
 31
0.0
  0
LINE
  8
SIZE
  6
CONTINUOUS
 62
    30
 10
-92.5
 20
-326.54123900000002
 30
0.0
 11
-348.02410099999997
 21
-326.54123900000002
 31
0.0
  0
LINE
  8
SIZE
  6
CONTINUOUS
 62
    30
 10
94.5
 20
-328.35364199999998
 30
0.0
 11
352.598905
 21
-328.35364199999998
 31
0.0
  0
POINT
  8
ARRANGE
  6
CONTINUOUS
 62
     1
 10
0.0
 20
0.0
 30
0.0
  0
CIRCLE
  8
ARRANGE
  6
CONTINUOUS
 62
     1
 10
0.0
 20
0.0
 30
0.0
 40
40.0
  0
LINE
  8
NOTE
  6
CONTINUOUS
 62
     4
 10
-728.23129800000004
 20
381.8745996255771
 30
0.0
 11
-255.35613799999999
 21
381.8745996255771
 31
0.0
  0
LINE
  8
NOTE
  6
CONTINUOUS
 62
     4
 10
-82.5
 20
170.5
 30
0.0
 11
-255.35613799999999
 21
381.8745996255771
 31
0.0
  0
LINE
  8
NOTE
  6
CONTINUOUS
 62
     4
 10
-115.504198
 20
193.09917999999999
 30
0.0
 11
-82.5
 21
170.5
 31
0.0
  0
LINE
  8
NOTE
  6
CONTINUOUS
 62
     4
 10
-82.5
 20
170.5
 30
0.0
 11
-99.782882999999998
 21
206.57356299999989
 31
0.0
  0
LINE
  8
DETAIL
  6
CONTINUOUS
 62
     5
 10
-92.5
 20
0.0
 30
0.0
 11
-92.5
 21
170.5
 31
0.0
  0
ARC
  8
DETAIL
  6
CONTINUOUS
 62
     5
 10
0.0
 20
85.5
 30
0.0
 40
115.0
 50
341.17923900000051
 51
350.68040599999961
  0
ARC
  8
DETAIL
  6
CONTINUOUS
 62
     5
 10
0.0
 20
85.5
 30
0.0
 40
115.0
 50
143.5473180000001
 51
216.4526817738691
  0
LINE
  8
DETAIL
  6
CONTINUOUS
 62
     5
 10
92.5
 20
27.022313
 30
0.0
 11
92.5
 21
50.49508800000001
 31
0.0
  0
LINE
  8
DETAIL
  6
CONTINUOUS
 62
     5
 10
92.699998999999991
 20
48.900000000000013
 30
0.0
 11
106.141687
 21
48.900000000000013
 31
0.0
  0
LINE
  8
DETAIL
  6
CONTINUOUS
 62
     5
 10
106.141687
 20
48.900000000000013
 30
0.0
 11
106.141687
 21
48.400000000000013
 31
0.0
  0
LINE
  8
DETAIL
  6
CONTINUOUS
 62
     5
 10
106.141687
 20
48.400000000000013
 30
0.0
 11
106.141687
 21
0.035695000000004
 31
0.0
  0
ARC
  8
DETAIL
  6
CONTINUOUS
 62
     5
 10
0.0
 20
85.5
 30
0.0
 40
115.0
 50
16.09251499999943
 51
36.452681999999918
  0
LINE
  8
DETAIL
  6
CONTINUOUS
 62
     5
 10
-87.5
 20
146.74499800000001
 30
0.0
 11
-87.5
 21
134.25500199999999
 31
0.0
  0
LINE
  8
DETAIL
  6
CONTINUOUS
 62
     5
 10
-77.5
 20
146.74499800000001
 30
0.0
 11
-77.5
 21
134.25500199999999
 31
0.0
  0
ARC
  8
DETAIL
  6
CONTINUOUS
 62
     5
 10
-82.5
 20
140.5
 30
0.0
 40
8.0
 50
51.317813000000868
 51
128.68218699999909
  0
ARC
  8
DETAIL
  6
CONTINUOUS
 62
     5
 10
-82.5
 20
140.5
 30
0.0
 40
8.0
 50
231.31781300000091
 51
308.68218699999909
  0
CIRCLE
  8
FIX
  6
CONTINUOUS
 62
    11
 10
-82.5
 20
140.5
 30
0.0
 40
5.0
  0
LINE
  8
NOTE
  6
CONTINUOUS
 62
     4
 10
-82.5
 20
160.5
 30
0.0
 11
-82.5
 21
120.5
 31
0.0
  0
LINE
  8
NOTE
  6
CONTINUOUS
 62
     4
 10
-62.5
 20
140.5
 30
0.0
 11
-102.5
 21
140.5
 31
0.0
  0
CIRCLE
  8
FIX
  6
CONTINUOUS
 62
    11
 10
-82.5
 20
170.5
 30
0.0
 40
5.0
  0
CIRCLE
  8
FIX
  6
CONTINUOUS
 62
    11
 10
82.5
 20
170.5
 30
0.0
 40
5.0
  0
CIRCLE
  8
FIX
  6
CONTINUOUS
 62
    11
 10
-82.5
 20
-129.5
 30
0.0
 40
5.0
  0
CIRCLE
  8
FIX
  6
CONTINUOUS
 62
    11
 10
82.5
 20
-129.5
 30
0.0
 40
5.0
  0
LINE
  8
NOTE
  6
CONTINUOUS
 62
     4
 10
82.5
 20
160.5
 30
0.0
 11
82.5
 21
120.5
 31
0.0
  0
LINE
  8
NOTE
  6
CONTINUOUS
 62
     4
 10
62.5
 20
140.5
 30
0.0
 11
102.5
 21
140.5
 31
0.0
  0
CIRCLE
  8
FIX
  6
CONTINUOUS
 62
    11
 10
82.5
 20
140.5
 30
0.0
 40
5.0
  0
ARC
  8
DETAIL
  6
CONTINUOUS
 62
     5
 10
82.5
 20
140.5
 30
0.0
 40
8.0
 50
231.31781300000091
 51
308.68218699999909
  0
ARC
  8
DETAIL
  6
CONTINUOUS
 62
     5
 10
82.5
 20
140.5
 30
0.0
 40
8.0
 50
51.317813000000868
 51
128.68218699999909
  0
LINE
  8
DETAIL
  6
CONTINUOUS
 62
     5
 10
77.5
 20
146.74499800000001
 30
0.0
 11
77.5
 21
134.25500199999999
 31
0.0
  0
LINE
  8
DETAIL
  6
CONTINUOUS
 62
     5
 10
87.5
 20
146.74499800000001
 30
0.0
 11
87.5
 21
134.25500199999999
 31
0.0
  0
CIRCLE
  8
FIX
  6
CONTINUOUS
 62
    11
 10
-82.5
 20
-99.5
 30
0.0
 40
5.0
  0
ARC
  8
DETAIL
  6
CONTINUOUS
 62
     5
 10
-82.5
 20
-99.5
 30
0.0
 40
8.0
 50
51.317813000000868
 51
128.68218699999909
  0
ARC
  8
DETAIL
  6
CONTINUOUS
 62
     5
 10
-82.5
 20
-99.5
 30
0.0
 40
8.0
 50
231.31781300000091
 51
308.68218699999909
  0
LINE
  8
DETAIL
  6
CONTINUOUS
 62
     5
 10
-77.5
 20
-105.744998
 30
0.0
 11
-77.5
 21
-93.255002000000005
 31
0.0
  0
LINE
  8
DETAIL
  6
CONTINUOUS
 62
     5
 10
-87.5
 20
-105.744998
 30
0.0
 11
-87.5
 21
-93.255002000000005
 31
0.0
  0
LINE
  8
NOTE
  6
CONTINUOUS
 62
     4
 10
-82.5
 20
-119.5
 30
0.0
 11
-82.5
 21
-79.5
 31
0.0
  0
LINE
  8
NOTE
  6
CONTINUOUS
 62
     4
 10
-62.5
 20
-99.5
 30
0.0
 11
-102.5
 21
-99.5
 31
0.0
  0
LINE
  8
DETAIL
  6
CONTINUOUS
 62
     5
 10
87.5
 20
-105.744998
 30
0.0
 11
87.5
 21
-93.255002000000005
 31
0.0
  0
LINE
  8
DETAIL
  6
CONTINUOUS
 62
     5
 10
77.5
 20
-105.744998
 30
0.0
 11
77.5
 21
-93.255002000000005
 31
0.0
  0
ARC
  8
DETAIL
  6
CONTINUOUS
 62
     5
 10
82.5
 20
-99.5
 30
0.0
 40
8.0
 50
231.31781300000091
 51
308.68218699999909
  0
ARC
  8
DETAIL
  6
CONTINUOUS
 62
     5
 10
82.5
 20
-99.5
 30
0.0
 40
8.0
 50
51.317813000000868
 51
128.68218699999909
  0
CIRCLE
  8
FIX
  6
CONTINUOUS
 62
    11
 10
82.5
 20
-99.5
 30
0.0
 40
5.0
  0
LINE
  8
NOTE
  6
CONTINUOUS
 62
     4
 10
82.5
 20
-119.5
 30
0.0
 11
82.5
 21
-79.5
 31
0.0
  0
LINE
  8
NOTE
  6
CONTINUOUS
 62
     4
 10
62.5
 20
-99.5
 30
0.0
 11
102.5
 21
-99.5
 31
0.0
  0
TEXT
  8
NOTE
  6
CONTINUOUS
 62
     4
 10
-938.88115800000014
 20
409.24604562557721
 30
0.0
 40
64.0
  1
AH 12-φ16×10
 41
0.9
  0
LINE
  8
NOTE
  6
CONTINUOUS
 62
     4
 10
92.5
 20
110.8768
 30
0.0
 11
92.5
 21
70.876800000000003
 31
0.0
  0
LINE
  8
NOTE
  6
CONTINUOUS
 62
     4
 10
72.5
 20
90.876800000000003
 30
0.0
 11
112.5
 21
90.876800000000003
 31
0.0
  0
LINE
  8
SIZE
  6
CONTINUOUS
 62
    30
 10
157.0
 20
-48.400000000000013
 30
0.0
 11
521.36324500000001
 21
-48.400000000000013
 31
0.0
  0
LINE
  8
SIZE
  6
CONTINUOUS
 62
    30
 10
157.0
 20
48.400000000000013
 30
0.0
 11
521.36324500000001
 21
48.400000000000013
 31
0.0
  0
LINE
  8
SIZE
  6
CONTINUOUS
 62
    30
 10
501.36324500000001
 20
-36.400000000000013
 30
0.0
 11
501.36324500000001
 21
36.400000000000013
 31
0.0
  0
LINE
  8
SIZE
  6
CONTINUOUS
 62
    30
 10
501.36324500000001
 20
-348.23009000000002
 30
0.0
 11
501.36324500000001
 21
-48.400000000000013
 31
0.0
  0
TEXT
  8
SIZE
  6
CONTINUOUS
 62
    30
 10
476.36324500000001
 20
-324.60151914285711
 30
0.0
 40
64.0
  1
φ96.8
 50
90.0
 41
0.9
 72
     1
 11
476.36324500000001
 21
-206.65866199999999
 31
0.0
  0
CIRCLE
  8
SIZE
  6
CONTINUOUS
 62
    30
 10
501.36324500000001
 20
-48.400000000000013
 30
0.0
 40
6.0
  0
LINE
  8
SIZE
  6
CONTINUOUS
 62
    30
 10
501.36324500000001
 20
-48.400000000000013
 30
0.0
 11
501.36324500000001
 21
-36.400000000000013
 31
0.0
  0
CIRCLE
  8
SIZE
  6
CONTINUOUS
 62
    30
 10
501.36324500000001
 20
48.400000000000013
 30
0.0
 40
6.0
  0
LINE
  8
SIZE
  6
CONTINUOUS
 62
    30
 10
501.36324500000001
 20
48.400000000000013
 30
0.0
 11
501.36324500000001
 21
36.400000000000013
 31
0.0
  0
LINE
  8
SIZE
  6
CONTINUOUS
 62
    30
 10
112.5
 20
170.5
 30
0.0
 11
659.79561100000001
 21
170.5
 31
0.0
  0
LINE
  8
SIZE
  6
CONTINUOUS
 62
    30
 10
177.55112299999999
 20
0.0
 30
0.0
 11
659.79561100000001
 21
0.0
 31
0.0
  0
LINE
  8
SIZE
  6
CONTINUOUS
 62
    30
 10
639.79561099999989
 20
158.5
 30
0.0
 11
639.79561099999989
 21
12.0
 31
0.0
  0
LINE
  8
SIZE
  6
CONTINUOUS
 62
    30
 10
639.79561099999989
 20
-340.77474899999999
 30
0.0
 11
639.79561099999989
 21
0.0
 31
0.0
  0
TEXT
  8
SIZE
  6
CONTINUOUS
 62
    30
 10
614.79561099999989
 20
-315.77474871428569
 30
0.0
 40
64.0
  1
170.5
 50
90.0
 41
0.9
 72
     1
 11
614.79561099999989
 21
-206.060463
 31
0.0
  0
CIRCLE
  8
SIZE
  6
CONTINUOUS
 62
    30
 10
639.79561099999989
 20
170.5
 30
0.0
 40
6.0
  0
LINE
  8
SIZE
  6
CONTINUOUS
 62
    30
 10
639.79561099999989
 20
170.5
 30
0.0
 11
639.79561099999989
 21
158.5
 31
0.0
  0
CIRCLE
  8
SIZE
  6
CONTINUOUS
 62
    30
 10
639.79561099999989
 20
0.0
 30
0.0
 40
6.0
  0
LINE
  8
SIZE
  6
CONTINUOUS
 62
    30
 10
639.79561099999989
 20
0.0
 30
0.0
 11
639.79561099999989
 21
12.0
 31
0.0
  0
LINE
  8
SIZE
  6
CONTINUOUS
 62
    30
 10
-112.499999
 20
170.5
 30
0.0
 11
-591.05345527001737
 21
170.5
 31
0.0
  0
LINE
  8
SIZE
  6
CONTINUOUS
 62
    30
 10
-112.5
 20
-129.5
 30
0.0
 11
-591.05345527001737
 21
-129.5
 31
0.0
  0
LINE
  8
SIZE
  6
CONTINUOUS
 62
    30
 10
-571.05345527001737
 20
158.5
 30
0.0
 11
-571.05345527001737
 21
-117.5
 31
0.0
  0
TEXT
  8
SIZE
  6
CONTINUOUS
 62
    30
 10
-597.94965927001726
 20
-53.55714285714285
 30
0.0
 40
64.0
  1
300
 50
90.0
 41
0.9
 72
     1
 11
-597.94965927001726
 21
20.5
 31
0.0
  0
CIRCLE
  8
SIZE
  6
CONTINUOUS
 62
    30
 10
-571.05345527001737
 20
170.5
 30
0.0
 40
6.0
  0
LINE
  8
SIZE
  6
CONTINUOUS
 62
    30
 10
-571.05345527001737
 20
170.5
 30
0.0
 11
-571.05345527001737
 21
158.5
 31
0.0
  0
CIRCLE
  8
SIZE
  6
CONTINUOUS
 62
    30
 10
-571.05345527001737
 20
-129.5
 30
0.0
 40
6.0
  0
LINE
  8
SIZE
  6
CONTINUOUS
 62
    30
 10
-571.05345527001737
 20
-129.5
 30
0.0
 11
-571.05345527001737
 21
-117.5
 31
0.0
  0
LINE
  8
SIZE
  6
CONTINUOUS
 62
    30
 10
-122.5
 20
140.5
 30
0.0
 11
-465.27955927001739
 21
140.5
 31
0.0
  0
LINE
  8
SIZE
  6
CONTINUOUS
 62
    30
 10
-122.5
 20
-99.5
 30
0.0
 11
-465.27955927001739
 21
-99.5
 31
0.0
  0
LINE
  8
SIZE
  6
CONTINUOUS
 62
    30
 10
-445.27955927001739
 20
128.5
 30
0.0
 11
-445.27955927001739
 21
-87.5
 31
0.0
  0
TEXT
  8
SIZE
  6
CONTINUOUS
 62
    30
 10
-469.7458952700174
 20
-53.55714285714285
 30
0.0
 40
64.0
  1
240
 50
90.0
 41
0.9
 72
     1
 11
-469.7458952700174
 21
20.5
 31
0.0
  0
CIRCLE
  8
SIZE
  6
CONTINUOUS
 62
    30
 10
-445.27955927001739
 20
140.5
 30
0.0
 40
6.0
  0
LINE
  8
SIZE
  6
CONTINUOUS
 62
    30
 10
-445.27955927001739
 20
140.5
 30
0.0
 11
-445.27955927001739
 21
128.5
 31
0.0
  0
CIRCLE
  8
SIZE
  6
CONTINUOUS
 62
    30
 10
-445.27955927001739
 20
-99.5
 30
0.0
 40
6.0
  0
LINE
  8
SIZE
  6
CONTINUOUS
 62
    30
 10
-445.27955927001739
 20
-99.5
 30
0.0
 11
-445.27955927001739
 21
-87.5
 31
0.0
  0
ARC
  8
OUTLINE
  6
CONTINUOUS
 62
     3
 10
0.0
 20
85.5
 30
0.0
 40
115.0
 50
16.09251499999943
 51
36.452681999999918
  0
ARC
  8
OUTLINE
  6
CONTINUOUS
 62
     3
 10
0.0
 20
85.5
 30
0.0
 40
115.0
 50
143.5473180000001
 51
216.4526817738691
  0
ARC
  8
OUTLINE
  6
CONTINUOUS
 62
     3
 10
0.0
 20
85.5
 30
0.0
 40
115.0
 50
341.17923900000051
 51
350.68040599999961
  0
LINE
  8
OUTLINE
  6
CONTINUOUS
 62
     3
 10
-92.5
 20
-129.5
 30
0.0
 11
-92.5
 21
17.171748156417781
 31
0.0
  0
LINE
  8
OUTLINE
  6
CONTINUOUS
 62
     3
 10
-92.5
 20
153.82825184358231
 30
0.0
 11
-92.5
 21
170.5
 31
0.0
  0
ARC
  8
OUTLINE
  6
CONTINUOUS
 62
     3
 10
0.0
 20
85.5
 30
0.0
 40
115.0
 50
47.657395000000221
 51
132.34260499999979
  0
LINE
  8
OUTLINE
  6
CONTINUOUS
 62
     3
 10
-70.0
 20
-125.610929
 30
0.0
 11
-70.0
 21
-129.5
 31
0.0
  0
LINE
  8
OUTLINE
  6
CONTINUOUS
 62
     3
 10
70.0
 20
-125.610929
 30
0.0
 11
70.0
 21
-129.5
 31
0.0
  0
LINE
  8
OUTLINE
  6
CONTINUOUS
 62
     3
 10
134.5
 20
66.876751000000013
 30
0.0
 11
113.4820452612835
 21
66.876751000000013
 31
0.0
  0
ARC
  8
OUTLINE
  6
CONTINUOUS
 62
     3
 10
134.5
 20
71.876751000000013
 30
0.0
 40
5.0
 50
270.0
 51
0.0
  0
LINE
  8
OUTLINE
  6
CONTINUOUS
 62
     3
 10
134.5
 20
117.376751
 30
0.0
 11
110.493767904276
 21
117.376751
 31
0.0
  0
ARC
  8
OUTLINE
  6
CONTINUOUS
 62
     3
 10
134.5
 20
112.376751
 30
0.0
 40
5.0
 50
0.0
 51
90.0
  0
LINE
  8
OUTLINE
  6
CONTINUOUS
 62
     3
 10
139.5
 20
112.376751
 30
0.0
 11
139.5
 21
71.876750000000015
 31
0.0
  0
LINE
  8
OUTLINE
  6
CONTINUOUS
 62
     3
 10
92.5
 20
170.5
 30
0.0
 11
92.5
 21
153.82825184358231
 31
0.0
  0
LINE
  8
OUTLINE
  6
CONTINUOUS
 62
     3
 10
92.5
 20
-50.495088000000003
 30
0.0
 11
92.5
 21
-129.5
 31
0.0
  0
LINE
  8
OUTLINE
  6
CONTINUOUS
 62
     3
 10
70.0
 20
-129.5
 30
0.0
 11
92.5
 21
-129.5
 31
0.0
  0
LINE
  8
OUTLINE
  6
CONTINUOUS
 62
     3
 10
92.5
 20
170.5
 30
0.0
 11
92.5
 21
153.82825199999999
 31
0.0
  0
LINE
  8
OUTLINE
  6
CONTINUOUS
 62
     3
 10
-70.0
 20
-129.5
 30
0.0
 11
-92.5
 21
-129.5
 31
0.0
  0
LINE
  8
OUTLINE
  6
CONTINUOUS
 62
     3
 10
-92.5
 20
169.5
 30
0.0
 11
-92.5
 21
168.69999999999999
 31
0.0
  0
LINE
  8
OUTLINE
  6
CONTINUOUS
 62
     3
 10
70.0
 20
-125.610929
 30
0.0
 11
-70.0
 21
-125.610929
 31
0.0
  0
LINE
  8
OUTLINE
  6
CONTINUOUS
 62
     3
 10
108.8512287482323
 20
48.400000000000013
 30
0.0
 11
137.0
 21
48.400000000000013
 31
0.0
  0
LINE
  8
OUTLINE
  6
CONTINUOUS
 62
     3
 10
139.5
 20
45.900000000000013
 30
0.0
 11
139.5
 21
-0.0357099999999946
 31
0.0
  0
ARC
  8
OUTLINE
  6
CONTINUOUS
 62
     3
 10
137.0
 20
45.900000000000013
 30
0.0
 40
2.5
 50
0.0
 51
90.0
  0
LINE
  8
OUTLINE
  6
CONTINUOUS
 62
     3
 10
139.5
 20
-45.900000000000013
 30
0.0
 11
139.5
 21
-0.0357099999999946
 31
0.0
  0
ARC
  8
OUTLINE
  6
CONTINUOUS
 62
     3
 10
137.0
 20
-45.900000000000013
 30
0.0
 40
2.5
 50
270.0
 51
0.0
  0
LINE
  8
OUTLINE
  6
CONTINUOUS
 62
     3
 10
106.141687
 20
-48.400000000000013
 30
0.0
 11
137.0
 21
-48.400000000000013
 31
0.0
  0
LINE
  8
OUTLINE
  6
CONTINUOUS
 62
     3
 10
92.699998999999991
 20
-48.900000000000013
 30
0.0
 11
106.141687
 21
-48.900000000000013
 31
0.0
  0
LINE
  8
OUTLINE
  6
CONTINUOUS
 62
     3
 10
106.141687
 20
-48.900000000000013
 30
0.0
 11
106.141687
 21
-48.400000000000013
 31
0.0
  0
LINE
  8
OUTLINE
  6
CONTINUOUS
 62
     3
 10
77.459666924148337
 20
170.5
 30
0.0
 11
92.5
 21
170.5
 31
0.0
  0
LINE
  8
OUTLINE
  6
CONTINUOUS
 62
     3
 10
-77.459666924148365
 20
170.5
 30
0.0
 11
-92.499999000000003
 21
170.5
 31
0.0
  0
TEXT
  8
NOTE
  6
CONTINUOUS
 62
     4
 10
273.00858499999998
 20
251.83048299999999
 30
0.0
 40
64.0
  1
EL
 41
0.9
  0
LINE
  8
NOTE
  6
CONTINUOUS
 62
     4
 10
92.5
 20
90.876800000000003
 30
0.0
 11
256.227418
 21
227.15787
 31
0.0
  0
LINE
  8
NOTE
  6
CONTINUOUS
 62
     4
 10
256.227418
 20
227.15787
 30
0.0
 11
372.70845500000001
 21
227.15787
 31
0.0
  0
LINE
  8
NOTE
  6
CONTINUOUS
 62
     4
 10
115.64559199999999
 20
123.500129
 30
0.0
 11
92.5
 21
90.876800000000003
 31
0.0
  0
LINE
  8
NOTE
  6
CONTINUOUS
 62
     4
 10
92.5
 20
90.876800000000003
 30
0.0
 11
128.856335
 21
107.556635
 31
0.0
  0
LINE
  8
BASIS
  6
DASHDOT
 62
     6
 10
-82.450434000000001
 20
0.5
 30
0.0
 11
-130.96485999999999
 21
0.5
 31
0.0
  0
TEXT
  8
NOTE
  6
CONTINUOUS
 62
     4
 10
-274.438197
 20
-23.227602999999998
 30
0.0
 40
64.0
  1
入口
 41
0.9
  0
LINE
  8
NOTE
  6
CONTINUOUS
 62
     4
 10
-728.23129800000004
 20
381.8745996255771
 30
0.0
 11
-947.55103499999996
 21
381.8745996255771
 31
0.0
  0
TEXT
  8
ETC
  6
CONTINUOUS
 62
    61
 10
320.62851468755412
 20
519.35547085177018
 30
0.0
 40
64.0
  1
産業扇
 41
0.9
  0
TEXT
  8
ETC
  6
CONTINUOUS
 62
    61
 10
315.79624668755412
 20
630.70010085177012
 30
0.0
 40
64.0
  1
BF-17S5_3
 41
0.9
  0
TEXT
  8
ETC
  6
CONTINUOUS
 62
    61
 10
404.49245679510273
 20
409.50166962541118
 30
0.0
 40
64.0
  1
BF-17S5
 41
0.9
  0
TEXT
  8
ETC
  6
CONTINUOUS
 62
    61
 10
404.49245679510273
 20
306.56964220555489
 30
0.0
 40
64.0
  1
BF-17T5
 41
0.9
  0
LINE
  8
SIZE
  6
CONTINUOUS
 62
    30
 10
-112.5
 20
170.5
 30
0.0
 11
-344.61242262286021
 21
170.50000000000011
 31
0.0
  0
LINE
  8
SIZE
  6
CONTINUOUS
 62
    30
 10
-150.96485999999999
 20
0.5000000000000057
 30
0.0
 11
-344.61242262286032
 21
0.5000000000000605
 31
0.0
  0
LINE
  8
SIZE
  6
CONTINUOUS
 62
    30
 10
-324.61242262286032
 20
12.50000000000006
 30
0.0
 11
-324.61242262286021
 21
158.50000000000011
 31
0.0
  0
LINE
  8
SIZE
  6
CONTINUOUS
 62
    30
 10
-324.61242262286021
 20
170.50000000000011
 30
0.0
 11
-324.61242262286021
 21
369.64285714285722
 31
0.0
  0
CIRCLE
  8
SIZE
  6
CONTINUOUS
 62
    30
 10
-324.61242262286032
 20
0.5000000000000549
 30
0.0
 40
6.0
  0
LINE
  8
SIZE
  6
CONTINUOUS
 62
    30
 10
-324.61242262286032
 20
0.5000000000000549
 30
0.0
 11
-324.61242262286032
 21
12.500000000000055
 31
0.0
  0
CIRCLE
  8
SIZE
  6
CONTINUOUS
 62
    30
 10
-324.61242262286021
 20
170.50000000000011
 30
0.0
 40
6.0
  0
LINE
  8
SIZE
  6
CONTINUOUS
 62
    30
 10
-324.61242262286021
 20
170.50000000000011
 30
0.0
 11
-324.61242262286021
 21
158.50000000000011
 31
0.0
  0
TEXT
  8
SIZE
  6
CONTINUOUS
 62
    30
 10
-349.61242262286032
 20
200.90342857142861
 30
0.0
 40
64.0
  1
170
 50
90.0
 41
0.9
 51
0.0
  7
STANDARD
 71
     0
 72
     1
 11
-349.61242262286032
 21
276.07142857142861
 31
0.0
210
0.0
220
0.0
230
1.0
  0
POINT
  8
DEFPOINTS
  6
CONTINUOUS
 62
    30
 10
-92.5
 20
170.5
 30
0.0
  0
POINT
  8
DEFPOINTS
  6
CONTINUOUS
 62
    30
 10
-130.96485999999999
 20
0.5
 30
0.0
  0
POINT
  8
DEFPOINTS
  6
CONTINUOUS
 62
    30
 10
-324.61242262286032
 20
0.5000000000000549
 30
0.0
  0
ENDSEC
  0
EOF
