  0
SECTION
  2
HEADER
  9
$ACADVER
  1
AC1009
  9
$DWGCODEPAGE
  3
dos932
  9
$INSBASE
 10
0.0
 20
0.0
 30
0.0
  9
$EXTMIN
 10
-590.048201172669
 20
-703.99473957251212
 30
-0.0015258207003583
  9
$EXTMAX
 10
1224.0554927546241
 20
816.78772801159357
 30
0.0000000349246037
  9
$LIMMIN
 10
-2970.0
 20
-2100.0
  9
$LIMMAX
 10
2970.0
 20
2100.0
  9
$ORTHOMODE
 70
     1
  9
$REGENMODE
 70
     1
  9
$FILLMODE
 70
     1
  9
$QTEXTMODE
 70
     0
  9
$MIRRTEXT
 70
     0
  9
$LTSCALE
 40
20.0
  9
$ATTMODE
 70
     1
  9
$TEXTSIZE
 40
64.0
  9
$TRACEWID
 40
0.05
  9
$TEXTSTYLE
  7
STANDARD
  9
$CLAYER
  8
SIZE
  9
$CELTYPE
  6
CONTINUOUS
  9
$CECOLOR
 62
     7
  9
$DIMSCALE
 40
1.0
  9
$DIMASZ
 40
12.0
  9
$DIMEXO
 40
20.0
  9
$DIMDLI
 40
200.0
  9
$DIMRND
 40
0.0
  9
$DIMDLE
 40
0.0
  9
$DIMEXE
 40
20.0
  9
$DIMTP
 40
0.0
  9
$DIMTM
 40
0.0
  9
$DIMTXT
 40
64.0
  9
$DIMCEN
 40
0.09
  9
$DIMTSZ
 40
0.0
  9
$DIMTOL
 70
     0
  9
$DIMLIM
 70
     0
  9
$DIMTIH
 70
     0
  9
$DIMTOH
 70
     0
  9
$DIMSE1
 70
     0
  9
$DIMSE2
 70
     0
  9
$DIMTAD
 70
     1
  9
$DIMZIN
 70
     8
  9
$DIMBLK
  1

  9
$DIMASO
 70
     1
  9
$DIMSHO
 70
     0
  9
$DIMPOST
  1

  9
$DIMAPOST
  1

  9
$DIMALT
 70
     0
  9
$DIMALTD
 70
     2
  9
$DIMALTF
 40
25.399999999999999
  9
$DIMLFAC
 40
1.0
  9
$DIMTOFL
 70
     1
  9
$DIMTVP
 40
0.0
  9
$DIMTIX
 70
     1
  9
$DIMSOXD
 70
     0
  9
$DIMSAH
 70
     0
  9
$DIMBLK1
  1

  9
$DIMBLK2
  1

  9
$DIMSTYLE
  2
STANDARD
  9
$DIMCLRD
 70
     7
  9
$DIMCLRE
 70
     7
  9
$DIMCLRT
 70
     7
  9
$DIMTFAC
 40
1.0
  9
$DIMGAP
 40
25.0
  9
$LUNITS
 70
     2
  9
$LUPREC
 70
     4
  9
$SKETCHINC
 40
0.1
  9
$FILLETRAD
 40
3.0
  9
$AUNITS
 70
     1
  9
$AUPREC
 70
     3
  9
$MENU
  1
ACAD
  9
$ELEVATION
 40
0.0
  9
$PELEVATION
 40
0.0
  9
$THICKNESS
 40
0.0
  9
$LIMCHECK
 70
     0
  9
$CHAMFERA
 40
0.0
  9
$CHAMFERB
 40
0.0
  9
$SKPOLY
 70
     0
  9
$TDCREATE
 40
2453019.62301037
  9
$TDUPDATE
 40
2459025.610076759
  9
$TDINDWG
 40
1.7129789468
  9
$TDUSRTIMER
 40
1.7129789468
  9
$USRTIMER
 70
     1
  9
$ANGBASE
 50
0.0
  9
$ANGDIR
 70
     0
  9
$PDMODE
 70
     3
  9
$PDSIZE
 40
-2.0
  9
$PLINEWID
 40
0.0
  9
$SPLFRAME
 70
     0
  9
$SPLINETYPE
 70
     6
  9
$SPLINESEGS
 70
     8
  9
$SURFTAB1
 70
     6
  9
$SURFTAB2
 70
     6
  9
$SURFTYPE
 70
     6
  9
$SURFU
 70
     6
  9
$SURFV
 70
     6
  9
$UCSNAME
  2

  9
$UCSORG
 10
0.0
 20
0.0
 30
0.0
  9
$UCSXDIR
 10
1.0
 20
0.0
 30
0.0
  9
$UCSYDIR
 10
0.0
 20
1.0
 30
0.0
  9
$PUCSNAME
  2

  9
$PUCSORG
 10
0.0
 20
0.0
 30
0.0
  9
$PUCSXDIR
 10
1.0
 20
0.0
 30
0.0
  9
$PUCSYDIR
 10
0.0
 20
1.0
 30
0.0
  9
$USERI1
 70
     0
  9
$USERI2
 70
     0
  9
$USERI3
 70
     0
  9
$USERI4
 70
     0
  9
$USERI5
 70
     0
  9
$USERR1
 40
20.0
  9
$USERR2
 40
0.0
  9
$USERR3
 40
0.0
  9
$USERR4
 40
0.0
  9
$USERR5
 40
0.0
  9
$WORLDVIEW
 70
     1
  9
$SHADEDGE
 70
     3
  9
$SHADEDIF
 70
    70
  9
$TILEMODE
 70
     1
  9
$MAXACTVP
 70
    48
  9
$PINSBASE
 10
0.0
 20
0.0
 30
0.0
  9
$PLIMCHECK
 70
     0
  9
$PEXTMIN
 10
-100000000000000000000.0
 20
-100000000000000000000.0
 30
-100000000000000000000.0
  9
$PEXTMAX
 10
100000000000000000000.0
 20
100000000000000000000.0
 30
100000000000000000000.0
  9
$PLIMMIN
 10
0.0
 20
0.0
  9
$PLIMMAX
 10
12.0
 20
9.0
  9
$UNITMODE
 70
     0
  9
$VISRETAIN
 70
     0
  9
$PLINEGEN
 70
     0
  9
$PSLTSCALE
 70
     0
  9
$TREEDEPTH
 70
  3020
  9
$ATTDIA
 70
     0
  9
$ATTREQ
 70
     1
  9
$BLIPMODE
 70
     1
  9
$COORDS
 70
     1
  9
$DRAGMODE
 70
     2
  9
$OSMODE
 70
     0
  9
$HANDLING
 70
     0
  9
$HANDSEED
  5
ED5C
  0
ENDSEC
  0
SECTION
  2
TABLES
  0
TABLE
  2
LTYPE
 70
     3
  0
LTYPE
  2
CONTINUOUS
 70
     0
  3
実線
 72
    65
 73
     0
 40
0.0
  0
LTYPE
  2
DASHDOT
 70
     0
  3
____ _ ____ _ ____ _ ____ _ ____ _ ____ _ ____
 72
    65
 73
     4
 40
5.5
 49
4.0
 49
-0.6
 49
0.3
 49
-0.6
  0
LTYPE
  2
DASHED
 70
     0
  3
-- -- -- -- -- -- -- -- -- -- -- -- -- -- --
 72
    65
 73
     2
 40
0.75
 49
0.5
 49
-0.25
  0
ENDTAB
  0
TABLE
  2
LAYER
 70
    12
  0
LAYER
  2
0
 70
     0
 62
     7
  6
CONTINUOUS
  0
LAYER
  2
BASIS
 70
     0
 62
     6
  6
DASHDOT
  0
LAYER
  2
OUTLINE
 70
     0
 62
     3
  6
CONTINUOUS
  0
LAYER
  2
DETAIL
 70
     0
 62
     5
  6
CONTINUOUS
  0
LAYER
  2
SIZE
 70
     0
 62
    30
  6
CONTINUOUS
  0
LAYER
  2
ARRANGE
 70
     0
 62
     1
  6
CONTINUOUS
  0
LAYER
  2
DEFPOINTS
 70
     0
 62
     7
  6
CONTINUOUS
  0
LAYER
  2
ETC
 70
     0
 62
    61
  6
CONTINUOUS
  0
LAYER
  2
FIX
 70
     0
 62
    11
  6
CONTINUOUS
  0
LAYER
  2
NOTE
 70
     0
 62
     4
  6
CONTINUOUS
  0
LAYER
  2
SERVICESPACE
 70
    64
 62
     2
  6
DASHDOT
  0
LAYER
  2
SYMBOLLINE
 70
    64
 62
    15
  6
CONTINUOUS
  0
ENDTAB
  0
TABLE
  2
STYLE
 70
     1
  0
STYLE
  2
STANDARD
 70
     0
 40
64.0
 41
0.9
 50
0.0
 71
     0
 42
64.0
  3
SIMPLEX.shx
  4
BIGFONT.shx
  0
ENDTAB
  0
TABLE
  2
APPID
 70
    19
  0
APPID
  2
ACAD
 70
     0
  0
APPID
  2
AUTOCAD_POSTSCRIPT_FIGURE
 70
     0
  0
APPID
  2
ACAD_EXEMPT_FROM_CAD_STANDARDS
 70
     0
  0
APPID
  2
ACAD_PSEXT
 70
     0
  0
APPID
  2
ACAUTHENVIRON
 70
     0
  0
APPID
  2
GENIUS_GENOENT_13
 70
     0
  0
APPID
  2
GENIUS_GENCFG_13
 70
     0
  0
APPID
  2
GENIUS_GENCFG0_13
 70
     0
  0
APPID
  2
GENIUS_GENCFG1_13
 70
     0
  0
APPID
  2
GENIUS_GENCFG2_13
 70
     0
  0
APPID
  2
GENIUS_GENCFG3_13
 70
     0
  0
APPID
  2
GENIUS_GENCFG4_13
 70
     0
  0
APPID
  2
GENIUS_GEVCFG0_13
 70
     0
  0
APPID
  2
CONTENTBLOCKICON
 70
     0
  0
APPID
  2
CONTENTBLOCKDESCRIPTION
 70
     0
  0
APPID
  2
ACAD_NAV_VCDISPLAY
 70
     0
  0
APPID
  2
ACAD_MLEADERVER
 70
     0
  0
APPID
  2
ACDBDYNAMICBLOCKTRUENAME
 70
     0
  0
APPID
  2
ACDBDYNAMICBLOCKGUID
 70
     0
  0
ENDTAB
  0
TABLE
  2
DIMSTYLE
 70
     1
  0
DIMSTYLE
  2
STANDARD
 70
     0
  3

  4

  5
_ORIGIN
  6

  7

 40
1.0
 41
12.0
 42
20.0
 43
200.0
 44
20.0
 45
0.0
 46
0.0
 47
0.0
 48
0.0
140
64.0
141
0.09
142
0.0
143
25.399999999999999
144
1.0
145
0.0
146
1.0
147
25.0
 71
     0
 72
     0
 73
     0
 74
     0
 75
     0
 76
     0
 77
     1
 78
     8
170
     0
171
     2
172
     1
173
     0
174
     1
175
     0
176
     7
177
     7
178
     7
  0
ENDTAB
  0
TABLE
  2
VIEW
 70
     1
  0
VIEW
  2
ALL
 70
     0
 40
4282.6198079999986
 10
0.0
 20
41.309904000000003
 41
5940.0
 11
0.0
 21
0.0
 31
1.0
 12
0.0
 22
0.0
 32
0.0
 42
50.0
 43
0.0
 44
0.0
 50
0.0
 71
     0
  0
ENDTAB
  0
TABLE
  2
UCS
 70
     0
  0
ENDTAB
  0
TABLE
  2
VPORT
 70
     1
  0
VPORT
  2
*ACTIVE
 70
     0
 10
0.0
 20
0.0
 11
1.0
 21
1.0
 12
317.00364579097732
 22
56.396494219540727
 13
0.0
 23
0.0
 14
1.0
 24
1.0
 15
0.0
 25
0.0
 16
0.0
 26
0.0
 36
1.0
 17
0.0
 27
0.0
 37
0.0
 40
1530.8650032807959
 41
1.747787610619469
 42
50.0
 43
0.0
 44
0.0
 50
0.0
 51
0.0
 71
     0
 72
  1000
 73
     1
 74
     3
 75
     0
 76
     0
 77
     0
 78
     0
  0
ENDTAB
  0
ENDSEC
  0
SECTION
  2
BLOCKS
  0
BLOCK
  8
0
  2
_ORIGIN
 70
     0
 10
0.0
 20
0.0
 30
0.0
  3
_ORIGIN
  1
_ORIGIN
  0
CIRCLE
  8
0
  6
CONTINUOUS
 62
     7
 10
0.0
 20
0.0
 30
0.0
 40
0.5
  0
LINE
  8
0
  6
CONTINUOUS
 62
     7
 10
0.0
 20
0.0
 30
0.0
 11
-1.0
 21
0.0
 31
0.0
  0
ENDBLK
  8
0
  0
ENDSEC
  0
SECTION
  2
ENTITIES
  0
LINE
  8
BASIS
  6
DASHDOT
 62
     6
 10
161.63880943002729
 20
0.0
 30
0.0
 11
-189.10961910885271
 21
0.0
 31
0.0
  0
LINE
  8
DETAIL
  6
CONTINUOUS
 62
     5
 10
-151.5
 20
165.55882299999999
 30
0.0
 11
-151.5
 21
200.5
 31
0.0
  0
LINE
  8
DETAIL
  6
CONTINUOUS
 62
     5
 10
-151.5
 20
-51.018636000000008
 30
0.0
 11
-151.5
 21
165.55882299999999
 31
0.0
  0
LINE
  8
DETAIL
  6
CONTINUOUS
 62
     5
 10
134.38235799999981
 20
166.97058799999999
 30
0.0
 11
145.32353400000011
 21
166.97058799999999
 31
0.0
  0
ARC
  8
DETAIL
  6
CONTINUOUS
 62
     5
 10
145.32353400000011
 20
165.55882299999999
 30
0.0
 40
1.411764999999999
 50
0.0
 51
90.0
  0
ARC
  8
DETAIL
  6
CONTINUOUS
 62
     5
 10
145.32353400000011
 20
165.55882299999999
 30
0.0
 40
3.1764709999999989
 50
0.0
 51
90.0
  0
LINE
  8
DETAIL
  6
CONTINUOUS
 62
     5
 10
145.32353400000011
 20
168.7352940000001
 30
0.0
 11
145.32353400000011
 21
170.5
 31
0.0
  0
LINE
  8
DETAIL
  6
CONTINUOUS
 62
     5
 10
148.5000049999999
 20
-124.55882799999991
 30
0.0
 11
148.5000049999999
 21
165.55882299999999
 31
0.0
  0
LINE
  8
DETAIL
  6
CONTINUOUS
 62
     5
 10
146.73529899999991
 20
-124.55882799999991
 30
0.0
 11
146.73529899999991
 21
165.55882299999999
 31
0.0
  0
LINE
  8
DETAIL
  6
CONTINUOUS
 62
     5
 10
145.32353400000011
 20
-127.7352989999999
 30
0.0
 11
145.32353400000011
 21
-129.50000499999999
 31
0.0
  0
LINE
  8
DETAIL
  6
CONTINUOUS
 62
     5
 10
134.38235799999981
 20
-125.97059299999999
 30
0.0
 11
145.32353400000011
 21
-125.97059299999999
 31
0.0
  0
ARC
  8
DETAIL
  6
CONTINUOUS
 62
     5
 10
145.32353400000011
 20
-124.55882799999991
 30
0.0
 40
1.411764999999999
 50
270.0
 51
0.0
  0
ARC
  8
DETAIL
  6
CONTINUOUS
 62
     5
 10
145.32353400000011
 20
-124.55882799999991
 30
0.0
 40
3.1764709999999989
 50
270.0
 51
0.0
  0
LINE
  8
DETAIL
  6
CONTINUOUS
 62
     5
 10
145.32353400000011
 20
-129.50000499999999
 30
0.0
 11
-1.5
 21
-129.50000499999999
 31
0.0
  0
LINE
  8
DETAIL
  6
CONTINUOUS
 62
     5
 10
145.32353400000011
 20
-127.7352989999999
 30
0.0
 11
-1.5
 21
-127.7352989999999
 31
0.0
  0
LINE
  8
DETAIL
  6
CONTINUOUS
 62
     5
 10
-151.5
 20
-124.55882799999991
 30
0.0
 11
-151.5
 21
-52.463420000000042
 31
0.0
  0
LINE
  8
DETAIL
  6
CONTINUOUS
 62
     5
 10
-149.7352940000001
 20
-124.55882799999991
 30
0.0
 11
-149.7352940000001
 21
-52.584529999999972
 31
0.0
  0
LINE
  8
DETAIL
  6
CONTINUOUS
 62
     5
 10
-137.38235299999999
 20
-125.97059299999999
 30
0.0
 11
-148.32352900000021
 21
-125.97059299999999
 31
0.0
  0
LINE
  8
DETAIL
  6
CONTINUOUS
 62
     5
 10
-148.32352900000021
 20
-127.7352989999999
 30
0.0
 11
-148.32352900000021
 21
-129.50000499999999
 31
0.0
  0
ARC
  8
DETAIL
  6
CONTINUOUS
 62
     5
 10
-148.32352900000021
 20
-124.55882799999991
 30
0.0
 40
3.1764709999999989
 50
180.0
 51
270.0
  0
ARC
  8
DETAIL
  6
CONTINUOUS
 62
     5
 10
-148.32352900000021
 20
-124.55882799999991
 30
0.0
 40
1.411764999999999
 50
180.0
 51
270.0
  0
LINE
  8
DETAIL
  6
CONTINUOUS
 62
     5
 10
-137.38235299999999
 20
166.97058799999999
 30
0.0
 11
-148.32352900000021
 21
166.97058799999999
 31
0.0
  0
LINE
  8
DETAIL
  6
CONTINUOUS
 62
     5
 10
-148.32352900000021
 20
170.5
 30
0.0
 11
145.32353400000011
 21
170.5
 31
0.0
  0
LINE
  8
DETAIL
  6
CONTINUOUS
 62
     5
 10
-148.32352900000021
 20
168.7352940000001
 30
0.0
 11
145.32353400000011
 21
168.7352940000001
 31
0.0
  0
LINE
  8
DETAIL
  6
CONTINUOUS
 62
     5
 10
-148.32352900000021
 20
168.7352940000001
 30
0.0
 11
-148.32352900000021
 21
170.5
 31
0.0
  0
ARC
  8
DETAIL
  6
CONTINUOUS
 62
     5
 10
-148.32352900000021
 20
165.55882299999999
 30
0.0
 40
3.1764709999999989
 50
90.0
 51
180.0
  0
ARC
  8
DETAIL
  6
CONTINUOUS
 62
     5
 10
-148.32352900000021
 20
165.55882299999999
 30
0.0
 40
1.411764999999999
 50
90.0
 51
180.0
  0
LINE
  8
DETAIL
  6
CONTINUOUS
 62
     5
 10
-149.7352940000001
 20
-52.584529999999972
 30
0.0
 11
-149.7352940000001
 21
165.55882299999999
 31
0.0
  0
LINE
  8
DETAIL
  6
CONTINUOUS
 62
     5
 10
-151.5
 20
-52.463420000000042
 30
0.0
 11
-151.5
 21
165.55882299999999
 31
0.0
  0
LINE
  8
DETAIL
  6
CONTINUOUS
 62
     5
 10
134.38235799999981
 20
168.7352940000001
 30
0.0
 11
134.38235799999981
 21
166.97058799999999
 31
0.0
  0
LINE
  8
DETAIL
  6
CONTINUOUS
 62
     5
 10
-137.38235299999999
 20
168.7352940000001
 30
0.0
 11
-137.38235299999999
 21
166.97058799999999
 31
0.0
  0
LINE
  8
DETAIL
  6
CONTINUOUS
 62
     5
 10
-137.38235299999999
 20
-127.7352989999999
 30
0.0
 11
-137.38235299999999
 21
-125.97059299999999
 31
0.0
  0
LINE
  8
DETAIL
  6
CONTINUOUS
 62
     5
 10
134.38235799999981
 20
-127.7352989999999
 30
0.0
 11
134.38235799999981
 21
-125.97059299999999
 31
0.0
  0
LINE
  8
BASIS
  6
DASHDOT
 62
     6
 10
-204.77114599999999
 20
85.5
 30
0.0
 11
-132.23673899999989
 21
85.5
 31
0.0
  0
LINE
  8
BASIS
  6
DASHDOT
 62
     6
 10
0.0
 20
-164.66188325673329
 30
0.0
 11
0.0
 21
214.3148541447772
 31
0.0
  0
LINE
  8
DETAIL
  6
CONTINUOUS
 62
     5
 10
-1.5
 20
-129.50000499999999
 30
0.0
 11
-148.32352900000021
 21
-129.50000499999999
 31
0.0
  0
LINE
  8
DETAIL
  6
CONTINUOUS
 62
     5
 10
-1.5
 20
-127.7352989999999
 30
0.0
 11
-148.32352900000021
 21
-127.7352989999999
 31
0.0
  0
LINE
  8
OUTLINE
  6
CONTINUOUS
 62
     3
 10
-148.32352900000021
 20
168.7352940000001
 30
0.0
 11
-148.32352900000021
 21
170.5
 31
0.0
  0
LINE
  8
OUTLINE
  6
CONTINUOUS
 62
     3
 10
-148.32352900000021
 20
-127.7352989999999
 30
0.0
 11
-148.32352900000021
 21
-129.50000499999999
 31
0.0
  0
ARC
  8
OUTLINE
  6
CONTINUOUS
 62
     3
 10
-148.32352900000021
 20
-124.55882799999991
 30
0.0
 40
3.1764709999999989
 50
180.0
 51
270.0
  0
LINE
  8
OUTLINE
  6
CONTINUOUS
 62
     3
 10
145.32353400000011
 20
-127.7352989999999
 30
0.0
 11
145.32353400000011
 21
-129.50000499999999
 31
0.0
  0
LINE
  8
OUTLINE
  6
CONTINUOUS
 62
     3
 10
145.32353400000011
 20
168.7352940000001
 30
0.0
 11
145.32353400000011
 21
170.5
 31
0.0
  0
ARC
  8
OUTLINE
  6
CONTINUOUS
 62
     3
 10
145.32353400000011
 20
165.55882299999999
 30
0.0
 40
3.1764709999999989
 50
0.0
 51
90.0
  0
LINE
  8
OUTLINE
  6
CONTINUOUS
 62
     3
 10
148.5000049999999
 20
-124.55882799999991
 30
0.0
 11
148.5000049999999
 21
165.55882299999999
 31
0.0
  0
ARC
  8
OUTLINE
  6
CONTINUOUS
 62
     3
 10
145.32353400000011
 20
-124.55882799999991
 30
0.0
 40
3.1764709999999989
 50
270.0
 51
0.0
  0
LINE
  8
OUTLINE
  6
CONTINUOUS
 62
     3
 10
145.32353400000011
 20
-129.50000499999999
 30
0.0
 11
-148.32352900000021
 21
-129.50000499999999
 31
0.0
  0
LINE
  8
OUTLINE
  6
CONTINUOUS
 62
     3
 10
-151.5
 20
-124.55882799999991
 30
0.0
 11
-151.5
 21
-52.463420000000042
 31
0.0
  0
LINE
  8
OUTLINE
  6
CONTINUOUS
 62
     3
 10
-151.5
 20
-52.463420000000042
 30
0.0
 11
-151.5
 21
-29.5
 31
0.0
  0
ARC
  8
OUTLINE
  6
CONTINUOUS
 62
     3
 10
-148.32352900000021
 20
165.55882299999999
 30
0.0
 40
3.1764709999999989
 50
90.0
 51
180.0
  0
LINE
  8
OUTLINE
  6
CONTINUOUS
 62
     3
 10
-151.5
 20
165.55882299999999
 30
0.0
 11
-151.5
 21
200.5
 31
0.0
  0
LINE
  8
OUTLINE
  6
CONTINUOUS
 62
     3
 10
-148.32352900000021
 20
170.5
 30
0.0
 11
145.32353400000011
 21
170.5
 31
0.0
  0
CIRCLE
  8
DETAIL
  6
CONTINUOUS
 62
     5
 10
0.0
 20
0.0
 30
0.0
 40
78.5
  0
LINE
  8
DETAIL
  6
CONTINUOUS
 62
     5
 10
-152.30000000000021
 20
141.38235299999999
 30
0.0
 11
-152.30000000000021
 21
200.5
 31
0.0
  0
LINE
  8
DETAIL
  6
CONTINUOUS
 62
     5
 10
-151.5
 20
200.5
 30
0.0
 11
-152.30000000000021
 21
200.5
 31
0.0
  0
LINE
  8
DETAIL
  6
CONTINUOUS
 62
     5
 10
-152.30000000000021
 20
-29.5
 30
0.0
 11
-152.30000000000021
 21
141.38235299999999
 31
0.0
  0
LINE
  8
DETAIL
  6
CONTINUOUS
 62
     5
 10
-151.5
 20
-29.5
 30
0.0
 11
-152.30000000000021
 21
-29.5
 31
0.0
  0
LINE
  8
NOTE
  6
CONTINUOUS
 62
     4
 10
-121.4999950000001
 20
146.97058000000001
 30
0.0
 11
-121.4999950000001
 21
194.02941999999999
 31
0.0
  0
LINE
  8
NOTE
  6
CONTINUOUS
 62
     4
 10
-145.029415
 20
170.5
 30
0.0
 11
-97.970574999999826
 21
170.5
 31
0.0
  0
LINE
  8
NOTE
  6
CONTINUOUS
 62
     4
 10
118.5000049999999
 20
146.97058000000001
 30
0.0
 11
118.5000049999999
 21
194.02941999999999
 31
0.0
  0
LINE
  8
NOTE
  6
CONTINUOUS
 62
     4
 10
142.02942499999969
 20
170.5
 30
0.0
 11
94.970585000000028
 21
170.5
 31
0.0
  0
LINE
  8
NOTE
  6
CONTINUOUS
 62
     4
 10
-121.4999950000001
 20
-105.97058
 30
0.0
 11
-121.4999950000001
 21
-153.02941999999999
 31
0.0
  0
LINE
  8
NOTE
  6
CONTINUOUS
 62
     4
 10
-145.029415
 20
-129.5
 30
0.0
 11
-97.970574999999826
 21
-129.5
 31
0.0
  0
LINE
  8
NOTE
  6
CONTINUOUS
 62
     4
 10
118.5000049999999
 20
-105.97058
 30
0.0
 11
118.5000049999999
 21
-153.02941999999999
 31
0.0
  0
LINE
  8
NOTE
  6
CONTINUOUS
 62
     4
 10
142.02942499999969
 20
-129.5
 30
0.0
 11
94.970585000000028
 21
-129.5
 31
0.0
  0
LINE
  8
NOTE
  6
CONTINUOUS
 62
     4
 10
148.5000049999999
 20
116.97058
 30
0.0
 11
148.5000049999999
 21
164.02941999999999
 31
0.0
  0
LINE
  8
NOTE
  6
CONTINUOUS
 62
     4
 10
172.02942499999969
 20
140.5
 30
0.0
 11
124.970585
 21
140.5
 31
0.0
  0
LINE
  8
NOTE
  6
CONTINUOUS
 62
     4
 10
148.5000049999999
 20
-75.970580000000041
 30
0.0
 11
148.5000049999999
 21
-123.02942
 31
0.0
  0
LINE
  8
NOTE
  6
CONTINUOUS
 62
     4
 10
172.02942499999969
 20
-99.5
 30
0.0
 11
124.970585
 21
-99.5
 31
0.0
  0
LINE
  8
NOTE
  6
CONTINUOUS
 62
     4
 10
337.60332199999988
 20
-309.00194599999998
 30
0.0
 11
828.38423499999999
 21
-309.00194599999998
 31
0.0
  0
LINE
  8
SIZE
  6
CONTINUOUS
 62
    30
 10
118.5000049999999
 20
-173.02941200000001
 30
0.0
 11
118.5000049999999
 21
-573.75017200000002
 31
0.0
  0
LINE
  8
SIZE
  6
CONTINUOUS
 62
    30
 10
-121.4999950000001
 20
-173.02941200000001
 30
0.0
 11
-121.4999950000001
 21
-573.75017200000002
 31
0.0
  0
LINE
  8
SIZE
  6
CONTINUOUS
 62
    30
 10
106.5000049999999
 20
-553.75017199999979
 30
0.0
 11
-109.4999950000001
 21
-553.75017199999979
 31
0.0
  0
TEXT
  8
SIZE
  6
CONTINUOUS
 62
    30
 10
-75.557137857142976
 20
-528.80745999999988
 30
0.0
 40
64.0
  1
240
 41
0.9
 72
     1
 11
-1.4999950000001261
 21
-528.80745999999988
 31
0.0
  0
CIRCLE
  8
SIZE
  6
CONTINUOUS
 62
    30
 10
118.5000049999999
 20
-553.75017199999979
 30
0.0
 40
6.0
  0
LINE
  8
SIZE
  6
CONTINUOUS
 62
    30
 10
118.5000049999999
 20
-553.75017199999979
 30
0.0
 11
106.5000049999999
 21
-553.75017199999979
 31
0.0
  0
CIRCLE
  8
SIZE
  6
CONTINUOUS
 62
    30
 10
-121.4999950000001
 20
-553.75017199999979
 30
0.0
 40
6.0
  0
LINE
  8
SIZE
  6
CONTINUOUS
 62
    30
 10
-121.4999950000001
 20
-553.75017199999979
 30
0.0
 11
-109.4999950000001
 21
-553.75017199999979
 31
0.0
  0
LINE
  8
SIZE
  6
CONTINUOUS
 62
    30
 10
148.5000049999999
 20
-143.02941200000001
 30
0.0
 11
148.5000049999999
 21
-703.742119
 31
0.0
  0
LINE
  8
SIZE
  6
CONTINUOUS
 62
    30
 10
-151.5
 20
-144.55882799999989
 30
0.0
 11
-151.5
 21
-703.742119
 31
0.0
  0
LINE
  8
SIZE
  6
CONTINUOUS
 62
    30
 10
136.5000049999999
 20
-683.74211899999989
 30
0.0
 11
-139.5
 21
-683.74211899999989
 31
0.0
  0
TEXT
  8
SIZE
  6
CONTINUOUS
 62
    30
 10
-75.557139857142744
 20
-659.00517499999989
 30
0.0
 40
64.0
  1
300
 41
0.9
 72
     1
 11
-1.4999969999998941
 21
-659.00517499999989
 31
0.0
  0
CIRCLE
  8
SIZE
  6
CONTINUOUS
 62
    30
 10
148.5000049999999
 20
-683.74211899999989
 30
0.0
 40
6.0
  0
LINE
  8
SIZE
  6
CONTINUOUS
 62
    30
 10
148.5000049999999
 20
-683.74211899999989
 30
0.0
 11
136.5000049999999
 21
-683.74211899999989
 31
0.0
  0
CIRCLE
  8
SIZE
  6
CONTINUOUS
 62
    30
 10
-151.5
 20
-683.74211899999989
 30
0.0
 40
6.0
  0
LINE
  8
SIZE
  6
CONTINUOUS
 62
    30
 10
-151.5
 20
-683.74211899999989
 30
0.0
 11
-139.5
 21
-683.74211899999989
 31
0.0
  0
LINE
  8
SIZE
  6
CONTINUOUS
 62
    30
 10
162.02941699999971
 20
170.5
 30
0.0
 11
674.72790201836142
 21
170.5
 31
0.0
  0
LINE
  8
SIZE
  6
CONTINUOUS
 62
    30
 10
181.68009811024601
 20
0.0
 30
0.0
 11
674.72790201836142
 21
0.0
 31
0.0
  0
LINE
  8
SIZE
  6
CONTINUOUS
 62
    30
 10
654.72790201836142
 20
158.5
 30
0.0
 11
654.72790201836142
 21
12.0
 31
0.0
  0
LINE
  8
SIZE
  6
CONTINUOUS
 62
    30
 10
654.72790201836142
 20
477.95092199999999
 30
0.0
 11
654.72790201836142
 21
170.5
 31
0.0
  0
TEXT
  8
SIZE
  6
CONTINUOUS
 62
    30
 10
629.72790201836142
 20
233.52235128571431
 30
0.0
 40
64.0
  1
170.5
 50
90.0
 41
0.9
 72
     1
 11
629.72790201836142
 21
343.23663699999997
 31
0.0
  0
CIRCLE
  8
SIZE
  6
CONTINUOUS
 62
    30
 10
654.72790201836142
 20
170.5
 30
0.0
 40
6.0
  0
LINE
  8
SIZE
  6
CONTINUOUS
 62
    30
 10
654.72790201836142
 20
170.5
 30
0.0
 11
654.72790201836142
 21
158.5
 31
0.0
  0
CIRCLE
  8
SIZE
  6
CONTINUOUS
 62
    30
 10
654.72790201836142
 20
0.0
 30
0.0
 40
6.0
  0
LINE
  8
SIZE
  6
CONTINUOUS
 62
    30
 10
654.72790201836142
 20
0.0
 30
0.0
 11
654.72790201836142
 21
12.0
 31
0.0
  0
LINE
  8
SIZE
  6
CONTINUOUS
 62
    30
 10
192.02941699999971
 20
140.5
 30
0.0
 11
787.7019010183617
 21
140.5
 31
0.0
  0
LINE
  8
SIZE
  6
CONTINUOUS
 62
    30
 10
192.02941699999971
 20
-99.5
 30
0.0
 11
787.7019010183617
 21
-99.5
 31
0.0
  0
LINE
  8
SIZE
  6
CONTINUOUS
 62
    30
 10
767.7019010183617
 20
128.5
 30
0.0
 11
767.7019010183617
 21
-87.5
 31
0.0
  0
TEXT
  8
SIZE
  6
CONTINUOUS
 62
    30
 10
744.18602701836153
 20
-53.55714285714285
 30
0.0
 40
64.0
  1
240
 50
90.0
 41
0.9
 72
     1
 11
744.18602701836153
 21
20.5
 31
0.0
  0
CIRCLE
  8
SIZE
  6
CONTINUOUS
 62
    30
 10
767.7019010183617
 20
140.5
 30
0.0
 40
6.0
  0
LINE
  8
SIZE
  6
CONTINUOUS
 62
    30
 10
767.7019010183617
 20
140.5
 30
0.0
 11
767.7019010183617
 21
128.5
 31
0.0
  0
CIRCLE
  8
SIZE
  6
CONTINUOUS
 62
    30
 10
767.7019010183617
 20
-99.5
 30
0.0
 40
6.0
  0
LINE
  8
SIZE
  6
CONTINUOUS
 62
    30
 10
767.7019010183617
 20
-99.5
 30
0.0
 11
767.7019010183617
 21
-87.5
 31
0.0
  0
LINE
  8
SIZE
  6
CONTINUOUS
 62
    30
 10
165.32353400000011
 20
170.5
 30
0.0
 11
903.29141901836147
 21
170.5
 31
0.0
  0
LINE
  8
SIZE
  6
CONTINUOUS
 62
    30
 10
165.32353400000011
 20
-129.50000499999999
 30
0.0
 11
903.29141901836147
 21
-129.50000499999999
 31
0.0
  0
LINE
  8
SIZE
  6
CONTINUOUS
 62
    30
 10
883.29141901836147
 20
158.5
 30
0.0
 11
883.29141901836147
 21
-117.500005
 31
0.0
  0
TEXT
  8
SIZE
  6
CONTINUOUS
 62
    30
 10
859.43819301836174
 20
-53.557144857142838
 30
0.0
 40
64.0
  1
300
 50
90.0
 41
0.9
 72
     1
 11
859.43819301836174
 21
20.499998000000009
 31
0.0
  0
CIRCLE
  8
SIZE
  6
CONTINUOUS
 62
    30
 10
883.29141901836147
 20
170.5
 30
0.0
 40
6.0
  0
LINE
  8
SIZE
  6
CONTINUOUS
 62
    30
 10
883.29141901836147
 20
170.5
 30
0.0
 11
883.29141901836147
 21
158.5
 31
0.0
  0
CIRCLE
  8
SIZE
  6
CONTINUOUS
 62
    30
 10
883.29141901836147
 20
-129.50000499999999
 30
0.0
 40
6.0
  0
LINE
  8
SIZE
  6
CONTINUOUS
 62
    30
 10
883.29141901836147
 20
-129.50000499999999
 30
0.0
 11
883.29141901836147
 21
-117.500005
 31
0.0
  0
LINE
  8
SIZE
  6
CONTINUOUS
 62
    30
 10
-171.5
 20
200.5
 30
0.0
 11
-520.26050899999996
 21
200.5
 31
0.0
  0
LINE
  8
SIZE
  6
CONTINUOUS
 62
    30
 10
-173.5
 20
-29.5
 30
0.0
 11
-520.26050899999996
 21
-29.5
 31
0.0
  0
LINE
  8
SIZE
  6
CONTINUOUS
 62
    30
 10
-500.26050900000001
 20
188.5
 30
0.0
 11
-500.26050900000001
 21
-17.5
 31
0.0
  0
TEXT
  8
SIZE
  6
CONTINUOUS
 62
    30
 10
-525.8036810000001
 20
-38.957915857142893
 30
0.0
 40
64.0
  1
φ230
 50
90.0
 41
0.9
 72
     1
 11
-525.8036810000001
 21
75.419226999999978
 31
0.0
  0
CIRCLE
  8
SIZE
  6
CONTINUOUS
 62
    30
 10
-500.26050900000001
 20
200.5
 30
0.0
 40
6.0
  0
LINE
  8
SIZE
  6
CONTINUOUS
 62
    30
 10
-500.26050900000001
 20
200.5
 30
0.0
 11
-500.26050900000001
 21
188.5
 31
0.0
  0
CIRCLE
  8
SIZE
  6
CONTINUOUS
 62
    30
 10
-500.26050900000001
 20
-29.5
 30
0.0
 40
6.0
  0
LINE
  8
SIZE
  6
CONTINUOUS
 62
    30
 10
-500.26050900000001
 20
-29.5
 30
0.0
 11
-500.26050900000001
 21
-17.5
 31
0.0
  0
LINE
  8
SIZE
  6
CONTINUOUS
 62
    30
 10
-167.12352899999999
 20
170.5
 30
0.0
 11
-409.73906799999992
 21
170.5
 31
0.0
  0
LINE
  8
SIZE
  6
CONTINUOUS
 62
    30
 10
-224.77114599999999
 20
85.5
 30
0.0
 11
-409.73906799999992
 21
85.5
 31
0.0
  0
LINE
  8
SIZE
  6
CONTINUOUS
 62
    30
 10
-389.73906799999992
 20
158.5
 30
0.0
 11
-389.73906799999992
 21
97.5
 31
0.0
  0
LINE
  8
SIZE
  6
CONTINUOUS
 62
    30
 10
-389.73906799999992
 20
364.12389999999999
 30
0.0
 11
-389.73906799999992
 21
170.5
 31
0.0
  0
TEXT
  8
SIZE
  6
CONTINUOUS
 62
    30
 10
-414.73906799999992
 20
245.86675757142859
 30
0.0
 40
64.0
  1
85
 50
90.0
 41
0.9
 72
     1
 11
-414.73906799999992
 21
292.49532900000008
 31
0.0
  0
CIRCLE
  8
SIZE
  6
CONTINUOUS
 62
    30
 10
-389.73906799999992
 20
170.5
 30
0.0
 40
6.0
  0
LINE
  8
SIZE
  6
CONTINUOUS
 62
    30
 10
-389.73906799999992
 20
170.5
 30
0.0
 11
-389.73906799999992
 21
158.5
 31
0.0
  0
CIRCLE
  8
SIZE
  6
CONTINUOUS
 62
    30
 10
-389.73906799999992
 20
85.5
 30
0.0
 40
6.0
  0
LINE
  8
SIZE
  6
CONTINUOUS
 62
    30
 10
-389.73906799999992
 20
85.5
 30
0.0
 11
-389.73906799999992
 21
97.5
 31
0.0
  0
POINT
  8
ARRANGE
  6
CONTINUOUS
 62
     1
 10
0.0
 20
0.0
 30
0.0
  0
CIRCLE
  8
ARRANGE
  6
CONTINUOUS
 62
     1
 10
0.0
 20
0.0
 30
0.0
 40
40.0
  0
LINE
  8
NOTE
  6
CONTINUOUS
 62
     4
 10
118.5000049999999
 20
-129.50000499999999
 30
0.0
 11
337.60332199999988
 21
-309.00194599999998
 31
0.0
  0
LINE
  8
NOTE
  6
CONTINUOUS
 62
     4
 10
155.32359199999971
 20
-145.12125
 30
0.0
 11
118.5000049999999
 21
-129.5
 31
0.0
  0
LINE
  8
NOTE
  6
CONTINUOUS
 62
     4
 10
118.5000049999999
 20
-129.5
 30
0.0
 11
142.57954100000009
 21
-161.44019299999999
 31
0.0
  0
TEXT
  8
NOTE
  6
CONTINUOUS
 62
     4
 10
509.00014499999997
 20
-276.65024399999999
 30
0.0
 40
64.0
  1
12-φ16×10
 41
0.9
  0
CIRCLE
  8
FIX
  6
CONTINUOUS
 62
    11
 10
-121.4999950000001
 20
170.5
 30
0.0
 40
5.0
  0
CIRCLE
  8
FIX
  6
CONTINUOUS
 62
    11
 10
118.5000049999999
 20
170.5
 30
0.0
 40
5.0
  0
CIRCLE
  8
FIX
  6
CONTINUOUS
 62
    11
 10
118.5000049999999
 20
-129.5
 30
0.0
 40
5.0
  0
CIRCLE
  8
FIX
  6
CONTINUOUS
 62
    11
 10
-121.4999950000001
 20
-129.5
 30
0.0
 40
5.0
  0
CIRCLE
  8
FIX
  6
CONTINUOUS
 62
    11
 10
148.5000049999999
 20
140.5
 30
0.0
 40
5.0
  0
CIRCLE
  8
FIX
  6
CONTINUOUS
 62
    11
 10
148.5000049999999
 20
-99.5
 30
0.0
 40
5.0
  0
LINE
  8
BASIS
  6
DASHDOT
 62
     6
 10
161.64403784434131
 20
0.5
 30
0.0
 11
-130.69742600000021
 21
0.5
 31
0.0
  0
LINE
  8
BASIS
  6
DASHDOT
 62
     6
 10
-0.5
 20
-164.65722554907919
 30
0.0
 11
-0.5
 21
135.4764769999999
 31
0.0
  0
LINE
  8
SIZE
  6
CONTINUOUS
 62
    30
 10
0.0
 20
-184.66188325673329
 30
0.0
 11
0.0
 21
-436.84237599999989
 31
0.0
  0
LINE
  8
SIZE
  6
CONTINUOUS
 62
    30
 10
-151.5
 20
-144.55882799999989
 30
0.0
 11
-151.5
 21
-436.84237599999989
 31
0.0
  0
LINE
  8
SIZE
  6
CONTINUOUS
 62
    30
 10
-12.0
 20
-416.84237600000012
 30
0.0
 11
-139.5
 21
-416.84237600000012
 31
0.0
  0
LINE
  8
SIZE
  6
CONTINUOUS
 62
    30
 10
-447.40822500000007
 20
-416.84237600000012
 30
0.0
 11
-151.5
 21
-416.84237600000012
 31
0.0
  0
TEXT
  8
SIZE
  6
CONTINUOUS
 62
    30
 10
-422.40822542857143
 20
-391.84237599999989
 30
0.0
 40
64.0
  1
151.5
 41
0.9
 72
     1
 11
-318.17965400000003
 21
-391.84237599999989
 31
0.0
  0
CIRCLE
  8
SIZE
  6
CONTINUOUS
 62
    30
 10
0.0
 20
-416.84237600000012
 30
0.0
 40
6.0
  0
LINE
  8
SIZE
  6
CONTINUOUS
 62
    30
 10
0.0
 20
-416.84237600000012
 30
0.0
 11
-12.0
 21
-416.84237600000012
 31
0.0
  0
CIRCLE
  8
SIZE
  6
CONTINUOUS
 62
    30
 10
-151.5
 20
-416.84237600000012
 30
0.0
 40
6.0
  0
LINE
  8
SIZE
  6
CONTINUOUS
 62
    30
 10
-151.5
 20
-416.84237600000012
 30
0.0
 11
-139.5
 21
-416.84237600000012
 31
0.0
  0
TEXT
  8
NOTE
  6
CONTINUOUS
 62
     4
 10
351.11844800000023
 20
-276.65024399999999
 30
0.0
 40
64.0
  1
AH
 41
0.9
  0
TEXT
  8
NOTE
  6
CONTINUOUS
 62
     4
 10
-61.128205999999857
 20
126.830691
 30
0.0
 40
64.0
  1
入口
 41
0.9
  0
TEXT
  8
NOTE
  6
CONTINUOUS
 62
     4
 10
-350.5779849999999
 20
62.50764300000003
 30
0.0
 40
64.0
  1
出口
 41
0.9
  0
LINE
  8
NOTE
  6
CONTINUOUS
 62
     4
 10
828.38423499999999
 20
-309.00194599999998
 30
0.0
 11
1011.883005
 21
-309.00194599999998
 31
0.0
  0
LINE
  8
SIZE
  6
CONTINUOUS
 62
    30
 10
-151.5
 20
-144.55882799999989
 30
0.0
 11
-151.5
 21
-311.46865300000002
 31
0.0
  0
LINE
  8
SIZE
  6
CONTINUOUS
 62
    30
 10
-0.5
 20
-184.65722554907919
 30
0.0
 11
-0.5
 21
-311.46865300000002
 31
0.0
  0
LINE
  8
SIZE
  6
CONTINUOUS
 62
    30
 10
-139.5
 20
-291.46865300000002
 30
0.0
 11
-12.5
 21
-291.46865300000002
 31
0.0
  0
LINE
  8
SIZE
  6
CONTINUOUS
 62
    30
 10
-371.70282300000008
 20
-291.46865300000002
 30
0.0
 11
-151.5
 21
-291.46865300000002
 31
0.0
  0
TEXT
  8
SIZE
  6
CONTINUOUS
 62
    30
 10
-346.70282342857138
 20
-266.46865300000002
 30
0.0
 40
64.0
  1
151
 41
0.9
 72
     1
 11
-290.47425199999998
 21
-266.46865300000002
 31
0.0
  0
CIRCLE
  8
SIZE
  6
CONTINUOUS
 62
    30
 10
-151.5
 20
-291.46865300000002
 30
0.0
 40
6.0
  0
LINE
  8
SIZE
  6
CONTINUOUS
 62
    30
 10
-151.5
 20
-291.46865300000002
 30
0.0
 11
-139.5
 21
-291.46865300000002
 31
0.0
  0
CIRCLE
  8
SIZE
  6
CONTINUOUS
 62
    30
 10
-0.5
 20
-291.46865300000002
 30
0.0
 40
6.0
  0
LINE
  8
SIZE
  6
CONTINUOUS
 62
    30
 10
-0.5
 20
-291.46865300000002
 30
0.0
 11
-12.5
 21
-291.46865300000002
 31
0.0
  0
LINE
  8
SIZE
  6
CONTINUOUS
 62
    30
 10
165.32353400000011
 20
170.5
 30
0.0
 11
537.19428201836172
 21
170.5
 31
0.0
  0
LINE
  8
SIZE
  6
CONTINUOUS
 62
    30
 10
181.64403784434131
 20
0.5
 30
0.0
 11
537.19428201836172
 21
0.5
 31
0.0
  0
LINE
  8
SIZE
  6
CONTINUOUS
 62
    30
 10
517.19428201836172
 20
158.5
 30
0.0
 11
517.19428201836172
 21
12.5
 31
0.0
  0
LINE
  8
SIZE
  6
CONTINUOUS
 62
    30
 10
517.19428201836172
 20
402.66873099999998
 30
0.0
 11
517.19428201836172
 21
170.5
 31
0.0
  0
TEXT
  8
SIZE
  6
CONTINUOUS
 62
    30
 10
492.19428201836172
 20
240.52587342857149
 30
0.0
 40
64.0
  1
170
 50
90.0
 41
0.9
 72
     1
 11
492.19428201836172
 21
309.09730200000001
 31
0.0
  0
CIRCLE
  8
SIZE
  6
CONTINUOUS
 62
    30
 10
517.19428201836172
 20
170.5
 30
0.0
 40
6.0
  0
LINE
  8
SIZE
  6
CONTINUOUS
 62
    30
 10
517.19428201836172
 20
170.5
 30
0.0
 11
517.19428201836172
 21
158.5
 31
0.0
  0
CIRCLE
  8
SIZE
  6
CONTINUOUS
 62
    30
 10
517.19428201836172
 20
0.5
 30
0.0
 40
6.0
  0
LINE
  8
SIZE
  6
CONTINUOUS
 62
    30
 10
517.19428201836172
 20
0.5
 30
0.0
 11
517.19428201836172
 21
12.5
 31
0.0
  0
TEXT
  8
ETC
  6
CONTINUOUS
 62
    61
 10
735.15561328254262
 20
641.25738183810313
 30
0.0
 40
64.0
  1
産業扇
 41
0.9
  0
TEXT
  8
ETC
  6
CONTINUOUS
 62
    61
 10
730.3233452825425
 20
752.60201183810295
 30
0.0
 40
64.0
  1
BF-17S5_4
 41
0.9
  0
TEXT
  8
ETC
  6
CONTINUOUS
 62
    61
 10
819.01955539009077
 20
531.40358061174402
 30
0.0
 40
64.0
  1
BF-17S5
 41
0.9
  0
TEXT
  8
ETC
  6
CONTINUOUS
 62
    61
 10
819.01955539009077
 20
428.47155319188801
 30
0.0
 40
64.0
  1
BF-17T5
 41
0.9
  0
LINE
  8
OUTLINE
  6
CONTINUOUS
 62
     3
 10
-151.5
 20
200.5
 30
0.0
 11
-152.30000000000021
 21
200.5
 31
0.0
  0
LINE
  8
OUTLINE
  6
CONTINUOUS
 62
     3
 10
-152.30000000000021
 20
-29.5
 30
0.0
 11
-152.30000000000021
 21
200.5
 31
0.0
  0
LINE
  8
OUTLINE
  6
CONTINUOUS
 62
     3
 10
-151.5
 20
-29.5
 30
0.0
 11
-152.30000000000021
 21
-29.5
 31
0.0
  0
CIRCLE
  8
SIZE
  6
DASHED
 62
    30
 10
-0.5
 20
0.5
 30
0.0
 40
110.0
  0
CIRCLE
  8
FIX
  6
CONTINUOUS
 62
    11
 10
22.370285989953569
 20
108.0962360807187
 30
0.0
 40
1.6000000000000001
  0
LINE
  8
NOTE
  6
CONTINUOUS
 62
     4
 10
22.370285989953569
 20
98.096236080718654
 30
0.0
 11
22.370285989953569
 21
118.0962360807187
 31
0.0
  0
LINE
  8
NOTE
  6
CONTINUOUS
 62
     4
 10
12.370285989953571
 20
108.0962360807187
 30
0.0
 11
32.370285989953572
 21
108.0962360807187
 31
0.0
  0
LINE
  8
SIZE
  6
CONTINUOUS
 62
    30
 10
26.52851980630885
 20
127.6591880953947
 30
0.0
 11
71.178508737026277
 21
337.72087040672892
 31
0.0
  0
LINE
  8
SIZE
  6
CONTINUOUS
 62
    30
 10
-0.5
 20
155.4764769999999
 30
0.0
 11
-0.5
 21
345.25458525251838
 31
0.0
  0
ARC
  8
SIZE
  6
CONTINUOUS
 62
    30
 10
-0.5
 20
0.5
 30
0.0
 40
324.75458525251832
 50
80.117255633953093
 51
87.882744366042488
  0
CIRCLE
  8
SIZE
  6
CONTINUOUS
 62
    30
 10
67.020274920671
 20
318.15791839205281
 30
0.0
 40
6.0
  0
LINE
  8
SIZE
  6
CONTINUOUS
 62
    30
 10
67.020274920671
 20
318.15791839205281
 30
0.0
 11
55.238411946428641
 21
320.43557175816733
 31
0.0
  0
CIRCLE
  8
SIZE
  6
CONTINUOUS
 62
    30
 10
-0.5
 20
325.25458525251821
 30
0.0
 40
6.0
  0
LINE
  8
SIZE
  6
CONTINUOUS
 62
    30
 10
-0.5
 20
325.25458525251821
 30
0.0
 11
11.497951762875349
 21
325.03287937592842
 31
0.0
  0
TEXT
  8
SIZE
  6
CONTINUOUS
 62
    30
 10
-18.497320371512782
 20
354.07272588119008
 30
0.0
 40
64.0
  1
12°
 50
354.0
 41
0.9
 72
     1
 11
36.059309317261068
 21
348.33859303907889
 31
0.0
  0
POINT
  8
DEFPOINTS
  6
CONTINUOUS
 62
    30
 10
44.697102680593161
 20
322.09409595298081
 30
0.0
  0
POINT
  8
DEFPOINTS
  6
CONTINUOUS
 62
    30
 10
-0.5
 20
0.5
 30
0.0
  0
POINT
  8
DEFPOINTS
  6
CONTINUOUS
 62
    30
 10
-0.5
 20
-164.65722554907919
 30
0.0
  0
POINT
  8
DEFPOINTS
  6
CONTINUOUS
 62
    30
 10
-0.5
 20
135.4764769999999
 30
0.0
  0
POINT
  8
DEFPOINTS
  6
CONTINUOUS
 62
    30
 10
22.370285989953569
 20
108.0962360807187
 30
0.0
  0
CIRCLE
  8
FIX
  6
CONTINUOUS
 62
    11
 10
99.193856574031543
 20
-45.988008791477107
 30
0.0
 40
1.6000000000000001
  0
LINE
  8
SIZE
  6
CONTINUOUS
 62
    30
 10
117.3200123147644
 20
-54.440374026291117
 30
0.0
 11
311.66391449190502
 21
-145.06442392721809
 31
0.0
  0
LINE
  8
SIZE
  6
CONTINUOUS
 62
    30
 10
26.52851980630885
 20
127.6591880953947
 30
0.0
 11
71.112015479326601
 21
337.40804422447508
 31
0.0
  0
ARC
  8
SIZE
  6
CONTINUOUS
 62
    30
 10
-0.5
 20
0.5
 30
0.0
 40
324.43477034726351
 50
337.11934297830618
 51
75.880657021690595
  0
CIRCLE
  8
SIZE
  6
CONTINUOUS
 62
    30
 10
293.53775875117208
 20
-136.61205869240391
 30
0.0
 40
6.0
  0
LINE
  8
SIZE
  6
CONTINUOUS
 62
    30
 10
293.53775875117208
 20
-136.61205869240391
 30
0.0
 11
298.40717872716323
 21
-125.6444359282215
 31
0.0
  0
CIRCLE
  8
SIZE
  6
CONTINUOUS
 62
    30
 10
66.953781662971323
 20
317.84509220979908
 30
0.0
 40
6.0
  0
LINE
  8
SIZE
  6
CONTINUOUS
 62
    30
 10
66.953781662971323
 20
317.84509220979908
 30
0.0
 11
78.643404758839097
 21
315.13350376820989
 31
0.0
  0
TEXT
  8
SIZE
  6
CONTINUOUS
 62
    30
 10
173.8208670184012
 20
314.32771200948463
 30
0.0
 40
64.0
  1
103°
 50
317.69854549097488
 41
0.9
 72
     1
 11
234.68053409930869
 21
258.94685161249078
 31
0.0
  0
POINT
  8
DEFPOINTS
  6
CONTINUOUS
 62
    30
 10
319.63975105845839
 20
53.116157238150443
 30
0.0
  0
POINT
  8
DEFPOINTS
  6
CONTINUOUS
 62
    30
 10
-0.5
 20
0.5
 30
0.0
  0
POINT
  8
DEFPOINTS
  6
CONTINUOUS
 62
    30
 10
-0.5
 20
0.5
 30
0.0
  0
POINT
  8
DEFPOINTS
  6
CONTINUOUS
 62
    30
 10
99.193856574031543
 20
-45.988008791477107
 30
0.0
  0
POINT
  8
DEFPOINTS
  6
CONTINUOUS
 62
    30
 10
22.370285989953569
 20
108.0962360807187
 30
0.0
  0
LINE
  8
SIZE
  6
DASHED
 62
    30
 10
22.370285989953569
 20
108.0962360807187
 30
0.0
 11
-23.370285989953569
 21
-107.0962360807187
 31
0.0
  0
CIRCLE
  8
FIX
  6
CONTINUOUS
 62
    11
 10
-23.370285989953569
 20
-107.0962360807187
 30
0.0
 40
1.6000000000000001
  0
LINE
  8
NOTE
  6
CONTINUOUS
 62
     4
 10
-23.370285989953569
 20
-117.0962360807187
 30
0.0
 11
-23.370285989953569
 21
-97.096236080718654
 31
0.0
  0
LINE
  8
NOTE
  6
CONTINUOUS
 62
     4
 10
-33.370285989953572
 20
-107.0962360807187
 30
0.0
 11
-13.370285989953571
 21
-107.0962360807187
 31
0.0
  0
LINE
  8
SIZE
  6
DASHED
 62
    30
 10
99.193856574031543
 20
-45.988008791477107
 30
0.0
 11
-100.1938565740315
 21
46.988008791476886
 31
0.0
  0
CIRCLE
  8
FIX
  6
CONTINUOUS
 62
    11
 10
-100.1938565740315
 20
46.988008791476886
 30
0.0
 40
1.6000000000000001
  0
LINE
  8
NOTE
  6
CONTINUOUS
 62
     4
 10
99.193856574031088
 20
-55.988008791477107
 30
0.0
 11
99.193856574031088
 21
-35.988008791477107
 31
0.0
  0
LINE
  8
NOTE
  6
CONTINUOUS
 62
     4
 10
89.193856574031088
 20
-45.988008791477107
 30
0.0
 11
109.1938565740315
 21
-45.988008791477107
 31
0.0
  0
LINE
  8
NOTE
  6
CONTINUOUS
 62
     4
 10
-100.1938565740315
 20
36.988008791476886
 30
0.0
 11
-100.1938565740315
 21
56.988008791476886
 31
0.0
  0
LINE
  8
NOTE
  6
CONTINUOUS
 62
     4
 10
-110.1938565740315
 20
46.988008791476886
 30
0.0
 11
-90.193856574031543
 21
46.988008791476886
 31
0.0
  0
LINE
  8
NOTE
  6
CONTINUOUS
 62
     4
 10
-100.1938565740315
 20
46.988008791476886
 30
0.0
 11
-238.63071257403129
 21
-152.29763320852319
 31
0.0
  0
LINE
  8
NOTE
  6
CONTINUOUS
 62
     4
 10
-238.63071257403129
 20
-152.29763320852319
 30
0.0
 11
-571.19385534185722
 21
-152.29763320852319
 31
0.0
  0
LINE
  8
NOTE
  6
CONTINUOUS
 62
     4
 10
-130.74778157403171
 20
21.172166791476911
 30
0.0
 11
-100.1938565740315
 21
46.988008791476886
 31
0.0
  0
LINE
  8
NOTE
  6
CONTINUOUS
 62
     4
 10
-100.1938565740315
 20
46.988008791476886
 30
0.0
 11
-113.7464105740314
 21
9.3538717914768768
 31
0.0
  0
TEXT
  8
NOTE
  6
CONTINUOUS
 62
     4
 10
-557.09678585974552
 20
-111.2710792085231
 30
0.0
 40
64.0
  1
4×φ3.2
 41
0.9
  0
LINE
  8
SIZE
  6
CONTINUOUS
 62
    30
 10
-110.5
 20
20.5
 30
0.0
 11
-110.5
 21
469.74885494844148
 31
0.0
  0
LINE
  8
SIZE
  6
CONTINUOUS
 62
    30
 10
109.5
 20
20.5
 30
0.0
 11
109.5
 21
469.74885494844148
 31
0.0
  0
LINE
  8
SIZE
  6
CONTINUOUS
 62
    30
 10
-122.5
 20
449.74885494844148
 30
0.0
 11
-134.5
 21
449.74885494844148
 31
0.0
  0
LINE
  8
SIZE
  6
CONTINUOUS
 62
    30
 10
121.5
 20
449.74885494844148
 30
0.0
 11
133.5
 21
449.74885494844148
 31
0.0
  0
LINE
  8
SIZE
  6
CONTINUOUS
 62
    30
 10
-110.5
 20
449.74885494844148
 30
0.0
 11
109.5
 21
449.74885494844148
 31
0.0
  0
CIRCLE
  8
SIZE
  6
CONTINUOUS
 62
    30
 10
-110.5
 20
449.74885494844148
 30
0.0
 40
6.0
  0
LINE
  8
SIZE
  6
CONTINUOUS
 62
    30
 10
-110.5
 20
449.74885494844148
 30
0.0
 11
-122.5
 21
449.74885494844148
 31
0.0
  0
CIRCLE
  8
SIZE
  6
CONTINUOUS
 62
    30
 10
109.5
 20
449.74885494844148
 30
0.0
 40
6.0
  0
LINE
  8
SIZE
  6
CONTINUOUS
 62
    30
 10
109.5
 20
449.74885494844148
 30
0.0
 11
121.5
 21
449.74885494844148
 31
0.0
  0
TEXT
  8
SIZE
  6
CONTINUOUS
 62
    30
 10
-114.8771428571429
 20
485.41552161510799
 30
0.0
 40
64.0
  1
φ220
 41
0.9
 72
     1
 11
-0.5
 21
485.41552161510799
 31
0.0
  0
POINT
  8
DEFPOINTS
  6
CONTINUOUS
 62
    30
 10
-110.5
 20
0.5
 30
0.0
  0
POINT
  8
DEFPOINTS
  6
CONTINUOUS
 62
    30
 10
109.5
 20
0.5
 30
0.0
  0
POINT
  8
DEFPOINTS
  6
CONTINUOUS
 62
    30
 10
109.5
 20
449.74885494844148
 30
0.0
  0
ENDSEC
  0
EOF
