  0
SECTION
  2
HEADER
  9
$ACADVER
  1
AC1009
  9
$INSBASE
 10
0.0
 20
0.0
 30
0.0
  9
$EXTMIN
 10
-560.15412600000002
 20
-724.24211899999989
 30
0.0
  9
$EXTMAX
 10
1058.824902584312
 20
621.82797174246559
 30
0.0
  9
$LIMMIN
 10
-2970.0
 20
-2100.0
  9
$LIMMAX
 10
2970.0
 20
2100.0
  9
$ORTHOMODE
 70
     0
  9
$REGENMODE
 70
     0
  9
$FILLMODE
 70
     1
  9
$QTEXTMODE
 70
     0
  9
$MIRRTEXT
 70
     0
  9
$DRAGMODE
 70
     2
  9
$LTSCALE
 40
20.0
  9
$OSMODE
 70
    37
  9
$ATTMODE
 70
     1
  9
$TEXTSIZE
 40
64.0
  9
$TRACEWID
 40
0.05
  9
$TEXTSTYLE
  7
STANDARD
  9
$CLAYER
  8
SIZE
  9
$CELTYPE
  6
CONTINUOUS
  9
$CECOLOR
 62
     8
  9
$DIMSCALE
 40
1.0
  9
$DIMASZ
 40
12.0
  9
$DIMEXO
 40
20.0
  9
$DIMDLI
 40
200.0
  9
$DIMRND
 40
0.0
  9
$DIMDLE
 40
0.0
  9
$DIMEXE
 40
20.0
  9
$DIMTP
 40
0.0
  9
$DIMTM
 40
0.0
  9
$DIMTXT
 40
64.0
  9
$DIMCEN
 40
0.09
  9
$DIMTSZ
 40
0.0
  9
$DIMTOL
 70
     0
  9
$DIMLIM
 70
     0
  9
$DIMTIH
 70
     0
  9
$DIMTOH
 70
     0
  9
$DIMSE1
 70
     0
  9
$DIMSE2
 70
     0
  9
$DIMTAD
 70
     1
  9
$DIMZIN
 70
     8
  9
$DIMBLK
  1
DOT1
  9
$DIMASO
 70
     1
  9
$DIMSHO
 70
     0
  9
$DIMPOST
  1

  9
$DIMAPOST
  1

  9
$DIMALT
 70
     0
  9
$DIMALTD
 70
     2
  9
$DIMALTF
 40
25.399999999999999
  9
$DIMLFAC
 40
1.0
  9
$DIMTOFL
 70
     1
  9
$DIMTVP
 40
0.0
  9
$DIMTIX
 70
     1
  9
$DIMSOXD
 70
     0
  9
$DIMSAH
 70
     1
  9
$DIMBLK1
  1
ORIGIN
  9
$DIMBLK2
  1
ORIGIN
  9
$DIMSTYLE
  2
STANDARD
  9
$DIMCLRD
 70
     0
  9
$DIMCLRE
 70
     0
  9
$DIMCLRT
 70
     0
  9
$DIMTFAC
 40
1.0
  9
$DIMGAP
 40
0.09
  9
$LUNITS
 70
     2
  9
$LUPREC
 70
     4
  9
$SKETCHINC
 40
0.1
  9
$FILLETRAD
 40
4.0
  9
$AUNITS
 70
     1
  9
$AUPREC
 70
     3
  9
$MENU
  1
ACAD
  9
$ELEVATION
 40
0.0
  9
$PELEVATION
 40
0.0
  9
$THICKNESS
 40
50.0
  9
$LIMCHECK
 70
     0
  9
$BLIPMODE
 70
     0
  9
$CHAMFERA
 40
0.0
  9
$CHAMFERB
 40
0.0
  9
$SKPOLY
 70
     0
  9
$TDCREATE
 40
2452321.3961996529
  9
$TDUPDATE
 40
2454923.6027575121
  9
$TDINDWG
 40
0.0112522685
  9
$TDUSRTIMER
 40
0.0112522685
  9
$USRTIMER
 70
     1
  9
$ANGBASE
 50
0.0
  9
$ANGDIR
 70
     0
  9
$PDMODE
 70
     3
  9
$PDSIZE
 40
-2.0
  9
$PLINEWID
 40
0.0
  9
$COORDS
 70
     0
  9
$SPLFRAME
 70
     0
  9
$SPLINETYPE
 70
     6
  9
$SPLINESEGS
 70
     8
  9
$ATTDIA
 70
     0
  9
$ATTREQ
 70
     1
  9
$HANDLING
 70
     1
  9
$HANDSEED
  5
1BD
  9
$SURFTAB1
 70
     6
  9
$SURFTAB2
 70
     6
  9
$SURFTYPE
 70
     6
  9
$SURFU
 70
     6
  9
$SURFV
 70
     6
  9
$UCSNAME
  2

  9
$UCSORG
 10
0.0
 20
0.0
 30
0.0
  9
$UCSXDIR
 10
1.0
 20
0.0
 30
0.0
  9
$UCSYDIR
 10
0.0
 20
1.0
 30
0.0
  9
$PUCSNAME
  2

  9
$PUCSORG
 10
0.0
 20
0.0
 30
0.0
  9
$PUCSXDIR
 10
1.0
 20
0.0
 30
0.0
  9
$PUCSYDIR
 10
0.0
 20
1.0
 30
0.0
  9
$USERI1
 70
     0
  9
$USERI2
 70
     0
  9
$USERI3
 70
     0
  9
$USERI4
 70
     0
  9
$USERI5
 70
     0
  9
$USERR1
 40
20.0
  9
$USERR2
 40
0.0
  9
$USERR3
 40
0.0
  9
$USERR4
 40
0.0
  9
$USERR5
 40
0.0
  9
$WORLDVIEW
 70
     1
  9
$SHADEDGE
 70
     3
  9
$SHADEDIF
 70
    70
  9
$TILEMODE
 70
     1
  9
$MAXACTVP
 70
    64
  9
$PLIMCHECK
 70
     0
  9
$PEXTMIN
 10
1.0000000000000000E+020
 20
1.0000000000000000E+020
 30
1.0000000000000000E+020
  9
$PEXTMAX
 10
-1.0000000000000000E+020
 20
-1.0000000000000000E+020
 30
-1.0000000000000000E+020
  9
$PLIMMIN
 10
0.0
 20
0.0
  9
$PLIMMAX
 10
12.0
 20
9.0
  9
$UNITMODE
 70
     0
  9
$VISRETAIN
 70
     1
  9
$PLINEGEN
 70
     0
  9
$PSLTSCALE
 70
     1
  0
ENDSEC
  0
SECTION
  2
TABLES
  0
TABLE
  2
VPORT
 70
     1
  0
VPORT
  2
*ACTIVE
 70
     0
 10
0.0
 20
0.0
 11
1.0
 21
1.0
 12
295.67791906827279
 22
-157.96483405859999
 13
0.0
 23
0.0
 14
1.0
 24
1.0
 15
0.0
 25
0.0
 16
0.0
 26
0.0
 36
1.0
 17
0.0
 27
0.0
 37
0.0
 40
1641.9238327488499
 41
1.3098995695839311
 42
50.0
 43
0.0
 44
0.0
 50
0.0
 51
0.0
 71
     0
 72
   100
 73
     1
 74
     0
 75
     0
 76
     0
 77
     0
 78
     0
  0
ENDTAB
  0
TABLE
  2
LTYPE
 70
     3
  0
LTYPE
  2
CONTINUOUS
 70
     0
  3
実線
 72
    65
 73
     0
 40
0.0
  0
LTYPE
  2
DASHDOT
 70
     0
  3
____ _ ____ _ ____ _ ____ _ ____ _ ____ _ ____
 72
    65
 73
     4
 40
5.5
 49
4.0
 49
-0.6
 49
0.3
 49
-0.6
  0
ENDTAB
  0
TABLE
  2
LAYER
 70
    12
  0
LAYER
  2
0
 70
     0
 62
     7
  6
CONTINUOUS
  0
LAYER
  2
SIZE
 70
     0
 62
    30
  6
CONTINUOUS
  0
LAYER
  2
BASIS
 70
     0
 62
     6
  6
DASHDOT
  0
LAYER
  2
OUTLINE
 70
     0
 62
     3
  6
CONTINUOUS
  0
LAYER
  2
DETAIL
 70
     0
 62
     5
  6
CONTINUOUS
  0
LAYER
  2
ARRANGE
 70
     0
 62
     1
  6
CONTINUOUS
  0
LAYER
  2
DEFPOINTS
 70
     0
 62
     7
  6
CONTINUOUS
  0
LAYER
  2
ETC
 70
     0
 62
    61
  6
CONTINUOUS
  0
LAYER
  2
FIX
 70
     0
 62
    11
  6
CONTINUOUS
  0
LAYER
  2
NOTE
 70
     0
 62
     4
  6
CONTINUOUS
  0
LAYER
  2
SERVICESPACE
 70
     0
 62
     2
  6
DASHDOT
  0
LAYER
  2
SYMBOLLINE
 70
     0
 62
    15
  6
CONTINUOUS
  0
ENDTAB
  0
TABLE
  2
STYLE
 70
     2
  0
STYLE
  2
STANDARD
 70
     0
 40
64.0
 41
0.9
 50
0.0
 71
     0
 42
64.0
  3
SIMPLEX.shx
  4
BIGFONT.shx
  0
STYLE
  2
ANNOTATIVE
 70
     0
 40
0.0
 41
1.0
 50
0.0
 71
     0
 42
0.2
  3
txt
  4

  0
ENDTAB
  0
TABLE
  2
VIEW
 70
     1
  0
VIEW
  2
ALL
 70
     0
 40
4282.6198079999986
 10
0.0
 20
41.309903999999989
 41
5940.0
 11
0.0
 21
0.0
 31
1.0
 12
0.0
 22
0.0
 32
0.0
 42
50.0
 43
0.0
 44
0.0
 50
0.0
 71
     0
  0
ENDTAB
  0
TABLE
  2
UCS
 70
     0
  0
ENDTAB
  0
TABLE
  2
APPID
 70
     4
  0
APPID
  2
ACAD
 70
     0
  0
APPID
  2
ACADANNOTATIVE
 70
     0
  0
APPID
  2
ACAD_MLEADERVER
 70
     0
  0
APPID
  2
ACAD_EXEMPT_FROM_CAD_STANDARDS
 70
     0
  0
ENDTAB
  0
TABLE
  2
DIMSTYLE
 70
     2
  0
DIMSTYLE
  2
STANDARD
 70
     0
  3

  4

  5

  6

  7

 40
1.0
 41
0.18
 42
0.0625
 43
0.38
 44
0.18
 45
0.0
 46
0.0
 47
0.0
 48
0.0
140
0.18
141
0.09
142
0.0
143
25.399999999999999
144
1.0
145
0.0
146
1.0
147
0.09
 71
     0
 72
     0
 73
     1
 74
     1
 75
     0
 76
     0
 77
     0
 78
     0
170
     0
171
     2
172
     0
173
     0
174
     0
175
     0
176
     0
177
     0
178
     0
  0
DIMSTYLE
  2
ANNOTATIVE
 70
     0
  3

  4

  5

  6

  7

 40
1.0
 41
0.18
 42
0.0625
 43
0.38
 44
0.18
 45
0.0
 46
0.0
 47
0.0
 48
0.0
140
0.18
141
0.09
142
0.0
143
25.399999999999999
144
1.0
145
0.0
146
1.0
147
0.09
 71
     0
 72
     0
 73
     1
 74
     1
 75
     0
 76
     0
 77
     0
 78
     0
170
     0
171
     2
172
     0
173
     0
174
     0
175
     0
176
     0
177
     0
178
     0
  0
ENDTAB
  0
ENDSEC
  0
SECTION
  2
BLOCKS
  0
BLOCK
  8
0
  2
$MODEL_SPACE
 70
     0
 10
0.0
 20
0.0
 30
0.0
  3
$MODEL_SPACE
  1

  0
ENDBLK
  5
76
  8
0
  0
BLOCK
 67
     1
  8
0
  2
$PAPER_SPACE
 70
     0
 10
0.0
 20
0.0
 30
0.0
  3
$PAPER_SPACE
  1

  0
ENDBLK
  5
72
 67
     1
  8
0
  0
BLOCK
  8
0
  2
DOT1
 70
     0
 10
0.0
 20
0.0
 30
0.0
  3
DOT1
  1

  0
CIRCLE
  5
8B
  8
SIZE
  6
CONTINUOUS
 62
     7
 10
0.0
 20
0.0
 30
0.0
 40
3.0
  0
ENDBLK
  5
8C
  8
0
  0
BLOCK
  8
0
  2
_ORIGIN
 70
     0
 10
0.0
 20
0.0
 30
0.0
  3
_ORIGIN
  1

  0
CIRCLE
  5
8F
  8
0
  6
CONTINUOUS
 62
     7
 10
0.0
 20
0.0
 30
0.0
 40
0.5
  0
LINE
  5
90
  8
0
  6
CONTINUOUS
 62
     7
 10
0.0
 20
0.0
 30
0.0
 11
-1.0
 21
0.0
 31
0.0
  0
ENDBLK
  5
91
  8
0
  0
ENDSEC
  0
SECTION
  2
ENTITIES
  0
LINE
  5
93
  8
BASIS
  6
DASHDOT
 62
     6
 10
76.125652999999986
 20
-20.5
 30
0.0
 11
-74.319284999999994
 21
-20.5
 31
0.0
  0
LINE
  5
94
  8
BASIS
  6
DASHDOT
 62
     6
 10
0.0
 20
186.120295
 30
0.0
 11
0.0
 21
-187.55105499999999
 31
0.0
  0
LINE
  5
95
  8
DETAIL
  6
CONTINUOUS
 62
     5
 10
-150.00000499999999
 20
145.05882299999999
 30
0.0
 11
-150.00000499999999
 21
180.0
 31
0.0
  0
LINE
  5
96
  8
DETAIL
  6
CONTINUOUS
 62
     5
 10
-150.00000499999999
 20
-71.518636000000001
 30
0.0
 11
-150.00000499999999
 21
145.05882299999999
 31
0.0
  0
LINE
  5
97
  8
DETAIL
  6
CONTINUOUS
 62
     5
 10
135.88235299999999
 20
146.47058799999999
 30
0.0
 11
146.82352900000001
 21
146.47058799999999
 31
0.0
  0
ARC
  5
98
  8
DETAIL
  6
CONTINUOUS
 62
     5
 10
146.82352900000001
 20
145.05882299999999
 30
0.0
 40
1.411764999999999
 50
0.0
 51
90.0
  0
ARC
  5
99
  8
DETAIL
  6
CONTINUOUS
 62
     5
 10
146.82352900000001
 20
145.05882299999999
 30
0.0
 40
3.1764709999999989
 50
0.0
 51
90.0
  0
LINE
  5
9A
  8
DETAIL
  6
CONTINUOUS
 62
     5
 10
146.82352900000001
 20
148.23529400000001
 30
0.0
 11
146.82352900000001
 21
150.0
 31
0.0
  0
LINE
  5
9B
  8
DETAIL
  6
CONTINUOUS
 62
     5
 10
150.0
 20
-145.05882800000001
 30
0.0
 11
150.0
 21
145.05882299999999
 31
0.0
  0
LINE
  5
9C
  8
DETAIL
  6
CONTINUOUS
 62
     5
 10
148.23529400000001
 20
-145.05882800000001
 30
0.0
 11
148.23529400000001
 21
145.05882299999999
 31
0.0
  0
LINE
  5
9D
  8
DETAIL
  6
CONTINUOUS
 62
     5
 10
146.82352900000001
 20
-148.235299
 30
0.0
 11
146.82352900000001
 21
-150.00000499999999
 31
0.0
  0
LINE
  5
9E
  8
DETAIL
  6
CONTINUOUS
 62
     5
 10
135.88235299999999
 20
-146.47059300000001
 30
0.0
 11
146.82352900000001
 21
-146.47059300000001
 31
0.0
  0
ARC
  5
9F
  8
DETAIL
  6
CONTINUOUS
 62
     5
 10
146.82352900000001
 20
-145.05882800000001
 30
0.0
 40
1.411764999999999
 50
270.0
 51
0.0
  0
ARC
  5
A0
  8
DETAIL
  6
CONTINUOUS
 62
     5
 10
146.82352900000001
 20
-145.05882800000001
 30
0.0
 40
3.1764709999999989
 50
270.0
 51
0.0
  0
LINE
  5
A1
  8
DETAIL
  6
CONTINUOUS
 62
     5
 10
146.82352900000001
 20
-150.00000499999999
 30
0.0
 11
-0.000005
 21
-150.00000499999999
 31
0.0
  0
LINE
  5
A2
  8
DETAIL
  6
CONTINUOUS
 62
     5
 10
146.82352900000001
 20
-148.235299
 30
0.0
 11
-0.000005
 21
-148.235299
 31
0.0
  0
LINE
  5
A3
  8
DETAIL
  6
CONTINUOUS
 62
     5
 10
-150.00000499999999
 20
-145.05882800000001
 30
0.0
 11
-150.00000499999999
 21
-72.963419999999999
 31
0.0
  0
LINE
  5
A4
  8
DETAIL
  6
CONTINUOUS
 62
     5
 10
-148.235299
 20
-145.05882800000001
 30
0.0
 11
-148.235299
 21
-73.084530000000001
 31
0.0
  0
LINE
  5
A5
  8
DETAIL
  6
CONTINUOUS
 62
     5
 10
-135.88235800000001
 20
-146.47059300000001
 30
0.0
 11
-146.823534
 21
-146.47059300000001
 31
0.0
  0
LINE
  5
A6
  8
DETAIL
  6
CONTINUOUS
 62
     5
 10
-146.823534
 20
-148.235299
 30
0.0
 11
-146.823534
 21
-150.00000499999999
 31
0.0
  0
ARC
  5
A7
  8
DETAIL
  6
CONTINUOUS
 62
     5
 10
-146.823534
 20
-145.05882800000001
 30
0.0
 40
3.1764709999999989
 50
180.0
 51
270.0
  0
ARC
  5
A8
  8
DETAIL
  6
CONTINUOUS
 62
     5
 10
-146.823534
 20
-145.05882800000001
 30
0.0
 40
1.411764999999999
 50
180.0
 51
270.0
  0
LINE
  5
A9
  8
DETAIL
  6
CONTINUOUS
 62
     5
 10
-135.88235800000001
 20
146.47058799999999
 30
0.0
 11
-146.823534
 21
146.47058799999999
 31
0.0
  0
LINE
  5
AA
  8
DETAIL
  6
CONTINUOUS
 62
     5
 10
-146.823534
 20
150.0
 30
0.0
 11
146.82352900000001
 21
150.0
 31
0.0
  0
LINE
  5
AB
  8
DETAIL
  6
CONTINUOUS
 62
     5
 10
-146.823534
 20
148.23529400000001
 30
0.0
 11
146.82352900000001
 21
148.23529400000001
 31
0.0
  0
LINE
  5
AC
  8
DETAIL
  6
CONTINUOUS
 62
     5
 10
-146.823534
 20
148.23529400000001
 30
0.0
 11
-146.823534
 21
150.0
 31
0.0
  0
ARC
  5
AD
  8
DETAIL
  6
CONTINUOUS
 62
     5
 10
-146.823534
 20
145.05882299999999
 30
0.0
 40
3.1764709999999989
 50
90.0
 51
180.0
  0
ARC
  5
AE
  8
DETAIL
  6
CONTINUOUS
 62
     5
 10
-146.823534
 20
145.05882299999999
 30
0.0
 40
1.411764999999999
 50
90.0
 51
180.0
  0
LINE
  5
AF
  8
DETAIL
  6
CONTINUOUS
 62
     5
 10
-148.235299
 20
-73.084530000000001
 30
0.0
 11
-148.235299
 21
145.05882299999999
 31
0.0
  0
LINE
  5
B0
  8
DETAIL
  6
CONTINUOUS
 62
     5
 10
-150.00000499999999
 20
-72.963419999999999
 30
0.0
 11
-150.00000499999999
 21
145.05882299999999
 31
0.0
  0
LINE
  5
B1
  8
DETAIL
  6
CONTINUOUS
 62
     5
 10
135.88235299999999
 20
148.23529400000001
 30
0.0
 11
135.88235299999999
 21
146.47058799999999
 31
0.0
  0
LINE
  5
B2
  8
DETAIL
  6
CONTINUOUS
 62
     5
 10
-135.88235800000001
 20
148.23529400000001
 30
0.0
 11
-135.88235800000001
 21
146.47058799999999
 31
0.0
  0
LINE
  5
B3
  8
DETAIL
  6
CONTINUOUS
 62
     5
 10
-135.88235800000001
 20
-148.235299
 30
0.0
 11
-135.88235800000001
 21
-146.47059300000001
 31
0.0
  0
LINE
  5
B4
  8
DETAIL
  6
CONTINUOUS
 62
     5
 10
135.88235299999999
 20
-148.235299
 30
0.0
 11
135.88235299999999
 21
-146.47059300000001
 31
0.0
  0
LINE
  5
B5
  8
BASIS
  6
DASHDOT
 62
     6
 10
-162.006923
 20
0.0
 30
0.0
 11
160.39927
 21
0.0
 31
0.0
  0
LINE
  5
B6
  8
BASIS
  6
DASHDOT
 62
     6
 10
-203.271151
 20
65.0
 30
0.0
 11
-130.73674399999999
 21
65.0
 31
0.0
  0
LINE
  5
B7
  8
BASIS
  6
DASHDOT
 62
     6
 10
1.499995
 20
-94.051343999999986
 30
0.0
 11
1.499995
 21
53.249306999999988
 31
0.0
  0
LINE
  5
B8
  8
DETAIL
  6
CONTINUOUS
 62
     5
 10
-0.000005
 20
-150.00000499999999
 30
0.0
 11
-146.823534
 21
-150.00000499999999
 31
0.0
  0
LINE
  5
B9
  8
DETAIL
  6
CONTINUOUS
 62
     5
 10
-0.000005
 20
-148.235299
 30
0.0
 11
-146.823534
 21
-148.235299
 31
0.0
  0
LINE
  5
BA
  8
OUTLINE
  6
CONTINUOUS
 62
     3
 10
-146.823534
 20
148.23529400000001
 30
0.0
 11
-146.823534
 21
150.0
 31
0.0
  0
LINE
  5
BB
  8
OUTLINE
  6
CONTINUOUS
 62
     3
 10
-146.823534
 20
-148.235299
 30
0.0
 11
-146.823534
 21
-150.00000499999999
 31
0.0
  0
ARC
  5
BC
  8
OUTLINE
  6
CONTINUOUS
 62
     3
 10
-146.823534
 20
-145.05882800000001
 30
0.0
 40
3.1764709999999989
 50
180.0
 51
270.0
  0
LINE
  5
BD
  8
OUTLINE
  6
CONTINUOUS
 62
     3
 10
146.82352900000001
 20
-148.235299
 30
0.0
 11
146.82352900000001
 21
-150.00000499999999
 31
0.0
  0
LINE
  5
BE
  8
OUTLINE
  6
CONTINUOUS
 62
     3
 10
146.82352900000001
 20
148.23529400000001
 30
0.0
 11
146.82352900000001
 21
150.0
 31
0.0
  0
ARC
  5
BF
  8
OUTLINE
  6
CONTINUOUS
 62
     3
 10
146.82352900000001
 20
145.05882299999999
 30
0.0
 40
3.1764709999999989
 50
0.0
 51
90.0
  0
LINE
  5
C0
  8
OUTLINE
  6
CONTINUOUS
 62
     3
 10
150.0
 20
-145.05882800000001
 30
0.0
 11
150.0
 21
145.05882299999999
 31
0.0
  0
ARC
  5
C1
  8
OUTLINE
  6
CONTINUOUS
 62
     3
 10
146.82352900000001
 20
-145.05882800000001
 30
0.0
 40
3.1764709999999989
 50
270.0
 51
0.0
  0
LINE
  5
C2
  8
OUTLINE
  6
CONTINUOUS
 62
     3
 10
146.82352900000001
 20
-150.00000499999999
 30
0.0
 11
-146.823534
 21
-150.00000499999999
 31
0.0
  0
LINE
  5
C3
  8
OUTLINE
  6
CONTINUOUS
 62
     3
 10
-150.00000499999999
 20
-145.05882800000001
 30
0.0
 11
-150.00000499999999
 21
-72.963419999999999
 31
0.0
  0
LINE
  5
C4
  8
OUTLINE
  6
CONTINUOUS
 62
     3
 10
-150.00000499999999
 20
-72.963419999999999
 30
0.0
 11
-150.00000499999999
 21
145.05882299999999
 31
0.0
  0
ARC
  5
C5
  8
OUTLINE
  6
CONTINUOUS
 62
     3
 10
-146.823534
 20
145.05882299999999
 30
0.0
 40
3.1764709999999989
 50
90.0
 51
180.0
  0
LINE
  5
C6
  8
OUTLINE
  6
CONTINUOUS
 62
     3
 10
-150.00000499999999
 20
145.05882299999999
 30
0.0
 11
-150.00000499999999
 21
180.0
 31
0.0
  0
LINE
  5
C7
  8
OUTLINE
  6
CONTINUOUS
 62
     3
 10
-146.823534
 20
150.0
 30
0.0
 11
146.82352900000001
 21
150.0
 31
0.0
  0
CIRCLE
  5
C8
  8
DETAIL
  6
CONTINUOUS
 62
     5
 10
1.499995
 20
-20.5
 30
0.0
 40
48.399999999999991
  0
LINE
  5
C9
  8
DETAIL
  6
CONTINUOUS
 62
     5
 10
-152.00000499999999
 20
120.88235299999999
 30
0.0
 11
-152.00000499999999
 21
180.0
 31
0.0
  0
LINE
  5
CA
  8
DETAIL
  6
CONTINUOUS
 62
     5
 10
-150.00000499999999
 20
180.0
 30
0.0
 11
-152.00000499999999
 21
180.0
 31
0.0
  0
LINE
  5
CB
  8
DETAIL
  6
CONTINUOUS
 62
     5
 10
-152.00000499999999
 20
-50.0
 30
0.0
 11
-152.00000499999999
 21
120.88235299999999
 31
0.0
  0
LINE
  5
CC
  8
DETAIL
  6
CONTINUOUS
 62
     5
 10
-150.00000499999999
 20
-50.0
 30
0.0
 11
-152.00000499999999
 21
-50.0
 31
0.0
  0
LINE
  5
CD
  8
NOTE
  6
CONTINUOUS
 62
     4
 10
-120.0
 20
126.47058
 30
0.0
 11
-120.0
 21
173.52941999999999
 31
0.0
  0
LINE
  5
CE
  8
NOTE
  6
CONTINUOUS
 62
     4
 10
-143.52941999999999
 20
150.0
 30
0.0
 11
-96.470580000000012
 21
150.0
 31
0.0
  0
LINE
  5
CF
  8
NOTE
  6
CONTINUOUS
 62
     4
 10
120.0
 20
126.47058
 30
0.0
 11
120.0
 21
173.52941999999999
 31
0.0
  0
LINE
  5
D0
  8
NOTE
  6
CONTINUOUS
 62
     4
 10
143.52941999999999
 20
150.0
 30
0.0
 11
96.470580000000012
 21
150.0
 31
0.0
  0
LINE
  5
D1
  8
NOTE
  6
CONTINUOUS
 62
     4
 10
-120.0
 20
-126.47058
 30
0.0
 11
-120.0
 21
-173.52941999999999
 31
0.0
  0
LINE
  5
D2
  8
NOTE
  6
CONTINUOUS
 62
     4
 10
-143.52941999999999
 20
-150.0
 30
0.0
 11
-96.470580000000012
 21
-150.0
 31
0.0
  0
LINE
  5
D3
  8
NOTE
  6
CONTINUOUS
 62
     4
 10
120.0
 20
-126.47058
 30
0.0
 11
120.0
 21
-173.52941999999999
 31
0.0
  0
LINE
  5
D4
  8
NOTE
  6
CONTINUOUS
 62
     4
 10
143.52941999999999
 20
-150.0
 30
0.0
 11
96.470580000000012
 21
-150.0
 31
0.0
  0
LINE
  5
D5
  8
NOTE
  6
CONTINUOUS
 62
     4
 10
150.0
 20
96.470580000000012
 30
0.0
 11
150.0
 21
143.52941999999999
 31
0.0
  0
LINE
  5
D6
  8
NOTE
  6
CONTINUOUS
 62
     4
 10
173.52941999999999
 20
120.0
 30
0.0
 11
126.47058
 21
120.0
 31
0.0
  0
LINE
  5
D7
  8
NOTE
  6
CONTINUOUS
 62
     4
 10
150.0
 20
-96.470580000000012
 30
0.0
 11
150.0
 21
-143.52941999999999
 31
0.0
  0
LINE
  5
D8
  8
NOTE
  6
CONTINUOUS
 62
     4
 10
173.52941999999999
 20
-120.0
 30
0.0
 11
126.47058
 21
-120.0
 31
0.0
  0
LINE
  5
D9
  8
NOTE
  6
CONTINUOUS
 62
     4
 10
339.103317
 20
-329.50194599999998
 30
0.0
 11
829.88423
 21
-329.50194599999998
 31
0.0
  0
LINE
  5
DA
  8
SIZE
  6
CONTINUOUS
 62
    30
 10
120.0
 20
193.52941200000001
 30
0.0
 11
120.0
 21
419.04391600000002
 31
0.0
  0
LINE
  5
DB
  8
SIZE
  6
CONTINUOUS
 62
    30
 10
-120.0
 20
193.52941200000001
 30
0.0
 11
-120.0
 21
419.04391600000002
 31
0.0
  0
LINE
  5
DC
  8
SIZE
  6
CONTINUOUS
 62
    30
 10
108.0
 20
399.04391600000002
 30
0.0
 11
-108.0
 21
399.04391600000002
 31
0.0
  0
TEXT
  5
DD
  8
SIZE
  6
CONTINUOUS
 62
    30
 10
-74.05714285714285
 20
422.67381599999999
 30
0.0
 40
64.0
  1
240
 41
0.9
 72
     1
 11
0.0
 21
422.67381599999999
 31
0.0
  0
CIRCLE
  5
DE
  8
SIZE
  6
CONTINUOUS
 62
    30
 10
120.0
 20
399.04391600000002
 30
0.0
 40
6.0
  0
LINE
  5
DF
  8
SIZE
  6
CONTINUOUS
 62
    30
 10
120.0
 20
399.04391600000002
 30
0.0
 11
108.0
 21
399.04391600000002
 31
0.0
  0
CIRCLE
  5
E0
  8
SIZE
  6
CONTINUOUS
 62
    30
 10
-120.0
 20
399.04391600000002
 30
0.0
 40
6.0
  0
LINE
  5
E1
  8
SIZE
  6
CONTINUOUS
 62
    30
 10
-120.0
 20
399.04391600000002
 30
0.0
 11
-108.0
 21
399.04391600000002
 31
0.0
  0
POINT
  5
E2
  8
DEFPOINTS
  6
CONTINUOUS
 62
    30
 10
120.0
 20
173.52941200000001
 30
0.0
  0
POINT
  5
E3
  8
DEFPOINTS
  6
CONTINUOUS
 62
    30
 10
-120.0
 20
173.52941200000001
 30
0.0
  0
POINT
  5
E4
  8
DEFPOINTS
  6
CONTINUOUS
 62
    30
 10
-120.0
 20
399.04391600000002
 30
0.0
  0
LINE
  5
E5
  8
SIZE
  6
CONTINUOUS
 62
    30
 10
111.498859
 20
0.0
 30
0.0
 11
111.498859
 21
292.51911699999999
 31
0.0
  0
LINE
  5
E6
  8
SIZE
  6
CONTINUOUS
 62
    30
 10
-108.498869
 20
0.0
 30
0.0
 11
-108.498869
 21
292.51911699999999
 31
0.0
  0
LINE
  5
E7
  8
SIZE
  6
CONTINUOUS
 62
    30
 10
99.498858999999996
 20
272.51911699999999
 30
0.0
 11
-96.498868999999999
 21
272.51911699999999
 31
0.0
  0
TEXT
  5
E8
  8
SIZE
  6
CONTINUOUS
 62
    30
 10
-128.16109685714281
 20
299.14803000000001
 30
0.0
 40
64.0
  1
φ230
 41
0.9
 72
     1
 11
-13.783954
 21
299.14803000000001
 31
0.0
  0
CIRCLE
  5
E9
  8
SIZE
  6
CONTINUOUS
 62
    30
 10
111.498859
 20
272.51911699999999
 30
0.0
 40
6.0
  0
LINE
  5
EA
  8
SIZE
  6
CONTINUOUS
 62
    30
 10
111.498859
 20
272.51911699999999
 30
0.0
 11
99.498858999999996
 21
272.51911699999999
 31
0.0
  0
CIRCLE
  5
EB
  8
SIZE
  6
CONTINUOUS
 62
    30
 10
-108.498869
 20
272.51911699999999
 30
0.0
 40
6.0
  0
LINE
  5
EC
  8
SIZE
  6
CONTINUOUS
 62
    30
 10
-108.498869
 20
272.51911699999999
 30
0.0
 11
-96.498868999999999
 21
272.51911699999999
 31
0.0
  0
POINT
  5
ED
  8
DEFPOINTS
  6
CONTINUOUS
 62
    30
 10
111.498859
 20
-20.0
 30
0.0
  0
POINT
  5
EE
  8
DEFPOINTS
  6
CONTINUOUS
 62
    30
 10
-108.498869
 20
-20.0
 30
0.0
  0
POINT
  5
EF
  8
DEFPOINTS
  6
CONTINUOUS
 62
    30
 10
-108.498869
 20
272.51911699999999
 30
0.0
  0
LINE
  5
F0
  8
SIZE
  6
CONTINUOUS
 62
    30
 10
120.0
 20
-193.52941200000001
 30
0.0
 11
120.0
 21
-594.25017200000002
 31
0.0
  0
LINE
  5
F1
  8
SIZE
  6
CONTINUOUS
 62
    30
 10
-120.0
 20
-193.52941200000001
 30
0.0
 11
-120.0
 21
-594.25017200000002
 31
0.0
  0
LINE
  5
F2
  8
SIZE
  6
CONTINUOUS
 62
    30
 10
108.0
 20
-574.25017199999991
 30
0.0
 11
-108.0
 21
-574.25017199999991
 31
0.0
  0
TEXT
  5
F3
  8
SIZE
  6
CONTINUOUS
 62
    30
 10
-74.05714285714285
 20
-548.514861
 30
0.0
 40
64.0
  1
240
 41
0.9
 72
     1
 11
0.0
 21
-548.514861
 31
0.0
  0
CIRCLE
  5
F4
  8
SIZE
  6
CONTINUOUS
 62
    30
 10
120.0
 20
-574.25017199999991
 30
0.0
 40
6.0
  0
LINE
  5
F5
  8
SIZE
  6
CONTINUOUS
 62
    30
 10
120.0
 20
-574.25017199999991
 30
0.0
 11
108.0
 21
-574.25017199999991
 31
0.0
  0
CIRCLE
  5
F6
  8
SIZE
  6
CONTINUOUS
 62
    30
 10
-120.0
 20
-574.25017199999991
 30
0.0
 40
6.0
  0
LINE
  5
F7
  8
SIZE
  6
CONTINUOUS
 62
    30
 10
-120.0
 20
-574.25017199999991
 30
0.0
 11
-108.0
 21
-574.25017199999991
 31
0.0
  0
POINT
  5
F8
  8
DEFPOINTS
  6
CONTINUOUS
 62
    30
 10
120.0
 20
-173.52941200000001
 30
0.0
  0
POINT
  5
F9
  8
DEFPOINTS
  6
CONTINUOUS
 62
    30
 10
-120.0
 20
-173.52941200000001
 30
0.0
  0
POINT
  5
FA
  8
DEFPOINTS
  6
CONTINUOUS
 62
    30
 10
-120.0
 20
-574.25017199999991
 30
0.0
  0
LINE
  5
FB
  8
SIZE
  6
CONTINUOUS
 62
    30
 10
150.0
 20
-163.52941200000001
 30
0.0
 11
150.0
 21
-724.24211899999989
 31
0.0
  0
LINE
  5
FC
  8
SIZE
  6
CONTINUOUS
 62
    30
 10
-150.00000499999999
 20
-165.05882800000001
 30
0.0
 11
-150.00000499999999
 21
-724.24211899999989
 31
0.0
  0
LINE
  5
FD
  8
SIZE
  6
CONTINUOUS
 62
    30
 10
138.0
 20
-704.24211899999989
 30
0.0
 11
-138.00000499999999
 21
-704.24211899999989
 31
0.0
  0
TEXT
  5
FE
  8
SIZE
  6
CONTINUOUS
 62
    30
 10
-74.057144857142845
 20
-676.93715199999986
 30
0.0
 40
64.0
  1
300
 41
0.9
 72
     1
 11
-0.000002
 21
-676.93715199999986
 31
0.0
  0
CIRCLE
  5
FF
  8
SIZE
  6
CONTINUOUS
 62
    30
 10
150.0
 20
-704.24211899999989
 30
0.0
 40
6.0
  0
LINE
  5
100
  8
SIZE
  6
CONTINUOUS
 62
    30
 10
150.0
 20
-704.24211899999989
 30
0.0
 11
138.0
 21
-704.24211899999989
 31
0.0
  0
CIRCLE
  5
101
  8
SIZE
  6
CONTINUOUS
 62
    30
 10
-150.00000499999999
 20
-704.24211899999989
 30
0.0
 40
6.0
  0
LINE
  5
102
  8
SIZE
  6
CONTINUOUS
 62
    30
 10
-150.00000499999999
 20
-704.24211899999989
 30
0.0
 11
-138.00000499999999
 21
-704.24211899999989
 31
0.0
  0
POINT
  5
103
  8
DEFPOINTS
  6
CONTINUOUS
 62
    30
 10
150.0
 20
-143.52941200000001
 30
0.0
  0
POINT
  5
104
  8
DEFPOINTS
  6
CONTINUOUS
 62
    30
 10
-150.00000499999999
 20
-145.05882800000001
 30
0.0
  0
POINT
  5
105
  8
DEFPOINTS
  6
CONTINUOUS
 62
    30
 10
-150.00000499999999
 20
-704.24211899999989
 30
0.0
  0
LINE
  5
106
  8
SIZE
  6
CONTINUOUS
 62
    30
 10
-152.00000499999999
 20
-428.55696599999999
 30
0.0
 11
-432.42755299999999
 21
-428.55696599999999
 31
0.0
  0
LINE
  5
107
  8
SIZE
  6
CONTINUOUS
 62
    30
 10
163.52941200000001
 20
150.0
 30
0.0
 11
491.74671399999988
 21
150.0
 31
0.0
  0
LINE
  5
108
  8
SIZE
  6
CONTINUOUS
 62
    30
 10
151.74461400000001
 20
-20.5
 30
0.0
 11
491.74671399999988
 21
-20.5
 31
0.0
  0
LINE
  5
109
  8
SIZE
  6
CONTINUOUS
 62
    30
 10
471.74671399999988
 20
138.0
 30
0.0
 11
471.74671399999988
 21
-8.5
 31
0.0
  0
TEXT
  5
10A
  8
SIZE
  6
CONTINUOUS
 62
    30
 10
449.945965
 20
177.18960628571421
 30
0.0
 40
64.0
  1
170.5
 50
90.0
 41
0.9
 72
     1
 11
449.945965
 21
286.90389199999998
 31
0.0
  0
CIRCLE
  5
10B
  8
SIZE
  6
CONTINUOUS
 62
    30
 10
471.74671399999988
 20
150.0
 30
0.0
 40
6.0
  0
LINE
  5
10C
  8
SIZE
  6
CONTINUOUS
 62
    30
 10
471.74671399999988
 20
150.0
 30
0.0
 11
471.74671399999988
 21
138.0
 31
0.0
  0
CIRCLE
  5
10D
  8
SIZE
  6
CONTINUOUS
 62
    30
 10
471.74671399999988
 20
-20.5
 30
0.0
 40
6.0
  0
LINE
  5
10E
  8
SIZE
  6
CONTINUOUS
 62
    30
 10
471.74671399999988
 20
-20.5
 30
0.0
 11
471.74671399999988
 21
-8.5
 31
0.0
  0
POINT
  5
10F
  8
DEFPOINTS
  6
CONTINUOUS
 62
    30
 10
143.52941200000001
 20
150.0
 30
0.0
  0
POINT
  5
110
  8
DEFPOINTS
  6
CONTINUOUS
 62
    30
 10
131.74461400000001
 20
-20.5
 30
0.0
  0
POINT
  5
111
  8
DEFPOINTS
  6
CONTINUOUS
 62
    30
 10
471.74671399999988
 20
-20.5
 30
0.0
  0
LINE
  5
112
  8
SIZE
  6
CONTINUOUS
 62
    30
 10
193.52941200000001
 20
120.0
 30
0.0
 11
625.84989599999994
 21
120.0
 31
0.0
  0
LINE
  5
113
  8
SIZE
  6
CONTINUOUS
 62
    30
 10
193.52941200000001
 20
-120.0
 30
0.0
 11
625.84989599999994
 21
-120.0
 31
0.0
  0
LINE
  5
114
  8
SIZE
  6
CONTINUOUS
 62
    30
 10
605.84989599999994
 20
108.0
 30
0.0
 11
605.84989599999994
 21
-108.0
 31
0.0
  0
TEXT
  5
115
  8
SIZE
  6
CONTINUOUS
 62
    30
 10
582.61283500000002
 20
-74.05714285714285
 30
0.0
 40
64.0
  1
240
 50
90.0
 41
0.9
 72
     1
 11
582.61283500000002
 21
0.0
 31
0.0
  0
CIRCLE
  5
116
  8
SIZE
  6
CONTINUOUS
 62
    30
 10
605.84989599999994
 20
120.0
 30
0.0
 40
6.0
  0
LINE
  5
117
  8
SIZE
  6
CONTINUOUS
 62
    30
 10
605.84989599999994
 20
120.0
 30
0.0
 11
605.84989599999994
 21
108.0
 31
0.0
  0
CIRCLE
  5
118
  8
SIZE
  6
CONTINUOUS
 62
    30
 10
605.84989599999994
 20
-120.0
 30
0.0
 40
6.0
  0
LINE
  5
119
  8
SIZE
  6
CONTINUOUS
 62
    30
 10
605.84989599999994
 20
-120.0
 30
0.0
 11
605.84989599999994
 21
-108.0
 31
0.0
  0
POINT
  5
11A
  8
DEFPOINTS
  6
CONTINUOUS
 62
    30
 10
173.52941200000001
 20
120.0
 30
0.0
  0
POINT
  5
11B
  8
DEFPOINTS
  6
CONTINUOUS
 62
    30
 10
173.52941200000001
 20
-120.0
 30
0.0
  0
POINT
  5
11C
  8
DEFPOINTS
  6
CONTINUOUS
 62
    30
 10
605.84989599999994
 20
-120.0
 30
0.0
  0
LINE
  5
11D
  8
SIZE
  6
CONTINUOUS
 62
    30
 10
166.82352900000001
 20
150.0
 30
0.0
 11
758.76632400000005
 21
150.0
 31
0.0
  0
LINE
  5
11E
  8
SIZE
  6
CONTINUOUS
 62
    30
 10
166.82352900000001
 20
-150.00000499999999
 30
0.0
 11
758.76632400000005
 21
-150.00000499999999
 31
0.0
  0
LINE
  5
11F
  8
SIZE
  6
CONTINUOUS
 62
    30
 10
738.76632400000005
 20
138.0
 30
0.0
 11
738.76632400000005
 21
-138.00000499999999
 31
0.0
  0
TEXT
  5
120
  8
SIZE
  6
CONTINUOUS
 62
    30
 10
715.27972199999999
 20
-74.057144857142845
 30
0.0
 40
64.0
  1
300
 50
90.0
 41
0.9
 72
     1
 11
715.27972199999999
 21
-0.000002
 31
0.0
  0
CIRCLE
  5
121
  8
SIZE
  6
CONTINUOUS
 62
    30
 10
738.76632400000005
 20
150.0
 30
0.0
 40
6.0
  0
LINE
  5
122
  8
SIZE
  6
CONTINUOUS
 62
    30
 10
738.76632400000005
 20
150.0
 30
0.0
 11
738.76632400000005
 21
138.0
 31
0.0
  0
CIRCLE
  5
123
  8
SIZE
  6
CONTINUOUS
 62
    30
 10
738.76632400000005
 20
-150.00000499999999
 30
0.0
 40
6.0
  0
LINE
  5
124
  8
SIZE
  6
CONTINUOUS
 62
    30
 10
738.76632400000005
 20
-150.00000499999999
 30
0.0
 11
738.76632400000005
 21
-138.00000499999999
 31
0.0
  0
POINT
  5
125
  8
DEFPOINTS
  6
CONTINUOUS
 62
    30
 10
146.82352900000001
 20
150.0
 30
0.0
  0
POINT
  5
126
  8
DEFPOINTS
  6
CONTINUOUS
 62
    30
 10
146.82352900000001
 20
-150.00000499999999
 30
0.0
  0
POINT
  5
127
  8
DEFPOINTS
  6
CONTINUOUS
 62
    30
 10
738.76632400000005
 20
-150.00000499999999
 30
0.0
  0
LINE
  5
128
  8
SIZE
  6
CONTINUOUS
 62
    30
 10
471.74671399999988
 20
152.0
 30
0.0
 11
471.74671399999988
 21
403.244889
 31
0.0
  0
LINE
  5
129
  8
SIZE
  6
CONTINUOUS
 62
    30
 10
-170.00000499999999
 20
180.0
 30
0.0
 11
-489.83752399999997
 21
180.0
 31
0.0
  0
LINE
  5
12A
  8
SIZE
  6
CONTINUOUS
 62
    30
 10
-172.00000499999999
 20
-50.0
 30
0.0
 11
-489.83752399999997
 21
-50.0
 31
0.0
  0
LINE
  5
12B
  8
SIZE
  6
CONTINUOUS
 62
    30
 10
-469.83752399999997
 20
168.0
 30
0.0
 11
-469.83752399999997
 21
-38.0
 31
0.0
  0
TEXT
  5
12C
  8
SIZE
  6
CONTINUOUS
 62
    30
 10
-496.15412599999991
 20
-59.457915857142872
 30
0.0
 40
64.0
  1
φ230
 50
90.0
 41
0.9
 72
     1
 11
-496.15412599999991
 21
54.919226999999992
 31
0.0
  0
CIRCLE
  5
12D
  8
SIZE
  6
CONTINUOUS
 62
    30
 10
-469.83752399999997
 20
180.0
 30
0.0
 40
6.0
  0
LINE
  5
12E
  8
SIZE
  6
CONTINUOUS
 62
    30
 10
-469.83752399999997
 20
180.0
 30
0.0
 11
-469.83752399999997
 21
168.0
 31
0.0
  0
CIRCLE
  5
12F
  8
SIZE
  6
CONTINUOUS
 62
    30
 10
-469.83752399999997
 20
-50.0
 30
0.0
 40
6.0
  0
LINE
  5
130
  8
SIZE
  6
CONTINUOUS
 62
    30
 10
-469.83752399999997
 20
-50.0
 30
0.0
 11
-469.83752399999997
 21
-38.0
 31
0.0
  0
POINT
  5
131
  8
DEFPOINTS
  6
CONTINUOUS
 62
    30
 10
-150.00000499999999
 20
180.0
 30
0.0
  0
POINT
  5
132
  8
DEFPOINTS
  6
CONTINUOUS
 62
    30
 10
-152.00000499999999
 20
-50.0
 30
0.0
  0
POINT
  5
133
  8
DEFPOINTS
  6
CONTINUOUS
 62
    30
 10
-469.83752399999997
 20
-50.0
 30
0.0
  0
LINE
  5
134
  8
SIZE
  6
CONTINUOUS
 62
    30
 10
-166.823534
 20
150.0
 30
0.0
 11
-379.339966
 21
150.0
 31
0.0
  0
LINE
  5
135
  8
SIZE
  6
CONTINUOUS
 62
    30
 10
-223.271151
 20
65.0
 30
0.0
 11
-379.339966
 21
65.0
 31
0.0
  0
LINE
  5
136
  8
SIZE
  6
CONTINUOUS
 62
    30
 10
-359.339966
 20
138.0
 30
0.0
 11
-359.339966
 21
77.0
 31
0.0
  0
TEXT
  5
137
  8
SIZE
  6
CONTINUOUS
 62
    30
 10
-379.606515
 20
59.859095571428561
 30
0.0
 40
64.0
  1
85
 50
90.0
 41
0.9
 72
     1
 11
-379.606515
 21
106.487667
 31
0.0
  0
CIRCLE
  5
138
  8
SIZE
  6
CONTINUOUS
 62
    30
 10
-359.339966
 20
150.0
 30
0.0
 40
6.0
  0
LINE
  5
139
  8
SIZE
  6
CONTINUOUS
 62
    30
 10
-359.339966
 20
150.0
 30
0.0
 11
-359.339966
 21
138.0
 31
0.0
  0
CIRCLE
  5
13A
  8
SIZE
  6
CONTINUOUS
 62
    30
 10
-359.339966
 20
65.0
 30
0.0
 40
6.0
  0
LINE
  5
13B
  8
SIZE
  6
CONTINUOUS
 62
    30
 10
-359.339966
 20
65.0
 30
0.0
 11
-359.339966
 21
77.0
 31
0.0
  0
POINT
  5
13C
  8
DEFPOINTS
  6
CONTINUOUS
 62
    30
 10
-146.823534
 20
150.0
 30
0.0
  0
POINT
  5
13D
  8
DEFPOINTS
  6
CONTINUOUS
 62
    30
 10
-203.271151
 20
65.0
 30
0.0
  0
POINT
  5
13E
  8
DEFPOINTS
  6
CONTINUOUS
 62
    30
 10
-359.339966
 20
65.0
 30
0.0
  0
POINT
  5
13F
  8
ARRANGE
  6
CONTINUOUS
 62
     1
 10
0.0
 20
0.0
 30
0.0
  0
CIRCLE
  5
140
  8
ARRANGE
  6
CONTINUOUS
 62
     1
 10
0.0
 20
0.0
 30
0.0
 40
40.0
  0
LINE
  5
141
  8
NOTE
  6
CONTINUOUS
 62
     4
 10
120.0
 20
-150.00000499999999
 30
0.0
 11
339.103317
 21
-329.50194599999998
 31
0.0
  0
LINE
  5
142
  8
NOTE
  6
CONTINUOUS
 62
     4
 10
156.823587
 20
-165.62125
 30
0.0
 11
120.0
 21
-150.0
 31
0.0
  0
LINE
  5
143
  8
NOTE
  6
CONTINUOUS
 62
     4
 10
120.0
 20
-150.0
 30
0.0
 11
144.07953599999999
 21
-181.94019299999999
 31
0.0
  0
TEXT
  5
144
  8
NOTE
  6
CONTINUOUS
 62
     4
 10
507.57640500000002
 20
-291.30269399999997
 30
0.0
 40
64.0
  1
12-φ10×16
 41
0.9
  0
CIRCLE
  5
145
  8
FIX
  6
CONTINUOUS
 62
    11
 10
-120.0
 20
150.0
 30
0.0
 40
5.0
  0
CIRCLE
  5
146
  8
FIX
  6
CONTINUOUS
 62
    11
 10
120.0
 20
150.0
 30
0.0
 40
5.0
  0
CIRCLE
  5
147
  8
FIX
  6
CONTINUOUS
 62
    11
 10
120.0
 20
-150.0
 30
0.0
 40
5.0
  0
CIRCLE
  5
148
  8
FIX
  6
CONTINUOUS
 62
    11
 10
-120.0
 20
-150.0
 30
0.0
 40
5.0
  0
CIRCLE
  5
149
  8
FIX
  6
CONTINUOUS
 62
    11
 10
150.0
 20
120.0
 30
0.0
 40
5.0
  0
CIRCLE
  5
14A
  8
FIX
  6
CONTINUOUS
 62
    11
 10
150.0
 20
-120.0
 30
0.0
 40
5.0
  0
LINE
  5
14C
  8
BASIS
  6
DASHDOT
 62
     6
 10
133.256642
 20
-20.0
 30
0.0
 11
-131.45027400000001
 21
-20.0
 31
0.0
  0
LINE
  5
14D
  8
BASIS
  6
DASHDOT
 62
     6
 10
0.999995
 20
-144.844672
 30
0.0
 11
0.999995
 21
109.805869
 31
0.0
  0
LINE
  5
14E
  8
SIZE
  6
CONTINUOUS
 62
    30
 10
1.499995
 20
-114.051344
 30
0.0
 11
1.499995
 21
-448.55696599999999
 31
0.0
  0
LINE
  5
14F
  8
SIZE
  6
CONTINUOUS
 62
    30
 10
-150.00000499999999
 20
-165.05882800000001
 30
0.0
 11
-150.00000499999999
 21
-448.55696599999999
 31
0.0
  0
LINE
  5
150
  8
SIZE
  6
CONTINUOUS
 62
    30
 10
-10.500005
 20
-428.55696599999999
 30
0.0
 11
-138.00000499999999
 21
-428.55696599999999
 31
0.0
  0
LINE
  5
151
  8
SIZE
  6
CONTINUOUS
 62
    30
 10
-440.28915199999989
 20
-428.55696599999999
 30
0.0
 11
-150.00000499999999
 21
-428.55696599999999
 31
0.0
  0
TEXT
  5
152
  8
SIZE
  6
CONTINUOUS
 62
    30
 10
-415.2891524285713
 20
-403.55696599999999
 30
0.0
 40
64.0
  1
151.5
 41
0.9
 72
     1
 11
-311.06058100000001
 21
-403.55696599999999
 31
0.0
  0
CIRCLE
  5
153
  8
SIZE
  6
CONTINUOUS
 62
    30
 10
1.499995
 20
-428.55696599999999
 30
0.0
 40
6.0
  0
LINE
  5
154
  8
SIZE
  6
CONTINUOUS
 62
    30
 10
1.499995
 20
-428.55696599999999
 30
0.0
 11
-10.500005
 21
-428.55696599999999
 31
0.0
  0
CIRCLE
  5
155
  8
SIZE
  6
CONTINUOUS
 62
    30
 10
-150.00000499999999
 20
-428.55696599999999
 30
0.0
 40
6.0
  0
LINE
  5
156
  8
SIZE
  6
CONTINUOUS
 62
    30
 10
-150.00000499999999
 20
-428.55696599999999
 30
0.0
 11
-138.00000499999999
 21
-428.55696599999999
 31
0.0
  0
POINT
  5
157
  8
DEFPOINTS
  6
CONTINUOUS
 62
    30
 10
1.499995
 20
-94.051343999999986
 30
0.0
  0
POINT
  5
158
  8
DEFPOINTS
  6
CONTINUOUS
 62
    30
 10
-150.00000499999999
 20
-145.05882800000001
 30
0.0
  0
POINT
  5
159
  8
DEFPOINTS
  6
CONTINUOUS
 62
    30
 10
-150.00000499999999
 20
-428.55696599999999
 30
0.0
  0
TEXT
  5
15A
  8
NOTE
  6
CONTINUOUS
 62
     4
 10
352.61844300000001
 20
-291.30269399999997
 30
0.0
 40
64.0
  1
AH
 41
0.9
  0
TEXT
  5
15B
  8
NOTE
  6
CONTINUOUS
 62
     4
 10
-343.23051900000002
 20
21.541219000000002
 30
0.0
 40
64.0
  1
出口
 41
0.9
  0
TEXT
  5
15C
  8
NOTE
  6
CONTINUOUS
 62
     4
 10
-59.628211
 20
106.330691
 30
0.0
 40
64.0
  1
入口
 41
0.9
  0
LINE
  5
15D
  8
NOTE
  6
CONTINUOUS
 62
     4
 10
829.88423
 20
-329.50194599999998
 30
0.0
 11
1010.4589999999999
 21
-329.50194599999998
 31
0.0
  0
CIRCLE
  5
15E
  8
DETAIL
  6
CONTINUOUS
 62
     5
 10
1.499995
 20
-20.5
 30
0.0
 40
110.0
  0
LINE
  5
15F
  8
SIZE
  6
CONTINUOUS
 62
    30
 10
166.82352900000001
 20
150.0
 30
0.0
 11
359.84204099999999
 21
150.0
 31
0.0
  0
LINE
  5
160
  8
SIZE
  6
CONTINUOUS
 62
    30
 10
153.256642
 20
-20.0
 30
0.0
 11
359.84204099999999
 21
-20.0
 31
0.0
  0
LINE
  5
161
  8
SIZE
  6
CONTINUOUS
 62
    30
 10
339.84204099999999
 20
138.0
 30
0.0
 11
339.84204099999999
 21
-8.0
 31
0.0
  0
LINE
  5
162
  8
SIZE
  6
CONTINUOUS
 62
    30
 10
339.84204099999999
 20
378.113021
 30
0.0
 11
339.84204099999999
 21
150.0
 31
0.0
  0
TEXT
  5
163
  8
SIZE
  6
CONTINUOUS
 62
    30
 10
314.84204099999999
 20
215.97016442857151
 30
0.0
 40
64.0
  1
170
 50
90.0
 41
0.9
 72
     1
 11
314.84204099999999
 21
284.54159300000009
 31
0.0
  0
CIRCLE
  5
164
  8
SIZE
  6
CONTINUOUS
 62
    30
 10
339.84204099999999
 20
150.0
 30
0.0
 40
6.0
  0
LINE
  5
165
  8
SIZE
  6
CONTINUOUS
 62
    30
 10
339.84204099999999
 20
150.0
 30
0.0
 11
339.84204099999999
 21
138.0
 31
0.0
  0
CIRCLE
  5
166
  8
SIZE
  6
CONTINUOUS
 62
    30
 10
339.84204099999999
 20
-20.0
 30
0.0
 40
6.0
  0
LINE
  5
167
  8
SIZE
  6
CONTINUOUS
 62
    30
 10
339.84204099999999
 20
-20.0
 30
0.0
 11
339.84204099999999
 21
-8.0
 31
0.0
  0
POINT
  5
168
  8
DEFPOINTS
  6
CONTINUOUS
 62
    30
 10
146.82352900000001
 20
150.0
 30
0.0
  0
POINT
  5
169
  8
DEFPOINTS
  6
CONTINUOUS
 62
    30
 10
133.256642
 20
-20.0
 30
0.0
  0
POINT
  5
16A
  8
DEFPOINTS
  6
CONTINUOUS
 62
    30
 10
339.84204099999999
 20
-20.0
 30
0.0
  0
LINE
  5
16B
  8
SIZE
  6
CONTINUOUS
 62
    30
 10
-150.00000499999999
 20
-165.05882800000001
 30
0.0
 11
-150.00000499999999
 21
-315.97348699999998
 31
0.0
  0
LINE
  5
16C
  8
SIZE
  6
CONTINUOUS
 62
    30
 10
0.999995
 20
-164.844672
 30
0.0
 11
0.999995
 21
-315.97348699999998
 31
0.0
  0
LINE
  5
16D
  8
SIZE
  6
CONTINUOUS
 62
    30
 10
-138.00000499999999
 20
-295.97348700000009
 30
0.0
 11
-11.000005
 21
-295.97348700000009
 31
0.0
  0
LINE
  5
16E
  8
SIZE
  6
CONTINUOUS
 62
    30
 10
-341.99440399999997
 20
-295.97348700000009
 30
0.0
 11
-150.00000499999999
 21
-295.97348700000009
 31
0.0
  0
TEXT
  5
16F
  8
SIZE
  6
CONTINUOUS
 62
    30
 10
-316.99440342857139
 20
-270.97348700000009
 30
0.0
 40
64.0
  1
151
 41
0.9
 72
     1
 11
-260.76583199999999
 21
-270.97348700000009
 31
0.0
  0
CIRCLE
  5
170
  8
SIZE
  6
CONTINUOUS
 62
    30
 10
-150.00000499999999
 20
-295.97348700000009
 30
0.0
 40
6.0
  0
LINE
  5
171
  8
SIZE
  6
CONTINUOUS
 62
    30
 10
-150.00000499999999
 20
-295.97348700000009
 30
0.0
 11
-138.00000499999999
 21
-295.97348700000009
 31
0.0
  0
CIRCLE
  5
172
  8
SIZE
  6
CONTINUOUS
 62
    30
 10
0.999995
 20
-295.97348700000009
 30
0.0
 40
6.0
  0
LINE
  5
173
  8
SIZE
  6
CONTINUOUS
 62
    30
 10
0.999995
 20
-295.97348700000009
 30
0.0
 11
-11.000005
 21
-295.97348700000009
 31
0.0
  0
POINT
  5
174
  8
DEFPOINTS
  6
CONTINUOUS
 62
    30
 10
-150.00000499999999
 20
-145.05882800000001
 30
0.0
  0
POINT
  5
175
  8
DEFPOINTS
  6
CONTINUOUS
 62
    30
 10
0.999995
 20
-144.844672
 30
0.0
  0
POINT
  5
176
  8
DEFPOINTS
  6
CONTINUOUS
 62
    30
 10
0.999995
 20
-295.97348700000009
 30
0.0
  0
TEXT
  5
17F
  8
ETC
  6
CONTINUOUS
 62
    61
 10
569.94288487002609
 20
446.48334174246492
 30
0.0
 40
64.0
  1
産業扇
 41
0.9
  0
TEXT
  5
180
  8
ETC
  6
CONTINUOUS
 62
    61
 10
565.11061687002609
 20
557.8279717424648
 30
0.0
 40
64.0
  1
BF-19S3_4
 41
0.9
  0
TEXT
  5
181
  8
ETC
  6
CONTINUOUS
 62
    61
 10
653.80682697757436
 20
336.62954051610609
 30
0.0
 40
64.0
  1
BF-19S3
 41
0.9
  0
TEXT
  5
182
  8
ETC
  6
CONTINUOUS
 62
    61
 10
653.80682697757436
 20
233.69751309624971
 30
0.0
 40
64.0
  1
BF-19T3
 41
0.9
  0
ENDSEC
  0
EOF
