  0
SECTION
  2
HEADER
  9
$ACADVER
  1
AC1009
  9
$INSBASE
 10
0.0
 20
0.0
 30
0.0
  9
$EXTMIN
 10
-580.34760400000027
 20
-740.64846999999997
 30
0.0
  9
$EXTMAX
 10
1096.6510393765971
 20
682.95334387845992
 30
0.0
  9
$LIMMIN
 10
-2970.0
 20
-2100.0
  9
$LIMMAX
 10
2970.0
 20
2100.0
  9
$ORTHOMODE
 70
     1
  9
$REGENMODE
 70
     0
  9
$FILLMODE
 70
     1
  9
$QTEXTMODE
 70
     0
  9
$MIRRTEXT
 70
     0
  9
$DRAGMODE
 70
     2
  9
$LTSCALE
 40
20.0
  9
$OSMODE
 70
    37
  9
$ATTMODE
 70
     1
  9
$TEXTSIZE
 40
64.0
  9
$TRACEWID
 40
0.05
  9
$TEXTSTYLE
  7
STANDARD
  9
$CLAYER
  8
SIZE
  9
$CELTYPE
  6
CONTINUOUS
  9
$CECOLOR
 62
    30
  9
$DIMSCALE
 40
1.0
  9
$DIMASZ
 40
12.0
  9
$DIMEXO
 40
20.0
  9
$DIMDLI
 40
200.0
  9
$DIMRND
 40
0.0
  9
$DIMDLE
 40
0.0
  9
$DIMEXE
 40
20.0
  9
$DIMTP
 40
0.0
  9
$DIMTM
 40
0.0
  9
$DIMTXT
 40
64.0
  9
$DIMCEN
 40
0.09
  9
$DIMTSZ
 40
0.0
  9
$DIMTOL
 70
     0
  9
$DIMLIM
 70
     0
  9
$DIMTIH
 70
     0
  9
$DIMTOH
 70
     0
  9
$DIMSE1
 70
     0
  9
$DIMSE2
 70
     0
  9
$DIMTAD
 70
     1
  9
$DIMZIN
 70
     8
  9
$DIMBLK
  1
DOT1
  9
$DIMASO
 70
     1
  9
$DIMSHO
 70
     0
  9
$DIMPOST
  1

  9
$DIMAPOST
  1

  9
$DIMALT
 70
     0
  9
$DIMALTD
 70
     2
  9
$DIMALTF
 40
25.399999999999999
  9
$DIMLFAC
 40
1.0
  9
$DIMTOFL
 70
     1
  9
$DIMTVP
 40
0.0
  9
$DIMTIX
 70
     1
  9
$DIMSOXD
 70
     0
  9
$DIMSAH
 70
     1
  9
$DIMBLK1
  1
ORIGIN
  9
$DIMBLK2
  1
ORIGIN
  9
$DIMSTYLE
  2
STANDARD
  9
$DIMCLRD
 70
     0
  9
$DIMCLRE
 70
     0
  9
$DIMCLRT
 70
     0
  9
$DIMTFAC
 40
1.0
  9
$DIMGAP
 40
0.09
  9
$LUNITS
 70
     2
  9
$LUPREC
 70
     4
  9
$SKETCHINC
 40
0.1
  9
$FILLETRAD
 40
4.0
  9
$AUNITS
 70
     1
  9
$AUPREC
 70
     3
  9
$MENU
  1
ACAD
  9
$ELEVATION
 40
0.0
  9
$PELEVATION
 40
0.0
  9
$THICKNESS
 40
50.0
  9
$LIMCHECK
 70
     0
  9
$BLIPMODE
 70
     0
  9
$CHAMFERA
 40
0.0
  9
$CHAMFERB
 40
0.0
  9
$SKPOLY
 70
     0
  9
$TDCREATE
 40
2452321.3961996529
  9
$TDUPDATE
 40
2454923.6828837609
  9
$TDINDWG
 40
0.1215429167
  9
$TDUSRTIMER
 40
0.1215429167
  9
$USRTIMER
 70
     1
  9
$ANGBASE
 50
0.0
  9
$ANGDIR
 70
     0
  9
$PDMODE
 70
     3
  9
$PDSIZE
 40
-2.0
  9
$PLINEWID
 40
0.0
  9
$COORDS
 70
     0
  9
$SPLFRAME
 70
     0
  9
$SPLINETYPE
 70
     6
  9
$SPLINESEGS
 70
     8
  9
$ATTDIA
 70
     0
  9
$ATTREQ
 70
     1
  9
$HANDLING
 70
     1
  9
$HANDSEED
  5
1B9
  9
$SURFTAB1
 70
     6
  9
$SURFTAB2
 70
     6
  9
$SURFTYPE
 70
     6
  9
$SURFU
 70
     6
  9
$SURFV
 70
     6
  9
$UCSNAME
  2

  9
$UCSORG
 10
0.0
 20
0.0
 30
0.0
  9
$UCSXDIR
 10
1.0
 20
0.0
 30
0.0
  9
$UCSYDIR
 10
0.0
 20
1.0
 30
0.0
  9
$PUCSNAME
  2

  9
$PUCSORG
 10
0.0
 20
0.0
 30
0.0
  9
$PUCSXDIR
 10
1.0
 20
0.0
 30
0.0
  9
$PUCSYDIR
 10
0.0
 20
1.0
 30
0.0
  9
$USERI1
 70
     0
  9
$USERI2
 70
     0
  9
$USERI3
 70
     0
  9
$USERI4
 70
     0
  9
$USERI5
 70
     0
  9
$USERR1
 40
20.0
  9
$USERR2
 40
0.0
  9
$USERR3
 40
0.0
  9
$USERR4
 40
0.0
  9
$USERR5
 40
0.0
  9
$WORLDVIEW
 70
     1
  9
$SHADEDGE
 70
     3
  9
$SHADEDIF
 70
    70
  9
$TILEMODE
 70
     1
  9
$MAXACTVP
 70
    64
  9
$PLIMCHECK
 70
     0
  9
$PEXTMIN
 10
1.0000000000000000E+020
 20
1.0000000000000000E+020
 30
1.0000000000000000E+020
  9
$PEXTMAX
 10
-1.0000000000000000E+020
 20
-1.0000000000000000E+020
 30
-1.0000000000000000E+020
  9
$PLIMMIN
 10
0.0
 20
0.0
  9
$PLIMMAX
 10
12.0
 20
9.0
  9
$UNITMODE
 70
     0
  9
$VISRETAIN
 70
     1
  9
$PLINEGEN
 70
     0
  9
$PSLTSCALE
 70
     1
  0
ENDSEC
  0
SECTION
  2
TABLES
  0
TABLE
  2
VPORT
 70
     1
  0
VPORT
  2
*ACTIVE
 70
     0
 10
0.0
 20
0.0
 11
1.0
 21
1.0
 12
93.050854721327823
 22
-4.8955662166736138
 13
0.0
 23
0.0
 14
1.0
 24
1.0
 15
0.0
 25
0.0
 16
0.0
 26
0.0
 36
1.0
 17
0.0
 27
0.0
 37
0.0
 40
1772.7062112872441
 41
1.3098995695839311
 42
50.0
 43
0.0
 44
0.0
 50
0.0
 51
0.0
 71
     0
 72
   100
 73
     1
 74
     0
 75
     0
 76
     0
 77
     0
 78
     0
  0
ENDTAB
  0
TABLE
  2
LTYPE
 70
     3
  0
LTYPE
  2
CONTINUOUS
 70
     0
  3
実線
 72
    65
 73
     0
 40
0.0
  0
LTYPE
  2
DASHDOT
 70
     0
  3
____ _ ____ _ ____ _ ____ _ ____ _ ____ _ ____
 72
    65
 73
     4
 40
5.5
 49
4.0
 49
-0.6
 49
0.3
 49
-0.6
  0
ENDTAB
  0
TABLE
  2
LAYER
 70
    12
  0
LAYER
  2
0
 70
     0
 62
     7
  6
CONTINUOUS
  0
LAYER
  2
SIZE
 70
     0
 62
     4
  6
CONTINUOUS
  0
LAYER
  2
BASIS
 70
     0
 62
     6
  6
DASHDOT
  0
LAYER
  2
OUTLINE
 70
     0
 62
     3
  6
CONTINUOUS
  0
LAYER
  2
DETAIL
 70
     0
 62
     5
  6
CONTINUOUS
  0
LAYER
  2
ARRANGE
 70
     0
 62
     1
  6
CONTINUOUS
  0
LAYER
  2
DEFPOINTS
 70
     0
 62
     7
  6
CONTINUOUS
  0
LAYER
  2
ETC
 70
     0
 62
    61
  6
CONTINUOUS
  0
LAYER
  2
FIX
 70
     0
 62
     7
  6
CONTINUOUS
  0
LAYER
  2
NOTE
 70
     0
 62
     4
  6
CONTINUOUS
  0
LAYER
  2
SERVICESPACE
 70
     0
 62
     2
  6
DASHDOT
  0
LAYER
  2
SYMBOLLINE
 70
     0
 62
    15
  6
CONTINUOUS
  0
ENDTAB
  0
TABLE
  2
STYLE
 70
     2
  0
STYLE
  2
STANDARD
 70
     0
 40
64.0
 41
0.9
 50
0.0
 71
     0
 42
64.0
  3
SIMPLEX.shx
  4
BIGFONT.shx
  0
STYLE
  2
ANNOTATIVE
 70
     0
 40
0.0
 41
1.0
 50
0.0
 71
     0
 42
0.2
  3
txt
  4

  0
ENDTAB
  0
TABLE
  2
VIEW
 70
     1
  0
VIEW
  2
ALL
 70
     0
 40
4282.6198079999986
 10
0.0
 20
41.309903999999989
 41
5940.0
 11
0.0
 21
0.0
 31
1.0
 12
0.0
 22
0.0
 32
0.0
 42
50.0
 43
0.0
 44
0.0
 50
0.0
 71
     0
  0
ENDTAB
  0
TABLE
  2
UCS
 70
     0
  0
ENDTAB
  0
TABLE
  2
APPID
 70
     4
  0
APPID
  2
ACAD
 70
     0
  0
APPID
  2
ACADANNOTATIVE
 70
     0
  0
APPID
  2
ACAD_MLEADERVER
 70
     0
  0
APPID
  2
ACAD_EXEMPT_FROM_CAD_STANDARDS
 70
     0
  0
ENDTAB
  0
TABLE
  2
DIMSTYLE
 70
     2
  0
DIMSTYLE
  2
STANDARD
 70
     0
  3

  4

  5

  6

  7

 40
1.0
 41
0.18
 42
0.0625
 43
0.38
 44
0.18
 45
0.0
 46
0.0
 47
0.0
 48
0.0
140
0.18
141
0.09
142
0.0
143
25.399999999999999
144
1.0
145
0.0
146
1.0
147
0.09
 71
     0
 72
     0
 73
     1
 74
     1
 75
     0
 76
     0
 77
     0
 78
     0
170
     0
171
     2
172
     0
173
     0
174
     0
175
     0
176
     0
177
     0
178
     0
  0
DIMSTYLE
  2
ANNOTATIVE
 70
     0
  3

  4

  5

  6

  7

 40
1.0
 41
0.18
 42
0.0625
 43
0.38
 44
0.18
 45
0.0
 46
0.0
 47
0.0
 48
0.0
140
0.18
141
0.09
142
0.0
143
25.399999999999999
144
1.0
145
0.0
146
1.0
147
0.09
 71
     0
 72
     0
 73
     1
 74
     1
 75
     0
 76
     0
 77
     0
 78
     0
170
     0
171
     2
172
     0
173
     0
174
     0
175
     0
176
     0
177
     0
178
     0
  0
ENDTAB
  0
ENDSEC
  0
SECTION
  2
BLOCKS
  0
BLOCK
  8
0
  2
$MODEL_SPACE
 70
     0
 10
0.0
 20
0.0
 30
0.0
  3
$MODEL_SPACE
  1

  0
ENDBLK
  5
76
  8
0
  0
BLOCK
 67
     1
  8
0
  2
$PAPER_SPACE
 70
     0
 10
0.0
 20
0.0
 30
0.0
  3
$PAPER_SPACE
  1

  0
ENDBLK
  5
72
 67
     1
  8
0
  0
BLOCK
  8
0
  2
DOT1
 70
     0
 10
0.0
 20
0.0
 30
0.0
  3
DOT1
  1

  0
CIRCLE
  5
8B
  8
SIZE
  6
CONTINUOUS
 62
     7
 10
0.0
 20
0.0
 30
0.0
 40
3.0
  0
ENDBLK
  5
8C
  8
0
  0
BLOCK
  8
0
  2
_ORIGIN
 70
     0
 10
0.0
 20
0.0
 30
0.0
  3
_ORIGIN
  1

  0
CIRCLE
  5
8F
  8
0
  6
CONTINUOUS
 62
     7
 10
0.0
 20
0.0
 30
0.0
 40
0.5
  0
LINE
  5
90
  8
0
  6
CONTINUOUS
 62
     7
 10
0.0
 20
0.0
 30
0.0
 11
-1.0
 21
0.0
 31
0.0
  0
ENDBLK
  5
91
  8
0
  0
ENDSEC
  0
SECTION
  2
ENTITIES
  0
LINE
  5
93
  8
DETAIL
  6
CONTINUOUS
 62
     5
 10
-165.00000499999999
 20
-25.0
 30
0.0
 11
-167.200005
 21
-25.0
 31
0.0
  0
LINE
  5
94
  8
DETAIL
  6
CONTINUOUS
 62
     5
 10
-167.200005
 20
-25.0
 30
0.0
 11
-167.200005
 21
139.97058799999999
 31
0.0
  0
LINE
  5
95
  8
DETAIL
  6
CONTINUOUS
 62
     5
 10
-165.00000499999999
 20
205.0
 30
0.0
 11
-167.200005
 21
205.0
 31
0.0
  0
LINE
  5
96
  8
DETAIL
  6
CONTINUOUS
 62
     5
 10
-167.200005
 20
139.97058799999999
 30
0.0
 11
-167.200005
 21
205.0
 31
0.0
  0
LINE
  5
97
  8
OUTLINE
  6
CONTINUOUS
 62
     3
 10
-161.505888
 20
165.0
 30
0.0
 11
161.50588200000001
 21
165.0
 31
0.0
  0
LINE
  5
98
  8
OUTLINE
  6
CONTINUOUS
 62
     3
 10
-165.00000499999999
 20
159.564706
 30
0.0
 11
-165.00000499999999
 21
198.0
 31
0.0
  0
ARC
  5
99
  8
OUTLINE
  6
CONTINUOUS
 62
     3
 10
-161.505888
 20
159.564706
 30
0.0
 40
3.4941179999999989
 50
90.0
 51
180.0
  0
LINE
  5
9A
  8
OUTLINE
  6
CONTINUOUS
 62
     3
 10
-165.00000499999999
 20
-80.259761999999995
 30
0.0
 11
-165.00000499999999
 21
159.564706
 31
0.0
  0
LINE
  5
9B
  8
OUTLINE
  6
CONTINUOUS
 62
     3
 10
-165.00000499999999
 20
-159.56471099999999
 30
0.0
 11
-165.00000499999999
 21
-80.259761999999995
 31
0.0
  0
LINE
  5
9C
  8
OUTLINE
  6
CONTINUOUS
 62
     3
 10
161.50588200000001
 20
-165.00000499999999
 30
0.0
 11
-161.505888
 21
-165.00000499999999
 31
0.0
  0
ARC
  5
9D
  8
OUTLINE
  6
CONTINUOUS
 62
     3
 10
161.50588200000001
 20
-159.56471099999999
 30
0.0
 40
3.4941179999999989
 50
270.0
 51
0.0
  0
LINE
  5
9E
  8
OUTLINE
  6
CONTINUOUS
 62
     3
 10
165.0
 20
-159.56471099999999
 30
0.0
 11
165.0
 21
159.564706
 31
0.0
  0
ARC
  5
9F
  8
OUTLINE
  6
CONTINUOUS
 62
     3
 10
161.50588200000001
 20
159.564706
 30
0.0
 40
3.4941179999999989
 50
0.0
 51
90.0
  0
LINE
  5
A0
  8
OUTLINE
  6
CONTINUOUS
 62
     3
 10
161.50588200000001
 20
163.05882299999999
 30
0.0
 11
161.50588200000001
 21
165.0
 31
0.0
  0
LINE
  5
A1
  8
OUTLINE
  6
CONTINUOUS
 62
     3
 10
161.50588200000001
 20
-163.058829
 30
0.0
 11
161.50588200000001
 21
-165.00000499999999
 31
0.0
  0
ARC
  5
A2
  8
OUTLINE
  6
CONTINUOUS
 62
     3
 10
-161.505888
 20
-159.56471099999999
 30
0.0
 40
3.4941179999999989
 50
180.0
 51
270.0
  0
LINE
  5
A3
  8
OUTLINE
  6
CONTINUOUS
 62
     3
 10
-161.505888
 20
-163.058829
 30
0.0
 11
-161.505888
 21
-165.00000499999999
 31
0.0
  0
LINE
  5
A4
  8
OUTLINE
  6
CONTINUOUS
 62
     3
 10
-161.505888
 20
163.05882299999999
 30
0.0
 11
-161.505888
 21
165.0
 31
0.0
  0
LINE
  5
A5
  8
DETAIL
  6
CONTINUOUS
 62
     5
 10
-0.000005
 20
-163.058829
 30
0.0
 11
-161.505888
 21
-163.058829
 31
0.0
  0
LINE
  5
A6
  8
DETAIL
  6
CONTINUOUS
 62
     5
 10
-0.000005
 20
-165.00000499999999
 30
0.0
 11
-161.505888
 21
-165.00000499999999
 31
0.0
  0
LINE
  5
A7
  8
BASIS
  6
DASHDOT
 62
     6
 10
-223.59826699999999
 20
90.0
 30
0.0
 11
-143.810419
 21
90.0
 31
0.0
  0
LINE
  5
A8
  8
BASIS
  6
DASHDOT
 62
     6
 10
-178.207615
 20
0.0
 30
0.0
 11
176.43919700000001
 21
0.0
 31
0.0
  0
LINE
  5
A9
  8
DETAIL
  6
CONTINUOUS
 62
     5
 10
149.47058799999999
 20
-163.058829
 30
0.0
 11
149.47058799999999
 21
-161.11765199999999
 31
0.0
  0
LINE
  5
AA
  8
DETAIL
  6
CONTINUOUS
 62
     5
 10
-149.47059300000001
 20
-163.058829
 30
0.0
 11
-149.47059300000001
 21
-161.11765199999999
 31
0.0
  0
LINE
  5
AB
  8
DETAIL
  6
CONTINUOUS
 62
     5
 10
-149.47059300000001
 20
163.05882299999999
 30
0.0
 11
-149.47059300000001
 21
161.11764700000001
 31
0.0
  0
LINE
  5
AC
  8
DETAIL
  6
CONTINUOUS
 62
     5
 10
149.47058799999999
 20
163.05882299999999
 30
0.0
 11
149.47058799999999
 21
161.11764700000001
 31
0.0
  0
LINE
  5
AD
  8
DETAIL
  6
CONTINUOUS
 62
     5
 10
-165.00000499999999
 20
-80.259761999999995
 30
0.0
 11
-165.00000499999999
 21
159.564706
 31
0.0
  0
LINE
  5
AE
  8
DETAIL
  6
CONTINUOUS
 62
     5
 10
-163.058829
 20
-80.392983000000001
 30
0.0
 11
-163.058829
 21
159.564706
 31
0.0
  0
ARC
  5
AF
  8
DETAIL
  6
CONTINUOUS
 62
     5
 10
-161.505888
 20
159.564706
 30
0.0
 40
1.552940999999999
 50
90.0
 51
180.0
  0
ARC
  5
B0
  8
DETAIL
  6
CONTINUOUS
 62
     5
 10
-161.505888
 20
159.564706
 30
0.0
 40
3.4941179999999989
 50
90.0
 51
180.0
  0
LINE
  5
B1
  8
DETAIL
  6
CONTINUOUS
 62
     5
 10
-161.505888
 20
163.05882299999999
 30
0.0
 11
-161.505888
 21
165.0
 31
0.0
  0
LINE
  5
B2
  8
DETAIL
  6
CONTINUOUS
 62
     5
 10
-161.505888
 20
163.05882299999999
 30
0.0
 11
161.50588200000001
 21
163.05882299999999
 31
0.0
  0
LINE
  5
B3
  8
DETAIL
  6
CONTINUOUS
 62
     5
 10
-161.505888
 20
165.0
 30
0.0
 11
161.50588200000001
 21
165.0
 31
0.0
  0
LINE
  5
B4
  8
DETAIL
  6
CONTINUOUS
 62
     5
 10
-149.47059300000001
 20
161.11764700000001
 30
0.0
 11
-161.505888
 21
161.11764700000001
 31
0.0
  0
ARC
  5
B5
  8
DETAIL
  6
CONTINUOUS
 62
     5
 10
-161.505888
 20
-159.56471099999999
 30
0.0
 40
1.552940999999999
 50
180.0
 51
270.0
  0
ARC
  5
B6
  8
DETAIL
  6
CONTINUOUS
 62
     5
 10
-161.505888
 20
-159.56471099999999
 30
0.0
 40
3.4941179999999989
 50
180.0
 51
270.0
  0
LINE
  5
B7
  8
DETAIL
  6
CONTINUOUS
 62
     5
 10
-161.505888
 20
-163.058829
 30
0.0
 11
-161.505888
 21
-165.00000499999999
 31
0.0
  0
LINE
  5
B8
  8
DETAIL
  6
CONTINUOUS
 62
     5
 10
-149.47059300000001
 20
-161.11765199999999
 30
0.0
 11
-161.505888
 21
-161.11765199999999
 31
0.0
  0
LINE
  5
B9
  8
DETAIL
  6
CONTINUOUS
 62
     5
 10
-163.058829
 20
-159.56471099999999
 30
0.0
 11
-163.058829
 21
-80.392983000000001
 31
0.0
  0
LINE
  5
BA
  8
DETAIL
  6
CONTINUOUS
 62
     5
 10
-165.00000499999999
 20
-159.56471099999999
 30
0.0
 11
-165.00000499999999
 21
-80.259761999999995
 31
0.0
  0
LINE
  5
BB
  8
DETAIL
  6
CONTINUOUS
 62
     5
 10
161.50588200000001
 20
-163.058829
 30
0.0
 11
-0.000005
 21
-163.058829
 31
0.0
  0
LINE
  5
BC
  8
DETAIL
  6
CONTINUOUS
 62
     5
 10
161.50588200000001
 20
-165.00000499999999
 30
0.0
 11
-0.000005
 21
-165.00000499999999
 31
0.0
  0
ARC
  5
BD
  8
DETAIL
  6
CONTINUOUS
 62
     5
 10
161.50588200000001
 20
-159.56471099999999
 30
0.0
 40
3.4941179999999989
 50
270.0
 51
0.0
  0
ARC
  5
BE
  8
DETAIL
  6
CONTINUOUS
 62
     5
 10
161.50588200000001
 20
-159.56471099999999
 30
0.0
 40
1.552940999999999
 50
270.0
 51
0.0
  0
LINE
  5
BF
  8
DETAIL
  6
CONTINUOUS
 62
     5
 10
149.47058799999999
 20
-161.11765199999999
 30
0.0
 11
161.50588200000001
 21
-161.11765199999999
 31
0.0
  0
LINE
  5
C0
  8
DETAIL
  6
CONTINUOUS
 62
     5
 10
161.50588200000001
 20
-163.058829
 30
0.0
 11
161.50588200000001
 21
-165.00000499999999
 31
0.0
  0
LINE
  5
C1
  8
DETAIL
  6
CONTINUOUS
 62
     5
 10
163.05882299999999
 20
-159.56471099999999
 30
0.0
 11
163.05882299999999
 21
159.564706
 31
0.0
  0
LINE
  5
C2
  8
DETAIL
  6
CONTINUOUS
 62
     5
 10
165.0
 20
-159.56471099999999
 30
0.0
 11
165.0
 21
159.564706
 31
0.0
  0
LINE
  5
C3
  8
DETAIL
  6
CONTINUOUS
 62
     5
 10
161.50588200000001
 20
163.05882299999999
 30
0.0
 11
161.50588200000001
 21
165.0
 31
0.0
  0
ARC
  5
C4
  8
DETAIL
  6
CONTINUOUS
 62
     5
 10
161.50588200000001
 20
159.564706
 30
0.0
 40
3.4941179999999989
 50
0.0
 51
90.0
  0
ARC
  5
C5
  8
DETAIL
  6
CONTINUOUS
 62
     5
 10
161.50588200000001
 20
159.564706
 30
0.0
 40
1.552940999999999
 50
0.0
 51
90.0
  0
LINE
  5
C6
  8
DETAIL
  6
CONTINUOUS
 62
     5
 10
149.47058799999999
 20
161.11764700000001
 30
0.0
 11
161.50588200000001
 21
161.11764700000001
 31
0.0
  0
LINE
  5
C7
  8
DETAIL
  6
CONTINUOUS
 62
     5
 10
-165.00000499999999
 20
-78.670500000000004
 30
0.0
 11
-165.00000499999999
 21
159.564706
 31
0.0
  0
LINE
  5
C8
  8
DETAIL
  6
CONTINUOUS
 62
     5
 10
-165.00000499999999
 20
159.56470400000001
 30
0.0
 11
-165.00000499999999
 21
205.0
 31
0.0
  0
LINE
  5
C9
  8
BASIS
  6
DASHDOT
 62
     6
 10
0.0
 20
204.73232400000001
 30
0.0
 11
0.0
 21
-206.306161
 31
0.0
  0
LINE
  5
CA
  8
BASIS
  6
DASHDOT
 62
     6
 10
76.639360999999994
 20
-22.5
 30
0.0
 11
-70.167124999999999
 21
-22.5
 31
0.0
  0
LINE
  5
CC
  8
SIZE
  6
CONTINUOUS
 62
    30
 10
109.000005
 20
-1.0
 30
0.0
 11
109.000005
 21
309.78177499999998
 31
0.0
  0
LINE
  5
CD
  8
SIZE
  6
CONTINUOUS
 62
    30
 10
-109.000005
 20
-1.0
 30
0.0
 11
-109.000005
 21
309.78177499999998
 31
0.0
  0
LINE
  5
CE
  8
SIZE
  6
CONTINUOUS
 62
    30
 10
97.000005000000016
 20
289.78177499999998
 30
0.0
 11
-97.000005000000016
 21
289.78177499999998
 31
0.0
  0
TEXT
  5
CF
  8
SIZE
  6
CONTINUOUS
 62
    30
 10
-127.8593978571428
 20
317.03077300000001
 30
0.0
 40
64.0
  1
φ230
 41
0.9
 72
     1
 11
-13.482255
 21
317.03077300000001
 31
0.0
  0
CIRCLE
  5
D0
  8
SIZE
  6
CONTINUOUS
 62
    30
 10
109.000005
 20
289.78177499999998
 30
0.0
 40
6.0
  0
LINE
  5
D1
  8
SIZE
  6
CONTINUOUS
 62
    30
 10
109.000005
 20
289.78177499999998
 30
0.0
 11
97.000005000000016
 21
289.78177499999998
 31
0.0
  0
CIRCLE
  5
D2
  8
SIZE
  6
CONTINUOUS
 62
    30
 10
-109.000005
 20
289.78177499999998
 30
0.0
 40
6.0
  0
LINE
  5
D3
  8
SIZE
  6
CONTINUOUS
 62
    30
 10
-109.000005
 20
289.78177499999998
 30
0.0
 11
-97.000005000000016
 21
289.78177499999998
 31
0.0
  0
POINT
  5
D4
  8
DEFPOINTS
  6
CONTINUOUS
 62
    30
 10
109.000005
 20
-21.0
 30
0.0
  0
POINT
  5
D5
  8
DEFPOINTS
  6
CONTINUOUS
 62
    30
 10
-109.000005
 20
-21.0
 30
0.0
  0
POINT
  5
D6
  8
DEFPOINTS
  6
CONTINUOUS
 62
    30
 10
-109.000005
 20
289.78177499999998
 30
0.0
  0
LINE
  5
D7
  8
NOTE
  6
CONTINUOUS
 62
     4
 10
-125.0
 20
141.47058000000001
 30
0.0
 11
-125.0
 21
188.52941999999999
 31
0.0
  0
LINE
  5
D8
  8
NOTE
  6
CONTINUOUS
 62
     4
 10
-148.52941999999999
 20
165.0
 30
0.0
 11
-101.47058
 21
165.0
 31
0.0
  0
CIRCLE
  5
D9
  8
FIX
  6
CONTINUOUS
 62
    11
 10
-125.0
 20
165.0
 30
0.0
 40
6.0
  0
LINE
  5
DA
  8
NOTE
  6
CONTINUOUS
 62
     4
 10
125.0
 20
141.47058000000001
 30
0.0
 11
125.0
 21
188.52941999999999
 31
0.0
  0
LINE
  5
DB
  8
NOTE
  6
CONTINUOUS
 62
     4
 10
101.47058
 20
165.0
 30
0.0
 11
148.52941999999999
 21
165.0
 31
0.0
  0
CIRCLE
  5
DC
  8
FIX
  6
CONTINUOUS
 62
    11
 10
125.0
 20
165.0
 30
0.0
 40
6.0
  0
CIRCLE
  5
DD
  8
FIX
  6
CONTINUOUS
 62
    11
 10
-125.0
 20
-165.0
 30
0.0
 40
6.0
  0
LINE
  5
DE
  8
NOTE
  6
CONTINUOUS
 62
     4
 10
-125.0
 20
-141.47058000000001
 30
0.0
 11
-125.0
 21
-188.52941999999999
 31
0.0
  0
LINE
  5
DF
  8
NOTE
  6
CONTINUOUS
 62
     4
 10
-148.52941999999999
 20
-165.0
 30
0.0
 11
-101.47058
 21
-165.0
 31
0.0
  0
CIRCLE
  5
E0
  8
FIX
  6
CONTINUOUS
 62
    11
 10
125.0
 20
-165.0
 30
0.0
 40
6.0
  0
LINE
  5
E1
  8
NOTE
  6
CONTINUOUS
 62
     4
 10
125.0
 20
-141.47058000000001
 30
0.0
 11
125.0
 21
-188.52941999999999
 31
0.0
  0
LINE
  5
E2
  8
NOTE
  6
CONTINUOUS
 62
     4
 10
101.47058
 20
-165.0
 30
0.0
 11
148.52941999999999
 21
-165.0
 31
0.0
  0
CIRCLE
  5
E3
  8
FIX
  6
CONTINUOUS
 62
    11
 10
165.0
 20
125.0
 30
0.0
 40
6.0
  0
LINE
  5
E4
  8
NOTE
  6
CONTINUOUS
 62
     4
 10
165.0
 20
101.47058
 30
0.0
 11
165.0
 21
148.52941999999999
 31
0.0
  0
LINE
  5
E5
  8
NOTE
  6
CONTINUOUS
 62
     4
 10
141.47058000000001
 20
125.0
 30
0.0
 11
188.52941999999999
 21
125.0
 31
0.0
  0
CIRCLE
  5
E6
  8
FIX
  6
CONTINUOUS
 62
    11
 10
165.0
 20
-125.0
 30
0.0
 40
6.0
  0
LINE
  5
E7
  8
NOTE
  6
CONTINUOUS
 62
     4
 10
165.0
 20
-148.52941999999999
 30
0.0
 11
165.0
 21
-101.47058
 31
0.0
  0
LINE
  5
E8
  8
NOTE
  6
CONTINUOUS
 62
     4
 10
141.47058000000001
 20
-125.0
 30
0.0
 11
188.52941999999999
 21
-125.0
 31
0.0
  0
TEXT
  5
E9
  8
NOTE
  6
CONTINUOUS
 62
     4
 10
284.82748700000002
 20
-278.57577400000002
 30
0.0
 40
64.0
  1
AH 12-φ12×20
 41
0.9
  0
LINE
  5
EA
  8
NOTE
  6
CONTINUOUS
 62
     4
 10
257.31475499999999
 20
-316.531046
 30
0.0
 11
961.59161600000004
 21
-316.531046
 31
0.0
  0
LINE
  5
EB
  8
SIZE
  6
CONTINUOUS
 62
    30
 10
125.0
 20
208.52941200000001
 30
0.0
 11
125.0
 21
426.47505399999989
 31
0.0
  0
LINE
  5
EC
  8
SIZE
  6
CONTINUOUS
 62
    30
 10
-125.0
 20
208.52941200000001
 30
0.0
 11
-125.0
 21
426.47505399999989
 31
0.0
  0
LINE
  5
ED
  8
SIZE
  6
CONTINUOUS
 62
    30
 10
113.0
 20
406.475054
 30
0.0
 11
-113.0
 21
406.475054
 31
0.0
  0
CIRCLE
  5
EE
  8
SIZE
  6
CONTINUOUS
 62
    30
 10
125.0
 20
406.475054
 30
0.0
 40
6.0
  0
LINE
  5
EF
  8
SIZE
  6
CONTINUOUS
 62
    30
 10
125.0
 20
406.475054
 30
0.0
 11
113.0
 21
406.475054
 31
0.0
  0
CIRCLE
  5
F0
  8
SIZE
  6
CONTINUOUS
 62
    30
 10
-125.0
 20
406.475054
 30
0.0
 40
6.0
  0
LINE
  5
F1
  8
SIZE
  6
CONTINUOUS
 62
    30
 10
-125.0
 20
406.475054
 30
0.0
 11
-113.0
 21
406.475054
 31
0.0
  0
TEXT
  5
F2
  8
SIZE
  6
CONTINUOUS
 62
    30
 10
-74.05714285714285
 20
431.475054
 30
0.0
 40
64.0
  1
250
 41
0.9
 72
     1
 11
0.0
 21
431.475054
 31
0.0
  0
POINT
  5
F3
  8
DEFPOINTS
  6
CONTINUOUS
 62
    30
 10
125.0
 20
188.52941200000001
 30
0.0
  0
POINT
  5
F4
  8
DEFPOINTS
  6
CONTINUOUS
 62
    30
 10
-125.0
 20
188.52941200000001
 30
0.0
  0
POINT
  5
F5
  8
DEFPOINTS
  6
CONTINUOUS
 62
    30
 10
-125.0
 20
406.475054
 30
0.0
  0
LINE
  5
F6
  8
SIZE
  6
CONTINUOUS
 62
    30
 10
208.52941200000001
 20
125.0
 30
0.0
 11
660.78269899999987
 21
125.0
 31
0.0
  0
LINE
  5
F7
  8
SIZE
  6
CONTINUOUS
 62
    30
 10
208.52941200000001
 20
-125.0
 30
0.0
 11
660.78269899999987
 21
-125.0
 31
0.0
  0
LINE
  5
F8
  8
SIZE
  6
CONTINUOUS
 62
    30
 10
640.78269899999998
 20
113.0
 30
0.0
 11
640.78269899999998
 21
-113.0
 31
0.0
  0
TEXT
  5
F9
  8
SIZE
  6
CONTINUOUS
 62
    30
 10
614.76860599999986
 20
-74.05714285714285
 30
0.0
 40
64.0
  1
250
 50
90.0
 41
0.9
 72
     1
 11
614.76860599999986
 21
0.0
 31
0.0
  0
CIRCLE
  5
FA
  8
SIZE
  6
CONTINUOUS
 62
    30
 10
640.78269899999998
 20
125.0
 30
0.0
 40
6.0
  0
LINE
  5
FB
  8
SIZE
  6
CONTINUOUS
 62
    30
 10
640.78269899999998
 20
125.0
 30
0.0
 11
640.78269899999998
 21
113.0
 31
0.0
  0
CIRCLE
  5
FC
  8
SIZE
  6
CONTINUOUS
 62
    30
 10
640.78269899999998
 20
-125.0
 30
0.0
 40
6.0
  0
LINE
  5
FD
  8
SIZE
  6
CONTINUOUS
 62
    30
 10
640.78269899999998
 20
-125.0
 30
0.0
 11
640.78269899999998
 21
-113.0
 31
0.0
  0
POINT
  5
FE
  8
DEFPOINTS
  6
CONTINUOUS
 62
    30
 10
188.52941200000001
 20
125.0
 30
0.0
  0
POINT
  5
FF
  8
DEFPOINTS
  6
CONTINUOUS
 62
    30
 10
188.52941200000001
 20
-125.0
 30
0.0
  0
POINT
  5
100
  8
DEFPOINTS
  6
CONTINUOUS
 62
    30
 10
640.78269899999998
 20
-125.0
 30
0.0
  0
LINE
  5
101
  8
SIZE
  6
CONTINUOUS
 62
    30
 10
181.50588200000001
 20
165.0
 30
0.0
 11
797.42986199999984
 21
165.0
 31
0.0
  0
LINE
  5
102
  8
SIZE
  6
CONTINUOUS
 62
    30
 10
181.50588200000001
 20
-165.00000499999999
 30
0.0
 11
797.42986199999984
 21
-165.00000499999999
 31
0.0
  0
LINE
  5
103
  8
SIZE
  6
CONTINUOUS
 62
    30
 10
777.42986199999984
 20
153.0
 30
0.0
 11
777.42986199999984
 21
-153.00000499999999
 31
0.0
  0
TEXT
  5
104
  8
SIZE
  6
CONTINUOUS
 62
    30
 10
754.4086769999999
 20
-74.057145857142871
 30
0.0
 40
64.0
  1
330
 50
90.0
 41
0.9
 72
     1
 11
754.4086769999999
 21
-0.000003
 31
0.0
  0
CIRCLE
  5
105
  8
SIZE
  6
CONTINUOUS
 62
    30
 10
777.42986199999984
 20
165.0
 30
0.0
 40
6.0
  0
LINE
  5
106
  8
SIZE
  6
CONTINUOUS
 62
    30
 10
777.42986199999984
 20
165.0
 30
0.0
 11
777.42986199999984
 21
153.0
 31
0.0
  0
CIRCLE
  5
107
  8
SIZE
  6
CONTINUOUS
 62
    30
 10
777.42986199999984
 20
-165.00000499999999
 30
0.0
 40
6.0
  0
LINE
  5
108
  8
SIZE
  6
CONTINUOUS
 62
    30
 10
777.42986199999984
 20
-165.00000499999999
 30
0.0
 11
777.42986199999984
 21
-153.00000499999999
 31
0.0
  0
POINT
  5
109
  8
DEFPOINTS
  6
CONTINUOUS
 62
    30
 10
161.50588200000001
 20
165.0
 30
0.0
  0
POINT
  5
10A
  8
DEFPOINTS
  6
CONTINUOUS
 62
    30
 10
161.50588200000001
 20
-165.00000499999999
 30
0.0
  0
POINT
  5
10B
  8
DEFPOINTS
  6
CONTINUOUS
 62
    30
 10
777.42986199999984
 20
-165.00000499999999
 30
0.0
  0
LINE
  5
10C
  8
SIZE
  6
CONTINUOUS
 62
    30
 10
125.0
 20
-208.52941200000001
 30
0.0
 11
125.0
 21
-619.214246
 31
0.0
  0
LINE
  5
10D
  8
SIZE
  6
CONTINUOUS
 62
    30
 10
-125.0
 20
-208.52941200000001
 30
0.0
 11
-125.0
 21
-619.214246
 31
0.0
  0
LINE
  5
10E
  8
SIZE
  6
CONTINUOUS
 62
    30
 10
113.0
 20
-599.214246
 30
0.0
 11
-113.0
 21
-599.214246
 31
0.0
  0
TEXT
  5
10F
  8
SIZE
  6
CONTINUOUS
 62
    30
 10
-71.992148857142851
 20
-571.58127100000002
 30
0.0
 40
64.0
  1
250
 41
0.9
 72
     1
 11
2.0649939999999991
 21
-571.58127100000002
 31
0.0
  0
CIRCLE
  5
110
  8
SIZE
  6
CONTINUOUS
 62
    30
 10
125.0
 20
-599.214246
 30
0.0
 40
6.0
  0
LINE
  5
111
  8
SIZE
  6
CONTINUOUS
 62
    30
 10
125.0
 20
-599.214246
 30
0.0
 11
113.0
 21
-599.214246
 31
0.0
  0
CIRCLE
  5
112
  8
SIZE
  6
CONTINUOUS
 62
    30
 10
-125.0
 20
-599.214246
 30
0.0
 40
6.0
  0
LINE
  5
113
  8
SIZE
  6
CONTINUOUS
 62
    30
 10
-125.0
 20
-599.214246
 30
0.0
 11
-113.0
 21
-599.214246
 31
0.0
  0
POINT
  5
114
  8
DEFPOINTS
  6
CONTINUOUS
 62
    30
 10
125.0
 20
-188.52941200000001
 30
0.0
  0
POINT
  5
115
  8
DEFPOINTS
  6
CONTINUOUS
 62
    30
 10
-125.0
 20
-188.52941200000001
 30
0.0
  0
POINT
  5
116
  8
DEFPOINTS
  6
CONTINUOUS
 62
    30
 10
-125.0
 20
-599.214246
 30
0.0
  0
LINE
  5
117
  8
SIZE
  6
CONTINUOUS
 62
    30
 10
165.0
 20
-179.56471099999999
 30
0.0
 11
165.0
 21
-740.64846999999997
 31
0.0
  0
LINE
  5
118
  8
SIZE
  6
CONTINUOUS
 62
    30
 10
-165.00000499999999
 20
-179.56471099999999
 30
0.0
 11
-165.00000499999999
 21
-740.64846999999997
 31
0.0
  0
LINE
  5
119
  8
SIZE
  6
CONTINUOUS
 62
    30
 10
153.0
 20
-720.64846999999986
 30
0.0
 11
-153.00000499999999
 21
-720.64846999999986
 31
0.0
  0
TEXT
  5
11A
  8
SIZE
  6
CONTINUOUS
 62
    30
 10
-71.992151857142858
 20
-695.66364199999987
 30
0.0
 40
64.0
  1
330
 41
0.9
 72
     1
 11
2.064991
 21
-695.66364199999987
 31
0.0
  0
CIRCLE
  5
11B
  8
SIZE
  6
CONTINUOUS
 62
    30
 10
165.0
 20
-720.64846999999986
 30
0.0
 40
6.0
  0
LINE
  5
11C
  8
SIZE
  6
CONTINUOUS
 62
    30
 10
165.0
 20
-720.64846999999986
 30
0.0
 11
153.0
 21
-720.64846999999986
 31
0.0
  0
CIRCLE
  5
11D
  8
SIZE
  6
CONTINUOUS
 62
    30
 10
-165.00000499999999
 20
-720.64846999999986
 30
0.0
 40
6.0
  0
LINE
  5
11E
  8
SIZE
  6
CONTINUOUS
 62
    30
 10
-165.00000499999999
 20
-720.64846999999986
 30
0.0
 11
-153.00000499999999
 21
-720.64846999999986
 31
0.0
  0
POINT
  5
11F
  8
DEFPOINTS
  6
CONTINUOUS
 62
    30
 10
165.0
 20
-159.56471099999999
 30
0.0
  0
POINT
  5
120
  8
DEFPOINTS
  6
CONTINUOUS
 62
    30
 10
-165.00000499999999
 20
-159.56471099999999
 30
0.0
  0
POINT
  5
121
  8
DEFPOINTS
  6
CONTINUOUS
 62
    30
 10
-165.00000499999999
 20
-720.64846999999986
 30
0.0
  0
LINE
  5
122
  8
SIZE
  6
CONTINUOUS
 62
    30
 10
-181.505888
 20
165.0
 30
0.0
 11
-388.7930740000001
 21
165.0
 31
0.0
  0
LINE
  5
123
  8
SIZE
  6
CONTINUOUS
 62
    30
 10
-243.59826699999999
 20
90.0
 30
0.0
 11
-388.7930740000001
 21
90.0
 31
0.0
  0
LINE
  5
124
  8
SIZE
  6
CONTINUOUS
 62
    30
 10
-368.79307399999999
 20
153.0
 30
0.0
 11
-368.79307399999999
 21
102.0
 31
0.0
  0
LINE
  5
125
  8
SIZE
  6
CONTINUOUS
 62
    30
 10
-368.79307399999999
 20
396.35008499999998
 30
0.0
 11
-368.79307399999999
 21
165.0
 31
0.0
  0
TEXT
  5
126
  8
SIZE
  6
CONTINUOUS
 62
    30
 10
-393.79307399999999
 20
278.09294157142858
 30
0.0
 40
64.0
  1
75
 50
90.0
 41
0.9
 72
     1
 11
-393.79307399999999
 21
324.72151300000002
 31
0.0
  0
CIRCLE
  5
127
  8
SIZE
  6
CONTINUOUS
 62
    30
 10
-368.79307399999999
 20
165.0
 30
0.0
 40
6.0
  0
LINE
  5
128
  8
SIZE
  6
CONTINUOUS
 62
    30
 10
-368.79307399999999
 20
165.0
 30
0.0
 11
-368.79307399999999
 21
153.0
 31
0.0
  0
CIRCLE
  5
129
  8
SIZE
  6
CONTINUOUS
 62
    30
 10
-368.79307399999999
 20
90.0
 30
0.0
 40
6.0
  0
LINE
  5
12A
  8
SIZE
  6
CONTINUOUS
 62
    30
 10
-368.79307399999999
 20
90.0
 30
0.0
 11
-368.79307399999999
 21
102.0
 31
0.0
  0
POINT
  5
12B
  8
DEFPOINTS
  6
CONTINUOUS
 62
    30
 10
-161.505888
 20
165.0
 30
0.0
  0
POINT
  5
12C
  8
DEFPOINTS
  6
CONTINUOUS
 62
    30
 10
-223.59826699999999
 20
90.0
 30
0.0
  0
POINT
  5
12D
  8
DEFPOINTS
  6
CONTINUOUS
 62
    30
 10
-368.79307399999999
 20
90.0
 30
0.0
  0
LINE
  5
12E
  8
SIZE
  6
CONTINUOUS
 62
    30
 10
-187.200005
 20
205.0
 30
0.0
 11
-512.40439399999991
 21
205.0
 31
0.0
  0
LINE
  5
12F
  8
SIZE
  6
CONTINUOUS
 62
    30
 10
-187.200005
 20
-25.0
 30
0.0
 11
-512.40439399999991
 21
-25.0
 31
0.0
  0
LINE
  5
130
  8
SIZE
  6
CONTINUOUS
 62
    30
 10
-492.40439400000002
 20
193.0
 30
0.0
 11
-492.40439400000002
 21
-13.0
 31
0.0
  0
TEXT
  5
131
  8
SIZE
  6
CONTINUOUS
 62
    30
 10
-516.34760400000005
 20
-31.552877857142882
 30
0.0
 40
64.0
  1
φ230
 50
90.0
 41
0.9
 72
     1
 11
-516.34760400000005
 21
82.824264999999997
 31
0.0
  0
CIRCLE
  5
132
  8
SIZE
  6
CONTINUOUS
 62
    30
 10
-492.40439400000002
 20
205.0
 30
0.0
 40
6.0
  0
LINE
  5
133
  8
SIZE
  6
CONTINUOUS
 62
    30
 10
-492.40439400000002
 20
205.0
 30
0.0
 11
-492.40439400000002
 21
193.0
 31
0.0
  0
CIRCLE
  5
134
  8
SIZE
  6
CONTINUOUS
 62
    30
 10
-492.40439400000002
 20
-25.0
 30
0.0
 40
6.0
  0
LINE
  5
135
  8
SIZE
  6
CONTINUOUS
 62
    30
 10
-492.40439400000002
 20
-25.0
 30
0.0
 11
-492.40439400000002
 21
-13.0
 31
0.0
  0
POINT
  5
136
  8
DEFPOINTS
  6
CONTINUOUS
 62
    30
 10
-167.200005
 20
205.0
 30
0.0
  0
POINT
  5
137
  8
DEFPOINTS
  6
CONTINUOUS
 62
    30
 10
-167.200005
 20
-25.0
 30
0.0
  0
POINT
  5
138
  8
DEFPOINTS
  6
CONTINUOUS
 62
    30
 10
-492.40439400000002
 20
-25.0
 30
0.0
  0
LINE
  5
139
  8
NOTE
  6
CONTINUOUS
 62
     4
 10
125.0
 20
-165.00000499999999
 30
0.0
 11
257.31475499999999
 21
-316.531046
 31
0.0
  0
LINE
  5
13A
  8
NOTE
  6
CONTINUOUS
 62
     4
 10
158.153346
 20
-187.37980999999999
 30
0.0
 11
125.0
 21
-165.00000499999999
 31
0.0
  0
LINE
  5
13B
  8
NOTE
  6
CONTINUOUS
 62
     4
 10
125.0
 20
-165.00000499999999
 30
0.0
 11
142.521737
 21
-200.958158
 31
0.0
  0
LINE
  5
13C
  8
BASIS
  6
DASHDOT
 62
     6
 10
144.91907599999999
 20
-21.0
 30
0.0
 11
-140.74884399999999
 21
-21.0
 31
0.0
  0
LINE
  5
13D
  8
BASIS
  6
DASHDOT
 62
     6
 10
0.999995
 20
-194.7016449999999
 30
0.0
 11
0.999995
 21
118.025065
 31
0.0
  0
LINE
  5
13E
  8
SIZE
  6
CONTINUOUS
 62
    30
 10
96.639360999999994
 20
-22.5
 30
0.0
 11
512.48113799999987
 21
-22.5
 31
0.0
  0
LINE
  5
13F
  8
SIZE
  6
CONTINUOUS
 62
    30
 10
181.50588200000001
 20
165.0
 30
0.0
 11
512.48113799999987
 21
165.0
 31
0.0
  0
LINE
  5
140
  8
SIZE
  6
CONTINUOUS
 62
    30
 10
492.48113799999999
 20
-10.5
 30
0.0
 11
492.48113799999999
 21
153.0
 31
0.0
  0
LINE
  5
141
  8
SIZE
  6
CONTINUOUS
 62
    30
 10
492.48113799999999
 20
455.65212400000001
 30
0.0
 11
492.48113799999999
 21
165.0
 31
0.0
  0
TEXT
  5
142
  8
SIZE
  6
CONTINUOUS
 62
    30
 10
467.48113799999999
 20
211.2235532857143
 30
0.0
 40
64.0
  1
187.5
 50
90.0
 41
0.9
 72
     1
 11
467.48113799999999
 21
320.937839
 31
0.0
  0
CIRCLE
  5
143
  8
SIZE
  6
CONTINUOUS
 62
    30
 10
492.48113799999999
 20
-22.5
 30
0.0
 40
6.0
  0
LINE
  5
144
  8
SIZE
  6
CONTINUOUS
 62
    30
 10
492.48113799999999
 20
-22.5
 30
0.0
 11
492.48113799999999
 21
-10.5
 31
0.0
  0
CIRCLE
  5
145
  8
SIZE
  6
CONTINUOUS
 62
    30
 10
492.48113799999999
 20
165.0
 30
0.0
 40
6.0
  0
LINE
  5
146
  8
SIZE
  6
CONTINUOUS
 62
    30
 10
492.48113799999999
 20
165.0
 30
0.0
 11
492.48113799999999
 21
153.0
 31
0.0
  0
POINT
  5
147
  8
DEFPOINTS
  6
CONTINUOUS
 62
    30
 10
76.639360999999994
 20
-22.5
 30
0.0
  0
POINT
  5
148
  8
DEFPOINTS
  6
CONTINUOUS
 62
    30
 10
161.50588200000001
 20
165.0
 30
0.0
  0
POINT
  5
149
  8
DEFPOINTS
  6
CONTINUOUS
 62
    30
 10
492.48113799999999
 20
165.0
 30
0.0
  0
LINE
  5
14A
  8
SIZE
  6
CONTINUOUS
 62
    30
 10
1.499995
 20
-112.62633099999999
 30
0.0
 11
1.499995
 21
-474.45991499999991
 31
0.0
  0
LINE
  5
14B
  8
SIZE
  6
CONTINUOUS
 62
    30
 10
-165.00000499999999
 20
-179.56471099999999
 30
0.0
 11
-165.00000499999999
 21
-474.45991499999991
 31
0.0
  0
LINE
  5
14C
  8
SIZE
  6
CONTINUOUS
 62
    30
 10
-10.500005
 20
-454.45991500000002
 30
0.0
 11
-153.00000499999999
 21
-454.45991500000002
 31
0.0
  0
LINE
  5
14D
  8
SIZE
  6
CONTINUOUS
 62
    30
 10
-467.6940679999999
 20
-454.45991500000002
 30
0.0
 11
-165.00000499999999
 21
-454.45991500000002
 31
0.0
  0
TEXT
  5
14E
  8
SIZE
  6
CONTINUOUS
 62
    30
 10
-442.69406871428572
 20
-429.45991500000002
 30
0.0
 40
64.0
  1
166.5
 41
0.9
 72
     1
 11
-332.979783
 21
-429.45991500000002
 31
0.0
  0
CIRCLE
  5
14F
  8
SIZE
  6
CONTINUOUS
 62
    30
 10
1.499995
 20
-454.45991500000002
 30
0.0
 40
6.0
  0
LINE
  5
150
  8
SIZE
  6
CONTINUOUS
 62
    30
 10
1.499995
 20
-454.45991500000002
 30
0.0
 11
-10.500005
 21
-454.45991500000002
 31
0.0
  0
CIRCLE
  5
151
  8
SIZE
  6
CONTINUOUS
 62
    30
 10
-165.00000499999999
 20
-454.45991500000002
 30
0.0
 40
6.0
  0
LINE
  5
152
  8
SIZE
  6
CONTINUOUS
 62
    30
 10
-165.00000499999999
 20
-454.45991500000002
 30
0.0
 11
-153.00000499999999
 21
-454.45991500000002
 31
0.0
  0
POINT
  5
153
  8
DEFPOINTS
  6
CONTINUOUS
 62
    30
 10
1.499995
 20
-92.626330999999993
 30
0.0
  0
POINT
  5
154
  8
DEFPOINTS
  6
CONTINUOUS
 62
    30
 10
-165.00000499999999
 20
-159.56471099999999
 30
0.0
  0
POINT
  5
155
  8
DEFPOINTS
  6
CONTINUOUS
 62
    30
 10
-165.00000499999999
 20
-454.45991500000002
 30
0.0
  0
POINT
  5
156
  8
ARRANGE
  6
CONTINUOUS
 62
     1
 10
0.0
 20
0.0
 30
0.0
  0
CIRCLE
  5
157
  8
ARRANGE
  6
CONTINUOUS
 62
     1
 10
0.0
 20
0.0
 30
0.0
 40
40.0
  0
TEXT
  5
158
  8
NOTE
  6
CONTINUOUS
 62
     4
 10
-60.848482999999987
 20
-251.78783999999999
 30
0.0
 40
64.0
  1
入口
 41
0.9
  0
TEXT
  5
159
  8
NOTE
  6
CONTINUOUS
 62
     4
 10
-351.72228799999999
 20
69.989606999999992
 30
0.0
 40
64.0
  1
出口
 41
0.9
  0
CIRCLE
  5
15A
  8
DETAIL
  6
CONTINUOUS
 62
     5
 10
0.0
 20
-21.800000000000001
 30
0.0
 40
109.00294100000001
  0
LINE
  5
15B
  8
SIZE
  6
CONTINUOUS
 62
    30
 10
181.50588200000001
 20
165.0
 30
0.0
 11
382.23182400000002
 21
165.0
 31
0.0
  0
LINE
  5
15C
  8
SIZE
  6
CONTINUOUS
 62
    30
 10
164.91907599999999
 20
-21.0
 30
0.0
 11
382.23182400000002
 21
-21.0
 31
0.0
  0
LINE
  5
15D
  8
SIZE
  6
CONTINUOUS
 62
    30
 10
362.23182400000002
 20
153.0
 30
0.0
 11
362.23182400000002
 21
-9.0
 31
0.0
  0
LINE
  5
15E
  8
SIZE
  6
CONTINUOUS
 62
    30
 10
362.23182400000002
 20
364.03590500000001
 30
0.0
 11
362.23182400000002
 21
165.0
 31
0.0
  0
TEXT
  5
15F
  8
SIZE
  6
CONTINUOUS
 62
    30
 10
337.23182400000002
 20
204.63590500000001
 30
0.0
 40
64.0
  1
186
 50
90.0
 41
0.9
 72
     1
 11
337.23182400000002
 21
271.83590500000003
 31
0.0
  0
CIRCLE
  5
160
  8
SIZE
  6
CONTINUOUS
 62
    30
 10
362.23182400000002
 20
165.0
 30
0.0
 40
6.0
  0
LINE
  5
161
  8
SIZE
  6
CONTINUOUS
 62
    30
 10
362.23182400000002
 20
165.0
 30
0.0
 11
362.23182400000002
 21
153.0
 31
0.0
  0
CIRCLE
  5
162
  8
SIZE
  6
CONTINUOUS
 62
    30
 10
362.23182400000002
 20
-21.0
 30
0.0
 40
6.0
  0
LINE
  5
163
  8
SIZE
  6
CONTINUOUS
 62
    30
 10
362.23182400000002
 20
-21.0
 30
0.0
 11
362.23182400000002
 21
-9.0
 31
0.0
  0
POINT
  5
164
  8
DEFPOINTS
  6
CONTINUOUS
 62
    30
 10
161.50588200000001
 20
165.0
 30
0.0
  0
POINT
  5
165
  8
DEFPOINTS
  6
CONTINUOUS
 62
    30
 10
144.91907599999999
 20
-21.0
 30
0.0
  0
POINT
  5
166
  8
DEFPOINTS
  6
CONTINUOUS
 62
    30
 10
362.23182400000002
 20
-21.0
 30
0.0
  0
LINE
  5
167
  8
SIZE
  6
CONTINUOUS
 62
    30
 10
-165.00000499999999
 20
-179.56471099999999
 30
0.0
 11
-165.00000499999999
 21
-351.05684600000001
 31
0.0
  0
LINE
  5
168
  8
SIZE
  6
CONTINUOUS
 62
    30
 10
0.999995
 20
-214.70164500000001
 30
0.0
 11
0.999995
 21
-351.05684600000001
 31
0.0
  0
LINE
  5
169
  8
SIZE
  6
CONTINUOUS
 62
    30
 10
-153.00000499999999
 20
-331.05684600000001
 30
0.0
 11
-11.000005
 21
-331.05684600000001
 31
0.0
  0
LINE
  5
16A
  8
SIZE
  6
CONTINUOUS
 62
    30
 10
-420.57094699999999
 20
-331.05684600000001
 30
0.0
 11
-165.00000499999999
 21
-331.05684600000001
 31
0.0
  0
TEXT
  5
16B
  8
SIZE
  6
CONTINUOUS
 62
    30
 10
-395.57094699999999
 20
-306.05684600000001
 30
0.0
 40
64.0
  1
166
 41
0.9
 72
     1
 11
-328.370947
 21
-306.05684600000001
 31
0.0
  0
CIRCLE
  5
16C
  8
SIZE
  6
CONTINUOUS
 62
    30
 10
-165.00000499999999
 20
-331.05684600000001
 30
0.0
 40
6.0
  0
LINE
  5
16D
  8
SIZE
  6
CONTINUOUS
 62
    30
 10
-165.00000499999999
 20
-331.05684600000001
 30
0.0
 11
-153.00000499999999
 21
-331.05684600000001
 31
0.0
  0
CIRCLE
  5
16E
  8
SIZE
  6
CONTINUOUS
 62
    30
 10
0.999995
 20
-331.05684600000001
 30
0.0
 40
6.0
  0
LINE
  5
16F
  8
SIZE
  6
CONTINUOUS
 62
    30
 10
0.999995
 20
-331.05684600000001
 30
0.0
 11
-11.000005
 21
-331.05684600000001
 31
0.0
  0
POINT
  5
170
  8
DEFPOINTS
  6
CONTINUOUS
 62
    30
 10
-165.00000499999999
 20
-159.56471099999999
 30
0.0
  0
POINT
  5
171
  8
DEFPOINTS
  6
CONTINUOUS
 62
    30
 10
0.999995
 20
-194.7016449999999
 30
0.0
  0
POINT
  5
172
  8
DEFPOINTS
  6
CONTINUOUS
 62
    30
 10
0.999995
 20
-331.05684600000001
 30
0.0
  0
CIRCLE
  5
173
  8
DETAIL
  6
CONTINUOUS
 62
     5
 10
1.499995
 20
-22.5
 30
0.0
 40
48.399999999999991
  0
LINE
  5
174
  8
BASIS
  6
DASHDOT
 62
     6
 10
1.499995
 20
-92.626330999999993
 30
0.0
 11
1.499995
 21
41.875878999999991
 31
0.0
  0
TEXT
  5
17C
  8
ETC
  6
CONTINUOUS
 62
    61
 10
607.76902166231105
 20
507.60871387845918
 30
0.0
 40
64.0
  1
産業扇
 41
0.9
  0
TEXT
  5
17D
  8
ETC
  6
CONTINUOUS
 62
    61
 10
602.93675366231105
 20
618.95334387845924
 30
0.0
 40
64.0
  1
BF-21S3_4
 41
0.9
  0
TEXT
  5
17E
  8
ETC
  6
CONTINUOUS
 62
    61
 10
691.63296376985943
 20
397.75491265210047
 30
0.0
 40
64.0
  1
BF-21S3
 41
0.9
  0
ENDSEC
  0
EOF
