  0
SECTION
  2
HEADER
  9
$ACADVER
  1
AC1009
  9
$INSBASE
 10
0.0
 20
0.0
 30
0.0
  9
$EXTMIN
 10
-576.93893900000012
 20
-555.88377100000002
 30
0.0
  9
$EXTMAX
 10
907.13996099999997
 20
775.77559489036855
 30
0.0
  9
$LIMMIN
 10
-2970.0
 20
-2100.0
  9
$LIMMAX
 10
2970.0
 20
2100.0
  9
$ORTHOMODE
 70
     0
  9
$REGENMODE
 70
     0
  9
$FILLMODE
 70
     1
  9
$QTEXTMODE
 70
     0
  9
$MIRRTEXT
 70
     0
  9
$DRAGMODE
 70
     2
  9
$LTSCALE
 40
20.0
  9
$OSMODE
 70
    37
  9
$ATTMODE
 70
     1
  9
$TEXTSIZE
 40
64.0
  9
$TRACEWID
 40
0.05
  9
$TEXTSTYLE
  7
STANDARD
  9
$CLAYER
  8
SIZE
  9
$CELTYPE
  6
CONTINUOUS
  9
$CECOLOR
 62
    30
  9
$DIMSCALE
 40
1.0
  9
$DIMASZ
 40
12.0
  9
$DIMEXO
 40
20.0
  9
$DIMDLI
 40
200.0
  9
$DIMRND
 40
0.0
  9
$DIMDLE
 40
0.0
  9
$DIMEXE
 40
20.0
  9
$DIMTP
 40
0.0
  9
$DIMTM
 40
0.0
  9
$DIMTXT
 40
64.0
  9
$DIMCEN
 40
0.09
  9
$DIMTSZ
 40
0.0
  9
$DIMTOL
 70
     0
  9
$DIMLIM
 70
     0
  9
$DIMTIH
 70
     0
  9
$DIMTOH
 70
     0
  9
$DIMSE1
 70
     0
  9
$DIMSE2
 70
     0
  9
$DIMTAD
 70
     1
  9
$DIMZIN
 70
     8
  9
$DIMBLK
  1
DOT1
  9
$DIMASO
 70
     1
  9
$DIMSHO
 70
     0
  9
$DIMPOST
  1

  9
$DIMAPOST
  1

  9
$DIMALT
 70
     0
  9
$DIMALTD
 70
     2
  9
$DIMALTF
 40
25.399999999999999
  9
$DIMLFAC
 40
1.0
  9
$DIMTOFL
 70
     1
  9
$DIMTVP
 40
0.0
  9
$DIMTIX
 70
     1
  9
$DIMSOXD
 70
     0
  9
$DIMSAH
 70
     1
  9
$DIMBLK1
  1
ORIGIN
  9
$DIMBLK2
  1
ORIGIN
  9
$DIMSTYLE
  2
STANDARD
  9
$DIMCLRD
 70
     0
  9
$DIMCLRE
 70
     0
  9
$DIMCLRT
 70
     0
  9
$DIMTFAC
 40
1.0
  9
$DIMGAP
 40
0.09
  9
$LUNITS
 70
     2
  9
$LUPREC
 70
     4
  9
$SKETCHINC
 40
0.1
  9
$FILLETRAD
 40
4.0
  9
$AUNITS
 70
     1
  9
$AUPREC
 70
     3
  9
$MENU
  1
ACAD
  9
$ELEVATION
 40
0.0
  9
$PELEVATION
 40
0.0
  9
$THICKNESS
 40
50.0
  9
$LIMCHECK
 70
     0
  9
$BLIPMODE
 70
     0
  9
$CHAMFERA
 40
0.0
  9
$CHAMFERB
 40
0.0
  9
$SKPOLY
 70
     0
  9
$TDCREATE
 40
2452321.3961996529
  9
$TDUPDATE
 40
2454923.68026132
  9
$TDINDWG
 40
0.1711774884
  9
$TDUSRTIMER
 40
0.1711774884
  9
$USRTIMER
 70
     1
  9
$ANGBASE
 50
0.0
  9
$ANGDIR
 70
     0
  9
$PDMODE
 70
     3
  9
$PDSIZE
 40
-2.0
  9
$PLINEWID
 40
0.0
  9
$COORDS
 70
     0
  9
$SPLFRAME
 70
     0
  9
$SPLINETYPE
 70
     6
  9
$SPLINESEGS
 70
     8
  9
$ATTDIA
 70
     0
  9
$ATTREQ
 70
     1
  9
$HANDLING
 70
     1
  9
$HANDSEED
  5
1C3
  9
$SURFTAB1
 70
     6
  9
$SURFTAB2
 70
     6
  9
$SURFTYPE
 70
     6
  9
$SURFU
 70
     6
  9
$SURFV
 70
     6
  9
$UCSNAME
  2

  9
$UCSORG
 10
0.0
 20
0.0
 30
0.0
  9
$UCSXDIR
 10
1.0
 20
0.0
 30
0.0
  9
$UCSYDIR
 10
0.0
 20
1.0
 30
0.0
  9
$PUCSNAME
  2

  9
$PUCSORG
 10
0.0
 20
0.0
 30
0.0
  9
$PUCSXDIR
 10
1.0
 20
0.0
 30
0.0
  9
$PUCSYDIR
 10
0.0
 20
1.0
 30
0.0
  9
$USERI1
 70
     0
  9
$USERI2
 70
     0
  9
$USERI3
 70
     0
  9
$USERI4
 70
     0
  9
$USERI5
 70
     0
  9
$USERR1
 40
20.0
  9
$USERR2
 40
0.0
  9
$USERR3
 40
0.0
  9
$USERR4
 40
0.0
  9
$USERR5
 40
0.0
  9
$WORLDVIEW
 70
     1
  9
$SHADEDGE
 70
     3
  9
$SHADEDIF
 70
    70
  9
$TILEMODE
 70
     1
  9
$MAXACTVP
 70
    64
  9
$PLIMCHECK
 70
     0
  9
$PEXTMIN
 10
1.0000000000000000E+020
 20
1.0000000000000000E+020
 30
1.0000000000000000E+020
  9
$PEXTMAX
 10
-1.0000000000000000E+020
 20
-1.0000000000000000E+020
 30
-1.0000000000000000E+020
  9
$PLIMMIN
 10
0.0
 20
0.0
  9
$PLIMMAX
 10
12.0
 20
9.0
  9
$UNITMODE
 70
     0
  9
$VISRETAIN
 70
     1
  9
$PLINEGEN
 70
     0
  9
$PSLTSCALE
 70
     1
  0
ENDSEC
  0
SECTION
  2
TABLES
  0
TABLE
  2
VPORT
 70
     1
  0
VPORT
  2
*ACTIVE
 70
     0
 10
0.0
 20
0.0
 11
1.0
 21
1.0
 12
164.959731
 22
213.66569404901151
 13
0.0
 23
0.0
 14
1.0
 24
1.0
 15
0.0
 25
0.0
 16
0.0
 26
0.0
 36
1.0
 17
0.0
 27
0.0
 37
0.0
 40
1552.4835760980229
 41
1.3098995695839311
 42
50.0
 43
0.0
 44
0.0
 50
0.0
 51
0.0
 71
     0
 72
   100
 73
     1
 74
     0
 75
     0
 76
     0
 77
     0
 78
     0
  0
ENDTAB
  0
TABLE
  2
LTYPE
 70
     3
  0
LTYPE
  2
CONTINUOUS
 70
     0
  3
実線
 72
    65
 73
     0
 40
0.0
  0
LTYPE
  2
DASHDOT
 70
     0
  3
____ _ ____ _ ____ _ ____ _ ____ _ ____ _ ____
 72
    65
 73
     4
 40
5.5
 49
4.0
 49
-0.6
 49
0.3
 49
-0.6
  0
ENDTAB
  0
TABLE
  2
LAYER
 70
    12
  0
LAYER
  2
0
 70
     0
 62
     7
  6
CONTINUOUS
  0
LAYER
  2
SIZE
 70
     0
 62
     4
  6
CONTINUOUS
  0
LAYER
  2
BASIS
 70
     0
 62
     6
  6
DASHDOT
  0
LAYER
  2
OUTLINE
 70
     0
 62
     3
  6
CONTINUOUS
  0
LAYER
  2
DETAIL
 70
     0
 62
     5
  6
CONTINUOUS
  0
LAYER
  2
ARRANGE
 70
     0
 62
     1
  6
CONTINUOUS
  0
LAYER
  2
DEFPOINTS
 70
     0
 62
     7
  6
CONTINUOUS
  0
LAYER
  2
ETC
 70
     0
 62
    61
  6
CONTINUOUS
  0
LAYER
  2
FIX
 70
     0
 62
     7
  6
CONTINUOUS
  0
LAYER
  2
NOTE
 70
     0
 62
     4
  6
CONTINUOUS
  0
LAYER
  2
SERVICESPACE
 70
     0
 62
     2
  6
DASHDOT
  0
LAYER
  2
SYMBOLLINE
 70
     0
 62
    15
  6
CONTINUOUS
  0
ENDTAB
  0
TABLE
  2
STYLE
 70
     2
  0
STYLE
  2
STANDARD
 70
     0
 40
64.0
 41
0.9
 50
0.0
 71
     0
 42
64.0
  3
SIMPLEX.shx
  4
BIGFONT.shx
  0
STYLE
  2
ANNOTATIVE
 70
     0
 40
0.0
 41
1.0
 50
0.0
 71
     0
 42
0.2
  3
txt
  4

  0
ENDTAB
  0
TABLE
  2
VIEW
 70
     1
  0
VIEW
  2
ALL
 70
     0
 40
4282.6198079999986
 10
0.0
 20
41.309903999999989
 41
5940.0
 11
0.0
 21
0.0
 31
1.0
 12
0.0
 22
0.0
 32
0.0
 42
50.0
 43
0.0
 44
0.0
 50
0.0
 71
     0
  0
ENDTAB
  0
TABLE
  2
UCS
 70
     0
  0
ENDTAB
  0
TABLE
  2
APPID
 70
     4
  0
APPID
  2
ACAD
 70
     0
  0
APPID
  2
ACADANNOTATIVE
 70
     0
  0
APPID
  2
ACAD_MLEADERVER
 70
     0
  0
APPID
  2
ACAD_EXEMPT_FROM_CAD_STANDARDS
 70
     0
  0
ENDTAB
  0
TABLE
  2
DIMSTYLE
 70
     2
  0
DIMSTYLE
  2
STANDARD
 70
     0
  3

  4

  5

  6

  7

 40
1.0
 41
0.18
 42
0.0625
 43
0.38
 44
0.18
 45
0.0
 46
0.0
 47
0.0
 48
0.0
140
0.18
141
0.09
142
0.0
143
25.399999999999999
144
1.0
145
0.0
146
1.0
147
0.09
 71
     0
 72
     0
 73
     1
 74
     1
 75
     0
 76
     0
 77
     0
 78
     0
170
     0
171
     2
172
     0
173
     0
174
     0
175
     0
176
     0
177
     0
178
     0
  0
DIMSTYLE
  2
ANNOTATIVE
 70
     0
  3

  4

  5

  6

  7

 40
1.0
 41
0.18
 42
0.0625
 43
0.38
 44
0.18
 45
0.0
 46
0.0
 47
0.0
 48
0.0
140
0.18
141
0.09
142
0.0
143
25.399999999999999
144
1.0
145
0.0
146
1.0
147
0.09
 71
     0
 72
     0
 73
     1
 74
     1
 75
     0
 76
     0
 77
     0
 78
     0
170
     0
171
     2
172
     0
173
     0
174
     0
175
     0
176
     0
177
     0
178
     0
  0
ENDTAB
  0
ENDSEC
  0
SECTION
  2
BLOCKS
  0
BLOCK
  8
0
  2
$MODEL_SPACE
 70
     0
 10
0.0
 20
0.0
 30
0.0
  3
$MODEL_SPACE
  1

  0
ENDBLK
  5
76
  8
0
  0
BLOCK
 67
     1
  8
0
  2
$PAPER_SPACE
 70
     0
 10
0.0
 20
0.0
 30
0.0
  3
$PAPER_SPACE
  1

  0
ENDBLK
  5
72
 67
     1
  8
0
  0
BLOCK
  8
0
  2
DOT1
 70
     0
 10
0.0
 20
0.0
 30
0.0
  3
DOT1
  1

  0
CIRCLE
  5
8B
  8
SIZE
  6
CONTINUOUS
 62
     7
 10
0.0
 20
0.0
 30
0.0
 40
3.0
  0
ENDBLK
  5
8C
  8
0
  0
BLOCK
  8
0
  2
_ORIGIN
 70
     0
 10
0.0
 20
0.0
 30
0.0
  3
_ORIGIN
  1

  0
CIRCLE
  5
8F
  8
0
  6
CONTINUOUS
 62
     7
 10
0.0
 20
0.0
 30
0.0
 40
0.5
  0
LINE
  5
90
  8
0
  6
CONTINUOUS
 62
     7
 10
0.0
 20
0.0
 30
0.0
 11
-1.0
 21
0.0
 31
0.0
  0
ENDBLK
  5
91
  8
0
  0
ENDSEC
  0
SECTION
  2
ENTITIES
  0
LINE
  5
93
  8
DETAIL
  6
CONTINUOUS
 62
     5
 10
105.0
 20
-165.0
 30
0.0
 11
105.0
 21
165.0
 31
0.0
  0
LINE
  5
94
  8
DETAIL
  6
CONTINUOUS
 62
     5
 10
-115.0
 20
-167.0
 30
0.0
 11
115.0
 21
-167.0
 31
0.0
  0
LINE
  5
95
  8
DETAIL
  6
CONTINUOUS
 62
     5
 10
72.5
 20
-165.0
 30
0.0
 11
115.0
 21
-165.0
 31
0.0
  0
LINE
  5
96
  8
DETAIL
  6
CONTINUOUS
 62
     5
 10
-72.5
 20
-165.0
 30
0.0
 11
-115.0
 21
-165.0
 31
0.0
  0
LINE
  5
97
  8
DETAIL
  6
CONTINUOUS
 62
     5
 10
115.0
 20
-167.0
 30
0.0
 11
115.0
 21
-165.0
 31
0.0
  0
LINE
  5
98
  8
DETAIL
  6
CONTINUOUS
 62
     5
 10
-115.0
 20
-167.0
 30
0.0
 11
-115.0
 21
-165.0
 31
0.0
  0
LINE
  5
99
  8
BASIS
  6
DASHDOT
 62
     6
 10
-225.95486700000001
 20
0.0
 30
0.0
 11
176.69253800000001
 21
0.0
 31
0.0
  0
LINE
  5
9A
  8
DETAIL
  6
CONTINUOUS
 62
     5
 10
-72.5
 20
-165.0
 30
0.0
 11
72.5
 21
-165.0
 31
0.0
  0
LINE
  5
9B
  8
DETAIL
  6
CONTINUOUS
 62
     5
 10
-105.0
 20
165.0
 30
0.0
 11
-80.0
 21
165.0
 31
0.0
  0
LINE
  5
9C
  8
BASIS
  6
DASHDOT
 62
     6
 10
0.0
 20
-233.87583599999999
 30
0.0
 11
0.0
 21
185.25039899999999
 31
0.0
  0
LINE
  5
9D
  8
DETAIL
  6
CONTINUOUS
 62
     5
 10
-105.0
 20
-165.0
 30
0.0
 11
-105.0
 21
165.0
 31
0.0
  0
LINE
  5
9E
  8
DETAIL
  6
CONTINUOUS
 62
     5
 10
-80.0
 20
-140.0
 30
0.0
 11
80.0
 21
-140.0
 31
0.0
  0
LINE
  5
9F
  8
DETAIL
  6
CONTINUOUS
 62
     5
 10
-80.0
 20
140.0
 30
0.0
 11
80.0
 21
140.0
 31
0.0
  0
LINE
  5
A0
  8
DETAIL
  6
CONTINUOUS
 62
     5
 10
80.0
 20
165.0
 30
0.0
 11
105.0
 21
165.0
 31
0.0
  0
LINE
  5
A1
  8
DETAIL
  6
CONTINUOUS
 62
     5
 10
-80.0
 20
-165.0
 30
0.0
 11
-80.0
 21
165.0
 31
0.0
  0
LINE
  5
A2
  8
DETAIL
  6
CONTINUOUS
 62
     5
 10
80.0
 20
-165.0
 30
0.0
 11
80.0
 21
165.0
 31
0.0
  0
TEXT
  5
A3
  8
NOTE
  6
CONTINUOUS
 62
     4
 10
247.285819
 20
-295.57687199999998
 30
0.0
 40
64.0
  1
AH 12-φ12×20
 41
0.9
  0
LINE
  5
A4
  8
NOTE
  6
CONTINUOUS
 62
     4
 10
907.13996099999997
 20
-325.00845399999997
 30
0.0
 11
234.62663499999999
 21
-325.00845399999997
 31
0.0
  0
LINE
  5
A5
  8
DETAIL
  6
CONTINUOUS
 62
     5
 10
-126.0
 20
-124.98976
 30
0.0
 11
-105.0
 21
-124.98976
 31
0.0
  0
ARC
  5
A6
  8
DETAIL
  6
CONTINUOUS
 62
     5
 10
-126.0
 20
-116.98976
 30
0.0
 40
8.0
 50
180.0
 51
270.0
  0
LINE
  5
A7
  8
DETAIL
  6
CONTINUOUS
 62
     5
 10
-134.0
 20
-116.98976
 30
0.0
 11
-134.0
 21
116.98976
 31
0.0
  0
ARC
  5
A8
  8
DETAIL
  6
CONTINUOUS
 62
     5
 10
-126.0
 20
116.98976
 30
0.0
 40
8.0
 50
90.0
 51
180.0
  0
LINE
  5
A9
  8
DETAIL
  6
CONTINUOUS
 62
     5
 10
-126.0
 20
124.98976
 30
0.0
 11
-105.0
 21
124.98976
 31
0.0
  0
LINE
  5
AA
  8
NOTE
  6
CONTINUOUS
 62
     4
 10
-95.0
 20
-105.0
 30
0.0
 11
-95.0
 21
-145.0
 31
0.0
  0
LINE
  5
AB
  8
NOTE
  6
CONTINUOUS
 62
     4
 10
-75.0
 20
-125.0
 30
0.0
 11
-115.0
 21
-125.0
 31
0.0
  0
CIRCLE
  5
AC
  8
FIX
  6
CONTINUOUS
 62
    11
 10
-95.0
 20
-125.0
 30
0.0
 40
6.0
  0
ARC
  5
AD
  8
DETAIL
  6
CONTINUOUS
 62
     5
 10
-95.0
 20
-125.0
 30
0.0
 40
10.0
 50
53.130102000000001
 51
126.86989800000001
  0
ARC
  5
AE
  8
DETAIL
  6
CONTINUOUS
 62
     5
 10
-95.0
 20
-125.0
 30
0.0
 40
10.0
 50
233.13010199999999
 51
306.86989799999998
  0
LINE
  5
AF
  8
DETAIL
  6
CONTINUOUS
 62
     5
 10
-101.0
 20
-117.0
 30
0.0
 11
-101.0
 21
-133.0
 31
0.0
  0
LINE
  5
B0
  8
DETAIL
  6
CONTINUOUS
 62
     5
 10
-89.0
 20
-117.0
 30
0.0
 11
-89.0
 21
-133.0
 31
0.0
  0
LINE
  5
B1
  8
DETAIL
  6
CONTINUOUS
 62
     5
 10
89.0
 20
-117.0
 30
0.0
 11
89.0
 21
-133.0
 31
0.0
  0
LINE
  5
B2
  8
DETAIL
  6
CONTINUOUS
 62
     5
 10
101.0
 20
-117.0
 30
0.0
 11
101.0
 21
-133.0
 31
0.0
  0
ARC
  5
B3
  8
DETAIL
  6
CONTINUOUS
 62
     5
 10
95.0
 20
-125.0
 30
0.0
 40
10.0
 50
233.13010199999999
 51
306.86989799999998
  0
ARC
  5
B4
  8
DETAIL
  6
CONTINUOUS
 62
     5
 10
95.0
 20
-125.0
 30
0.0
 40
10.0
 50
53.130102000000001
 51
126.86989800000001
  0
CIRCLE
  5
B5
  8
FIX
  6
CONTINUOUS
 62
    11
 10
95.0
 20
-125.0
 30
0.0
 40
6.0
  0
LINE
  5
B6
  8
NOTE
  6
CONTINUOUS
 62
     4
 10
95.0
 20
-105.0
 30
0.0
 11
95.0
 21
-145.0
 31
0.0
  0
LINE
  5
B7
  8
NOTE
  6
CONTINUOUS
 62
     4
 10
75.0
 20
-125.0
 30
0.0
 11
115.0
 21
-125.0
 31
0.0
  0
LINE
  5
B8
  8
DETAIL
  6
CONTINUOUS
 62
     5
 10
-89.0
 20
117.0
 30
0.0
 11
-89.0
 21
133.0
 31
0.0
  0
LINE
  5
B9
  8
DETAIL
  6
CONTINUOUS
 62
     5
 10
-101.0
 20
117.0
 30
0.0
 11
-101.0
 21
133.0
 31
0.0
  0
ARC
  5
BA
  8
DETAIL
  6
CONTINUOUS
 62
     5
 10
-95.0
 20
125.0
 30
0.0
 40
10.0
 50
53.130102000000001
 51
126.86989800000001
  0
ARC
  5
BB
  8
DETAIL
  6
CONTINUOUS
 62
     5
 10
-95.0
 20
125.0
 30
0.0
 40
10.0
 50
233.13010199999999
 51
306.86989799999998
  0
CIRCLE
  5
BC
  8
FIX
  6
CONTINUOUS
 62
    11
 10
-95.0
 20
125.0
 30
0.0
 40
6.0
  0
LINE
  5
BD
  8
NOTE
  6
CONTINUOUS
 62
     4
 10
-95.0
 20
105.0
 30
0.0
 11
-95.0
 21
145.0
 31
0.0
  0
LINE
  5
BE
  8
NOTE
  6
CONTINUOUS
 62
     4
 10
-75.0
 20
125.0
 30
0.0
 11
-115.0
 21
125.0
 31
0.0
  0
CIRCLE
  5
BF
  8
FIX
  6
CONTINUOUS
 62
    11
 10
95.0
 20
125.0
 30
0.0
 40
6.0
  0
ARC
  5
C0
  8
DETAIL
  6
CONTINUOUS
 62
     5
 10
95.0
 20
125.0
 30
0.0
 40
10.0
 50
233.13010199999999
 51
306.86989799999998
  0
ARC
  5
C1
  8
DETAIL
  6
CONTINUOUS
 62
     5
 10
95.0
 20
125.0
 30
0.0
 40
10.0
 50
53.130102000000001
 51
126.86989800000001
  0
LINE
  5
C2
  8
DETAIL
  6
CONTINUOUS
 62
     5
 10
101.0
 20
117.0
 30
0.0
 11
101.0
 21
133.0
 31
0.0
  0
LINE
  5
C3
  8
DETAIL
  6
CONTINUOUS
 62
     5
 10
89.0
 20
117.0
 30
0.0
 11
89.0
 21
133.0
 31
0.0
  0
LINE
  5
C4
  8
NOTE
  6
CONTINUOUS
 62
     4
 10
95.0
 20
105.0
 30
0.0
 11
95.0
 21
145.0
 31
0.0
  0
LINE
  5
C5
  8
NOTE
  6
CONTINUOUS
 62
     4
 10
75.0
 20
125.0
 30
0.0
 11
115.0
 21
125.0
 31
0.0
  0
CIRCLE
  5
C6
  8
FIX
  6
CONTINUOUS
 62
    11
 10
-95.0
 20
165.0
 30
0.0
 40
6.0
  0
LINE
  5
C7
  8
NOTE
  6
CONTINUOUS
 62
     4
 10
-95.0
 20
145.0
 30
0.0
 11
-95.0
 21
185.0
 31
0.0
  0
LINE
  5
C8
  8
NOTE
  6
CONTINUOUS
 62
     4
 10
-75.0
 20
165.0
 30
0.0
 11
-115.0
 21
165.0
 31
0.0
  0
LINE
  5
C9
  8
NOTE
  6
CONTINUOUS
 62
     4
 10
95.0
 20
145.0
 30
0.0
 11
95.0
 21
185.0
 31
0.0
  0
LINE
  5
CA
  8
NOTE
  6
CONTINUOUS
 62
     4
 10
75.0
 20
165.0
 30
0.0
 11
115.0
 21
165.0
 31
0.0
  0
CIRCLE
  5
CB
  8
FIX
  6
CONTINUOUS
 62
    11
 10
95.0
 20
165.0
 30
0.0
 40
6.0
  0
LINE
  5
CC
  8
SIZE
  6
CONTINUOUS
 62
    30
 10
-135.0
 20
125.0
 30
0.0
 11
-507.93893899999989
 21
125.0
 31
0.0
  0
LINE
  5
CD
  8
SIZE
  6
CONTINUOUS
 62
    30
 10
-135.0
 20
-125.0
 30
0.0
 11
-507.93893899999989
 21
-125.0
 31
0.0
  0
LINE
  5
CE
  8
SIZE
  6
CONTINUOUS
 62
    30
 10
-487.93893899999989
 20
113.0
 30
0.0
 11
-487.93893899999989
 21
-113.0
 31
0.0
  0
TEXT
  5
CF
  8
SIZE
  6
CONTINUOUS
 62
    30
 10
-512.938939
 20
-73.42333385714285
 30
0.0
 40
64.0
  1
250
 50
90.0
 41
0.9
 72
     1
 11
-512.938939
 21
0.6338090000000002
 31
0.0
  0
CIRCLE
  5
D0
  8
SIZE
  6
CONTINUOUS
 62
    30
 10
-487.93893899999989
 20
125.0
 30
0.0
 40
6.0
  0
LINE
  5
D1
  8
SIZE
  6
CONTINUOUS
 62
    30
 10
-487.93893899999989
 20
125.0
 30
0.0
 11
-487.93893899999989
 21
113.0
 31
0.0
  0
CIRCLE
  5
D2
  8
SIZE
  6
CONTINUOUS
 62
    30
 10
-487.93893899999989
 20
-125.0
 30
0.0
 40
6.0
  0
LINE
  5
D3
  8
SIZE
  6
CONTINUOUS
 62
    30
 10
-487.93893899999989
 20
-125.0
 30
0.0
 11
-487.93893899999989
 21
-113.0
 31
0.0
  0
POINT
  5
D4
  8
DEFPOINTS
  6
CONTINUOUS
 62
    30
 10
-115.0
 20
125.0
 30
0.0
  0
POINT
  5
D5
  8
DEFPOINTS
  6
CONTINUOUS
 62
    30
 10
-115.0
 20
-125.0
 30
0.0
  0
POINT
  5
D6
  8
DEFPOINTS
  6
CONTINUOUS
 62
    30
 10
-487.93893899999989
 20
-125.0
 30
0.0
  0
LINE
  5
D7
  8
SIZE
  6
CONTINUOUS
 62
    30
 10
125.0
 20
165.0
 30
0.0
 11
398.70197899999999
 21
165.0
 31
0.0
  0
LINE
  5
D8
  8
SIZE
  6
CONTINUOUS
 62
    30
 10
135.0
 20
-165.0
 30
0.0
 11
398.70197899999999
 21
-165.0
 31
0.0
  0
LINE
  5
D9
  8
SIZE
  6
CONTINUOUS
 62
    30
 10
378.70197899999999
 20
153.0
 30
0.0
 11
378.70197899999999
 21
-153.0
 31
0.0
  0
TEXT
  5
DA
  8
SIZE
  6
CONTINUOUS
 62
    30
 10
351.58044200000001
 20
-74.057142857142864
 30
0.0
 40
64.0
  1
330
 50
90.0
 41
0.9
 72
     1
 11
351.58044200000001
 21
0.0
 31
0.0
  0
CIRCLE
  5
DB
  8
SIZE
  6
CONTINUOUS
 62
    30
 10
378.70197899999999
 20
165.0
 30
0.0
 40
6.0
  0
LINE
  5
DC
  8
SIZE
  6
CONTINUOUS
 62
    30
 10
378.70197899999999
 20
165.0
 30
0.0
 11
378.70197899999999
 21
153.0
 31
0.0
  0
CIRCLE
  5
DD
  8
SIZE
  6
CONTINUOUS
 62
    30
 10
378.70197899999999
 20
-165.0
 30
0.0
 40
6.0
  0
LINE
  5
DE
  8
SIZE
  6
CONTINUOUS
 62
    30
 10
378.70197899999999
 20
-165.0
 30
0.0
 11
378.70197899999999
 21
-153.0
 31
0.0
  0
POINT
  5
DF
  8
DEFPOINTS
  6
CONTINUOUS
 62
    30
 10
105.0
 20
165.0
 30
0.0
  0
POINT
  5
E0
  8
DEFPOINTS
  6
CONTINUOUS
 62
    30
 10
115.0
 20
-165.0
 30
0.0
  0
POINT
  5
E1
  8
DEFPOINTS
  6
CONTINUOUS
 62
    30
 10
378.70197899999999
 20
-165.0
 30
0.0
  0
LINE
  5
E2
  8
SIZE
  6
CONTINUOUS
 62
    30
 10
-80.0
 20
185.0
 30
0.0
 11
-80.0
 21
317.57626899999991
 31
0.0
  0
LINE
  5
E3
  8
SIZE
  6
CONTINUOUS
 62
    30
 10
-105.0
 20
185.0
 30
0.0
 11
-105.0
 21
317.57626899999991
 31
0.0
  0
LINE
  5
E4
  8
SIZE
  6
CONTINUOUS
 62
    30
 10
-68.0
 20
297.57626900000002
 30
0.0
 11
-56.0
 21
297.57626900000002
 31
0.0
  0
LINE
  5
E5
  8
SIZE
  6
CONTINUOUS
 62
    30
 10
-117.0
 20
297.57626900000002
 30
0.0
 11
-129.0
 21
297.57626900000002
 31
0.0
  0
LINE
  5
E6
  8
SIZE
  6
CONTINUOUS
 62
    30
 10
-326.60940399999998
 20
297.57626900000002
 30
0.0
 11
-105.0
 21
297.57626900000002
 31
0.0
  0
TEXT
  5
E7
  8
SIZE
  6
CONTINUOUS
 62
    30
 10
-301.60940442857139
 20
322.57626900000002
 30
0.0
 40
64.0
  1
25
 41
0.9
 72
     1
 11
-254.98083299999999
 21
322.57626900000002
 31
0.0
  0
LINE
  5
E8
  8
SIZE
  6
CONTINUOUS
 62
    30
 10
-80.0
 20
297.57626900000002
 30
0.0
 11
-105.0
 21
297.57626900000002
 31
0.0
  0
LINE
  5
E9
  8
SIZE
  6
CONTINUOUS
 62
    30
 10
-80.0
 20
297.57626900000002
 30
0.0
 11
-105.0
 21
297.57626900000002
 31
0.0
  0
CIRCLE
  5
EA
  8
SIZE
  6
CONTINUOUS
 62
    30
 10
-80.0
 20
297.57626900000002
 30
0.0
 40
6.0
  0
LINE
  5
EB
  8
SIZE
  6
CONTINUOUS
 62
    30
 10
-80.0
 20
297.57626900000002
 30
0.0
 11
-68.0
 21
297.57626900000002
 31
0.0
  0
CIRCLE
  5
EC
  8
SIZE
  6
CONTINUOUS
 62
    30
 10
-105.0
 20
297.57626900000002
 30
0.0
 40
6.0
  0
LINE
  5
ED
  8
SIZE
  6
CONTINUOUS
 62
    30
 10
-105.0
 20
297.57626900000002
 30
0.0
 11
-117.0
 21
297.57626900000002
 31
0.0
  0
POINT
  5
EE
  8
DEFPOINTS
  6
CONTINUOUS
 62
    30
 10
-80.0
 20
165.0
 30
0.0
  0
POINT
  5
EF
  8
DEFPOINTS
  6
CONTINUOUS
 62
    30
 10
-105.0
 20
165.0
 30
0.0
  0
POINT
  5
F0
  8
DEFPOINTS
  6
CONTINUOUS
 62
    30
 10
-105.0
 20
297.57626900000002
 30
0.0
  0
LINE
  5
F1
  8
SIZE
  6
CONTINUOUS
 62
    30
 10
80.0
 20
185.0
 30
0.0
 11
80.0
 21
317.57626899999991
 31
0.0
  0
LINE
  5
F2
  8
SIZE
  6
CONTINUOUS
 62
    30
 10
105.0
 20
185.0
 30
0.0
 11
105.0
 21
317.57626899999991
 31
0.0
  0
LINE
  5
F3
  8
SIZE
  6
CONTINUOUS
 62
    30
 10
68.0
 20
297.57626900000002
 30
0.0
 11
56.0
 21
297.57626900000002
 31
0.0
  0
LINE
  5
F4
  8
SIZE
  6
CONTINUOUS
 62
    30
 10
117.0
 20
297.57626900000002
 30
0.0
 11
129.0
 21
297.57626900000002
 31
0.0
  0
TEXT
  5
F5
  8
SIZE
  6
CONTINUOUS
 62
    30
 10
135.94232457142849
 20
322.714225
 30
0.0
 40
64.0
  1
25
 41
0.9
 72
     1
 11
182.570896
 21
322.714225
 31
0.0
  0
LINE
  5
F6
  8
SIZE
  6
CONTINUOUS
 62
    30
 10
80.0
 20
297.57626900000002
 30
0.0
 11
105.0
 21
297.57626900000002
 31
0.0
  0
LINE
  5
F7
  8
SIZE
  6
CONTINUOUS
 62
    30
 10
80.0
 20
297.57626900000002
 30
0.0
 11
105.0
 21
297.57626900000002
 31
0.0
  0
CIRCLE
  5
F8
  8
SIZE
  6
CONTINUOUS
 62
    30
 10
80.0
 20
297.57626900000002
 30
0.0
 40
6.0
  0
LINE
  5
F9
  8
SIZE
  6
CONTINUOUS
 62
    30
 10
80.0
 20
297.57626900000002
 30
0.0
 11
68.0
 21
297.57626900000002
 31
0.0
  0
CIRCLE
  5
FA
  8
SIZE
  6
CONTINUOUS
 62
    30
 10
105.0
 20
297.57626900000002
 30
0.0
 40
6.0
  0
LINE
  5
FB
  8
SIZE
  6
CONTINUOUS
 62
    30
 10
105.0
 20
297.57626900000002
 30
0.0
 11
117.0
 21
297.57626900000002
 31
0.0
  0
POINT
  5
FC
  8
DEFPOINTS
  6
CONTINUOUS
 62
    30
 10
80.0
 20
165.0
 30
0.0
  0
POINT
  5
FD
  8
DEFPOINTS
  6
CONTINUOUS
 62
    30
 10
105.0
 20
165.0
 30
0.0
  0
POINT
  5
FE
  8
DEFPOINTS
  6
CONTINUOUS
 62
    30
 10
105.0
 20
297.57626900000002
 30
0.0
  0
LINE
  5
FF
  8
BASIS
  6
DASHDOT
 62
     6
 10
62.715868999999991
 20
1.0
 30
0.0
 11
130.07404299999999
 21
1.0
 31
0.0
  0
LINE
  5
100
  8
SIZE
  6
CONTINUOUS
 62
    30
 10
95.0
 20
205.0
 30
0.0
 11
95.0
 21
391.09378800000002
 31
0.0
  0
LINE
  5
101
  8
SIZE
  6
CONTINUOUS
 62
    30
 10
-95.0
 20
205.0
 30
0.0
 11
-95.0
 21
391.09378800000002
 31
0.0
  0
LINE
  5
102
  8
SIZE
  6
CONTINUOUS
 62
    30
 10
83.0
 20
371.0937879999999
 30
0.0
 11
-83.0
 21
371.0937879999999
 31
0.0
  0
TEXT
  5
103
  8
SIZE
  6
CONTINUOUS
 62
    30
 10
-68.571428571428569
 20
396.805612
 30
0.0
 40
64.0
  1
190
 41
0.9
 72
     1
 11
0.0
 21
396.805612
 31
0.0
  0
CIRCLE
  5
104
  8
SIZE
  6
CONTINUOUS
 62
    30
 10
95.0
 20
371.0937879999999
 30
0.0
 40
6.0
  0
LINE
  5
105
  8
SIZE
  6
CONTINUOUS
 62
    30
 10
95.0
 20
371.0937879999999
 30
0.0
 11
83.0
 21
371.0937879999999
 31
0.0
  0
CIRCLE
  5
106
  8
SIZE
  6
CONTINUOUS
 62
    30
 10
-95.0
 20
371.0937879999999
 30
0.0
 40
6.0
  0
LINE
  5
107
  8
SIZE
  6
CONTINUOUS
 62
    30
 10
-95.0
 20
371.0937879999999
 30
0.0
 11
-83.0
 21
371.0937879999999
 31
0.0
  0
POINT
  5
108
  8
DEFPOINTS
  6
CONTINUOUS
 62
    30
 10
95.0
 20
185.0
 30
0.0
  0
POINT
  5
109
  8
DEFPOINTS
  6
CONTINUOUS
 62
    30
 10
-95.0
 20
185.0
 30
0.0
  0
POINT
  5
10A
  8
DEFPOINTS
  6
CONTINUOUS
 62
    30
 10
-95.0
 20
371.0937879999999
 30
0.0
  0
LINE
  5
10B
  8
SIZE
  6
CONTINUOUS
 62
    30
 10
-95.0
 20
-165.0
 30
0.0
 11
-95.0
 21
-417.20034500000003
 31
0.0
  0
LINE
  5
10C
  8
SIZE
  6
CONTINUOUS
 62
    30
 10
95.0
 20
-165.0
 30
0.0
 11
95.0
 21
-417.20034500000003
 31
0.0
  0
LINE
  5
10D
  8
SIZE
  6
CONTINUOUS
 62
    30
 10
-83.0
 20
-397.20034500000003
 30
0.0
 11
83.0
 21
-397.20034500000003
 31
0.0
  0
TEXT
  5
10E
  8
SIZE
  6
CONTINUOUS
 62
    30
 10
-68.571428571428569
 20
-373.39612499999998
 30
0.0
 40
64.0
  1
190
 41
0.9
 72
     1
 11
0.0
 21
-373.39612499999998
 31
0.0
  0
CIRCLE
  5
10F
  8
SIZE
  6
CONTINUOUS
 62
    30
 10
-95.0
 20
-397.20034500000003
 30
0.0
 40
6.0
  0
LINE
  5
110
  8
SIZE
  6
CONTINUOUS
 62
    30
 10
-95.0
 20
-397.20034500000003
 30
0.0
 11
-83.0
 21
-397.20034500000003
 31
0.0
  0
CIRCLE
  5
111
  8
SIZE
  6
CONTINUOUS
 62
    30
 10
95.0
 20
-397.20034500000003
 30
0.0
 40
6.0
  0
LINE
  5
112
  8
SIZE
  6
CONTINUOUS
 62
    30
 10
95.0
 20
-397.20034500000003
 30
0.0
 11
83.0
 21
-397.20034500000003
 31
0.0
  0
POINT
  5
113
  8
DEFPOINTS
  6
CONTINUOUS
 62
    30
 10
-95.0
 20
-145.0
 30
0.0
  0
POINT
  5
114
  8
DEFPOINTS
  6
CONTINUOUS
 62
    30
 10
95.0
 20
-145.0
 30
0.0
  0
POINT
  5
115
  8
DEFPOINTS
  6
CONTINUOUS
 62
    30
 10
95.0
 20
-397.20034500000003
 30
0.0
  0
LINE
  5
116
  8
SIZE
  6
CONTINUOUS
 62
    30
 10
105.0
 20
185.0
 30
0.0
 11
105.0
 21
508.42661500000003
 31
0.0
  0
LINE
  5
117
  8
SIZE
  6
CONTINUOUS
 62
    30
 10
-105.0
 20
185.0
 30
0.0
 11
-105.0
 21
508.42661500000003
 31
0.0
  0
LINE
  5
118
  8
SIZE
  6
CONTINUOUS
 62
    30
 10
93.0
 20
488.42661500000003
 30
0.0
 11
-93.0
 21
488.42661500000003
 31
0.0
  0
CIRCLE
  5
119
  8
SIZE
  6
CONTINUOUS
 62
    30
 10
105.0
 20
488.42661500000003
 30
0.0
 40
6.0
  0
LINE
  5
11A
  8
SIZE
  6
CONTINUOUS
 62
    30
 10
105.0
 20
488.42661500000003
 30
0.0
 11
93.0
 21
488.42661500000003
 31
0.0
  0
CIRCLE
  5
11B
  8
SIZE
  6
CONTINUOUS
 62
    30
 10
-105.0
 20
488.42661500000003
 30
0.0
 40
6.0
  0
LINE
  5
11C
  8
SIZE
  6
CONTINUOUS
 62
    30
 10
-105.0
 20
488.42661500000003
 30
0.0
 11
-93.0
 21
488.42661500000003
 31
0.0
  0
TEXT
  5
11D
  8
SIZE
  6
CONTINUOUS
 62
    30
 10
-68.571428571428555
 20
513.42661500000008
 30
0.0
 40
64.0
  1
210
 41
0.9
 72
     1
 11
0.0
 21
513.42661500000008
 31
0.0
  0
POINT
  5
11E
  8
DEFPOINTS
  6
CONTINUOUS
 62
    30
 10
105.0
 20
165.0
 30
0.0
  0
POINT
  5
11F
  8
DEFPOINTS
  6
CONTINUOUS
 62
    30
 10
-105.0
 20
165.0
 30
0.0
  0
POINT
  5
120
  8
DEFPOINTS
  6
CONTINUOUS
 62
    30
 10
-105.0
 20
488.42661500000003
 30
0.0
  0
LINE
  5
121
  8
SIZE
  6
CONTINUOUS
 62
    30
 10
-115.0
 20
-187.0
 30
0.0
 11
-115.0
 21
-555.88377100000002
 31
0.0
  0
LINE
  5
122
  8
SIZE
  6
CONTINUOUS
 62
    30
 10
115.0
 20
-187.0
 30
0.0
 11
115.0
 21
-555.88377100000002
 31
0.0
  0
LINE
  5
123
  8
SIZE
  6
CONTINUOUS
 62
    30
 10
-103.0
 20
-535.88377100000002
 30
0.0
 11
103.0
 21
-535.88377100000002
 31
0.0
  0
TEXT
  5
124
  8
SIZE
  6
CONTINUOUS
 62
    30
 10
-125.40130985714291
 20
-510.25073199999991
 30
0.0
 40
64.0
  1
φ230
 41
0.9
 72
     1
 11
-11.024167
 21
-510.25073199999991
 31
0.0
  0
CIRCLE
  5
125
  8
SIZE
  6
CONTINUOUS
 62
    30
 10
-115.0
 20
-535.88377100000002
 30
0.0
 40
6.0
  0
LINE
  5
126
  8
SIZE
  6
CONTINUOUS
 62
    30
 10
-115.0
 20
-535.88377100000002
 30
0.0
 11
-103.0
 21
-535.88377100000002
 31
0.0
  0
CIRCLE
  5
127
  8
SIZE
  6
CONTINUOUS
 62
    30
 10
115.0
 20
-535.88377100000002
 30
0.0
 40
6.0
  0
LINE
  5
128
  8
SIZE
  6
CONTINUOUS
 62
    30
 10
115.0
 20
-535.88377100000002
 30
0.0
 11
103.0
 21
-535.88377100000002
 31
0.0
  0
POINT
  5
129
  8
DEFPOINTS
  6
CONTINUOUS
 62
    30
 10
-115.0
 20
-167.0
 30
0.0
  0
POINT
  5
12A
  8
DEFPOINTS
  6
CONTINUOUS
 62
    30
 10
115.0
 20
-167.0
 30
0.0
  0
POINT
  5
12B
  8
DEFPOINTS
  6
CONTINUOUS
 62
    30
 10
115.0
 20
-535.88377100000002
 30
0.0
  0
LINE
  5
12C
  8
SIZE
  6
CONTINUOUS
 62
    30
 10
107.0
 20
297.57626900000002
 30
0.0
 11
241.56725700000001
 21
297.57626900000002
 31
0.0
  0
LINE
  5
12D
  8
SIZE
  6
CONTINUOUS
 62
    30
 10
-105.0
 20
297.57626900000002
 30
0.0
 11
-311.22079400000001
 21
297.57626900000002
 31
0.0
  0
LINE
  5
12E
  8
SIZE
  6
CONTINUOUS
 62
    30
 10
-226.66897499999999
 20
1.5
 30
0.0
 11
-325.9015839999999
 21
1.5
 31
0.0
  0
LINE
  5
12F
  8
SIZE
  6
CONTINUOUS
 62
    30
 10
-135.0
 20
-165.0
 30
0.0
 11
-325.9015839999999
 21
-165.0
 31
0.0
  0
LINE
  5
130
  8
SIZE
  6
CONTINUOUS
 62
    30
 10
-305.90158400000001
 20
-10.5
 30
0.0
 11
-305.90158400000001
 21
-153.0
 31
0.0
  0
LINE
  5
131
  8
SIZE
  6
CONTINUOUS
 62
    30
 10
-305.90158400000001
 20
-463.25908099999992
 30
0.0
 11
-305.90158400000001
 21
-165.0
 31
0.0
  0
TEXT
  5
132
  8
SIZE
  6
CONTINUOUS
 62
    30
 10
-330.90158400000001
 20
-438.25908071428569
 30
0.0
 40
64.0
  1
166.5
 50
90.0
 41
0.9
 72
     1
 11
-330.90158400000001
 21
-328.54479500000002
 31
0.0
  0
CIRCLE
  5
133
  8
SIZE
  6
CONTINUOUS
 62
    30
 10
-305.90158400000001
 20
1.5
 30
0.0
 40
6.0
  0
LINE
  5
134
  8
SIZE
  6
CONTINUOUS
 62
    30
 10
-305.90158400000001
 20
1.5
 30
0.0
 11
-305.90158400000001
 21
-10.5
 31
0.0
  0
CIRCLE
  5
135
  8
SIZE
  6
CONTINUOUS
 62
    30
 10
-305.90158400000001
 20
-165.0
 30
0.0
 40
6.0
  0
LINE
  5
136
  8
SIZE
  6
CONTINUOUS
 62
    30
 10
-305.90158400000001
 20
-165.0
 30
0.0
 11
-305.90158400000001
 21
-153.0
 31
0.0
  0
POINT
  5
137
  8
DEFPOINTS
  6
CONTINUOUS
 62
    30
 10
-206.66897499999999
 20
1.5
 30
0.0
  0
POINT
  5
138
  8
DEFPOINTS
  6
CONTINUOUS
 62
    30
 10
-115.0
 20
-165.0
 30
0.0
  0
POINT
  5
139
  8
DEFPOINTS
  6
CONTINUOUS
 62
    30
 10
-305.90158400000001
 20
-165.0
 30
0.0
  0
LINE
  5
13A
  8
NOTE
  6
CONTINUOUS
 62
     4
 10
95.0
 20
-125.0
 30
0.0
 11
234.62663499999999
 21
-325.00845399999997
 31
0.0
  0
LINE
  5
13B
  8
NOTE
  6
CONTINUOUS
 62
     4
 10
109.857495
 20
-162.13831999999999
 30
0.0
 11
95.0
 21
-125.0
 31
0.0
  0
LINE
  5
13C
  8
NOTE
  6
CONTINUOUS
 62
     4
 10
95.0
 20
-125.0
 30
0.0
 11
126.43612899999999
 21
-149.733981
 31
0.0
  0
LINE
  5
13D
  8
OUTLINE
  6
CONTINUOUS
 62
     3
 10
-126.0
 20
124.98976
 30
0.0
 11
-105.0
 21
124.98976
 31
0.0
  0
ARC
  5
13E
  8
OUTLINE
  6
CONTINUOUS
 62
     3
 10
-126.0
 20
116.98976
 30
0.0
 40
8.0
 50
90.0
 51
180.0
  0
LINE
  5
13F
  8
OUTLINE
  6
CONTINUOUS
 62
     3
 10
-134.0
 20
-116.98976
 30
0.0
 11
-134.0
 21
116.98976
 31
0.0
  0
ARC
  5
140
  8
OUTLINE
  6
CONTINUOUS
 62
     3
 10
-126.0
 20
-116.98976
 30
0.0
 40
8.0
 50
180.0
 51
270.0
  0
LINE
  5
141
  8
OUTLINE
  6
CONTINUOUS
 62
     3
 10
-126.0
 20
-124.98976
 30
0.0
 11
-105.0
 21
-124.98976
 31
0.0
  0
LINE
  5
142
  8
OUTLINE
  6
CONTINUOUS
 62
     3
 10
80.0
 20
-165.0
 30
0.0
 11
80.0
 21
165.0
 31
0.0
  0
LINE
  5
143
  8
OUTLINE
  6
CONTINUOUS
 62
     3
 10
-80.0
 20
-165.0
 30
0.0
 11
-80.0
 21
165.0
 31
0.0
  0
LINE
  5
144
  8
OUTLINE
  6
CONTINUOUS
 62
     3
 10
80.0
 20
165.0
 30
0.0
 11
105.0
 21
165.0
 31
0.0
  0
LINE
  5
145
  8
OUTLINE
  6
CONTINUOUS
 62
     3
 10
-80.0
 20
140.0
 30
0.0
 11
80.0
 21
140.0
 31
0.0
  0
LINE
  5
146
  8
OUTLINE
  6
CONTINUOUS
 62
     3
 10
-80.0
 20
-140.0
 30
0.0
 11
80.0
 21
-140.0
 31
0.0
  0
LINE
  5
147
  8
OUTLINE
  6
CONTINUOUS
 62
     3
 10
-105.0
 20
-165.0
 30
0.0
 11
-105.0
 21
165.0
 31
0.0
  0
LINE
  5
148
  8
OUTLINE
  6
CONTINUOUS
 62
     3
 10
-105.0
 20
165.0
 30
0.0
 11
-80.0
 21
165.0
 31
0.0
  0
LINE
  5
149
  8
OUTLINE
  6
CONTINUOUS
 62
     3
 10
80.0
 20
-165.0
 30
0.0
 11
-115.0
 21
-165.0
 31
0.0
  0
LINE
  5
14A
  8
OUTLINE
  6
CONTINUOUS
 62
     3
 10
72.5
 20
-165.0
 30
0.0
 11
115.0
 21
-165.0
 31
0.0
  0
LINE
  5
14B
  8
OUTLINE
  6
CONTINUOUS
 62
     3
 10
105.0
 20
-165.0
 30
0.0
 11
105.0
 21
165.0
 31
0.0
  0
POINT
  5
14C
  8
ARRANGE
  6
CONTINUOUS
 62
     1
 10
0.0
 20
0.0
 30
0.0
  0
CIRCLE
  5
14D
  8
ARRANGE
  6
CONTINUOUS
 62
     1
 10
0.0
 20
0.0
 30
0.0
 40
40.0
  0
LINE
  5
14E
  8
SIZE
  6
CONTINUOUS
 62
    30
 10
105.0
 20
186.59999999999999
 30
0.0
 11
105.0
 21
622.35273399999994
 31
0.0
  0
LINE
  5
14F
  8
SIZE
  6
CONTINUOUS
 62
    30
 10
-186.0
 20
74.599999999999994
 30
0.0
 11
-186.0
 21
622.35273399999994
 31
0.0
  0
LINE
  5
150
  8
SIZE
  6
CONTINUOUS
 62
    30
 10
93.0
 20
602.35273399999994
 30
0.0
 11
-174.0
 21
602.35273399999994
 31
0.0
  0
TEXT
  5
151
  8
SIZE
  6
CONTINUOUS
 62
    30
 10
-106.6651157142857
 20
629.31899400000009
 30
0.0
 40
64.0
  1
291
 41
0.9
 72
     1
 11
-44.950830000000003
 21
629.31899400000009
 31
0.0
  0
CIRCLE
  5
152
  8
SIZE
  6
CONTINUOUS
 62
    30
 10
105.0
 20
602.35273399999994
 30
0.0
 40
6.0
  0
LINE
  5
153
  8
SIZE
  6
CONTINUOUS
 62
    30
 10
105.0
 20
602.35273399999994
 30
0.0
 11
93.0
 21
602.35273399999994
 31
0.0
  0
CIRCLE
  5
154
  8
SIZE
  6
CONTINUOUS
 62
    30
 10
-186.0
 20
602.35273399999994
 30
0.0
 40
6.0
  0
LINE
  5
155
  8
SIZE
  6
CONTINUOUS
 62
    30
 10
-186.0
 20
602.35273399999994
 30
0.0
 11
-174.0
 21
602.35273399999994
 31
0.0
  0
POINT
  5
156
  8
DEFPOINTS
  6
CONTINUOUS
 62
    30
 10
105.0
 20
166.59999999999999
 30
0.0
  0
POINT
  5
157
  8
DEFPOINTS
  6
CONTINUOUS
 62
    30
 10
-186.0
 20
54.600000000000001
 30
0.0
  0
POINT
  5
158
  8
DEFPOINTS
  6
CONTINUOUS
 62
    30
 10
-186.0
 20
602.35273399999994
 30
0.0
  0
TEXT
  5
159
  8
NOTE
  6
CONTINUOUS
 62
     4
 10
208.81610599999999
 20
-64.636593999999988
 30
0.0
 40
64.0
  1
入口
 50
90.0
 41
0.9
  0
TEXT
  5
15A
  8
NOTE
  6
CONTINUOUS
 62
     4
 10
-56.365797000000001
 20
-285.28027400000002
 30
0.0
 40
64.0
  1
出口
 41
0.9
  0
LINE
  5
15C
  8
SIZE
  6
CONTINUOUS
 62
    30
 10
-203.5
 20
57.100000000000001
 30
0.0
 11
-398.135514
 21
57.100000000000001
 31
0.0
  0
LINE
  5
15D
  8
SIZE
  6
CONTINUOUS
 62
    30
 10
-203.5
 20
-54.100000000000001
 30
0.0
 11
-398.135514
 21
-54.100000000000001
 31
0.0
  0
LINE
  5
15E
  8
SIZE
  6
CONTINUOUS
 62
    30
 10
-378.135514
 20
45.100000000000001
 30
0.0
 11
-378.135514
 21
-42.099999999999987
 31
0.0
  0
LINE
  5
15F
  8
SIZE
  6
CONTINUOUS
 62
    30
 10
-378.135514
 20
452.93946899999997
 30
0.0
 11
-378.135514
 21
57.100000000000001
 31
0.0
  0
TEXT
  5
160
  8
SIZE
  6
CONTINUOUS
 62
    30
 10
-403.135514
 20
164.07661185714289
 30
0.0
 40
64.0
  1
φ111.2
 50
90.0
 41
0.9
 72
     1
 11
-403.135514
 21
303.13946900000002
 31
0.0
  0
CIRCLE
  5
161
  8
SIZE
  6
CONTINUOUS
 62
    30
 10
-378.135514
 20
57.100000000000001
 30
0.0
 40
6.0
  0
LINE
  5
162
  8
SIZE
  6
CONTINUOUS
 62
    30
 10
-378.135514
 20
57.100000000000001
 30
0.0
 11
-378.135514
 21
45.100000000000001
 31
0.0
  0
CIRCLE
  5
163
  8
SIZE
  6
CONTINUOUS
 62
    30
 10
-378.135514
 20
-54.100000000000001
 30
0.0
 40
6.0
  0
LINE
  5
164
  8
SIZE
  6
CONTINUOUS
 62
    30
 10
-378.135514
 20
-54.100000000000001
 30
0.0
 11
-378.135514
 21
-42.099999999999987
 31
0.0
  0
POINT
  5
165
  8
DEFPOINTS
  6
CONTINUOUS
 62
    30
 10
-183.5
 20
57.100000000000001
 30
0.0
  0
POINT
  5
166
  8
DEFPOINTS
  6
CONTINUOUS
 62
    30
 10
-183.5
 20
-54.100000000000001
 30
0.0
  0
POINT
  5
167
  8
DEFPOINTS
  6
CONTINUOUS
 62
    30
 10
-378.135514
 20
-54.100000000000001
 30
0.0
  0
LINE
  5
168
  8
OUTLINE
  6
CONTINUOUS
 62
     3
 10
-147.64168699999999
 20
57.5
 30
0.0
 11
-147.64168699999999
 21
57.100000000000001
 31
0.0
  0
LINE
  5
169
  8
OUTLINE
  6
CONTINUOUS
 62
     3
 10
-186.0
 20
54.600000000000001
 30
0.0
 11
-186.0
 21
1.464289999999999
 31
0.0
  0
LINE
  5
16A
  8
DETAIL
  6
CONTINUOUS
 62
     5
 10
-147.64168699999999
 20
57.5
 30
0.0
 11
-147.64168699999999
 21
-54.700000000000003
 31
0.0
  0
LINE
  5
16B
  8
DETAIL
  6
CONTINUOUS
 62
     5
 10
-147.64168699999999
 20
42.640059999999998
 30
0.0
 11
-147.64168699999999
 21
19.558406999999999
 31
0.0
  0
LINE
  5
16C
  8
DETAIL
  6
CONTINUOUS
 62
     5
 10
-186.0
 20
54.600000000000001
 30
0.0
 11
-186.0
 21
1.464289999999999
 31
0.0
  0
LINE
  5
16D
  8
OUTLINE
  6
CONTINUOUS
 62
     3
 10
-134.0
 20
-54.700000000000003
 30
0.0
 11
-147.64168699999999
 21
-54.700000000000003
 31
0.0
  0
LINE
  5
16E
  8
DETAIL
  6
CONTINUOUS
 62
     5
 10
-134.0
 20
-54.700000000000003
 30
0.0
 11
-147.64168699999999
 21
-54.700000000000003
 31
0.0
  0
LINE
  5
16F
  8
OUTLINE
  6
CONTINUOUS
 62
     3
 10
-183.5
 20
-54.100000000000001
 30
0.0
 11
-147.64168699999999
 21
-54.100000000000001
 31
0.0
  0
LINE
  5
170
  8
DETAIL
  6
CONTINUOUS
 62
     5
 10
-183.5
 20
-54.100000000000001
 30
0.0
 11
-147.64168699999999
 21
-54.100000000000001
 31
0.0
  0
LINE
  5
171
  8
OUTLINE
  6
CONTINUOUS
 62
     3
 10
-147.64168699999999
 20
-54.200000000000003
 30
0.0
 11
-147.64168699999999
 21
-54.100000000000001
 31
0.0
  0
LINE
  5
172
  8
OUTLINE
  6
CONTINUOUS
 62
     3
 10
-147.64168699999999
 20
-54.700000000000003
 30
0.0
 11
-147.64168699999999
 21
-54.200000000000003
 31
0.0
  0
LINE
  5
173
  8
OUTLINE
  6
CONTINUOUS
 62
     3
 10
-186.0
 20
-51.600000000000001
 30
0.0
 11
-186.0
 21
1.464289999999999
 31
0.0
  0
ARC
  5
174
  8
OUTLINE
  6
CONTINUOUS
 62
     3
 10
-183.5
 20
-51.600000000000001
 30
0.0
 40
2.5
 50
180.0
 51
270.0
  0
LINE
  5
175
  8
DETAIL
  6
CONTINUOUS
 62
     5
 10
-186.0
 20
-51.600000000000001
 30
0.0
 11
-186.0
 21
1.464289999999999
 31
0.0
  0
ARC
  5
176
  8
DETAIL
  6
CONTINUOUS
 62
     5
 10
-183.5
 20
-51.600000000000001
 30
0.0
 40
2.5
 50
180.0
 51
270.0
  0
LINE
  5
177
  8
DETAIL
  6
CONTINUOUS
 62
     5
 10
-147.64168699999999
 20
-54.700000000000003
 30
0.0
 11
-147.64168699999999
 21
-54.200000000000003
 31
0.0
  0
LINE
  5
178
  8
OUTLINE
  6
CONTINUOUS
 62
     3
 10
-134.0
 20
57.5
 30
0.0
 11
-147.64168699999999
 21
57.5
 31
0.0
  0
LINE
  5
179
  8
DETAIL
  6
CONTINUOUS
 62
     5
 10
-134.0
 20
57.5
 30
0.0
 11
-147.64168699999999
 21
57.5
 31
0.0
  0
LINE
  5
17A
  8
DETAIL
  6
CONTINUOUS
 62
     5
 10
-183.5
 20
57.100000000000001
 30
0.0
 11
-147.64168699999999
 21
57.100000000000001
 31
0.0
  0
LINE
  5
17B
  8
OUTLINE
  6
CONTINUOUS
 62
     3
 10
-183.5
 20
57.100000000000001
 30
0.0
 11
-147.64168699999999
 21
57.100000000000001
 31
0.0
  0
ARC
  5
17C
  8
OUTLINE
  6
CONTINUOUS
 62
     3
 10
-183.5
 20
54.600000000000001
 30
0.0
 40
2.5
 50
90.0
 51
180.0
  0
ARC
  5
17D
  8
DETAIL
  6
CONTINUOUS
 62
     5
 10
-183.5
 20
54.600000000000001
 30
0.0
 40
2.5
 50
90.0
 51
180.0
  0
LINE
  5
17E
  8
BASIS
  6
DASHDOT
 62
     6
 10
-206.66897499999999
 20
1.5
 30
0.0
 11
-97.46243800000002
 21
1.5
 31
0.0
  0
TEXT
  5
186
  8
ETC
  6
CONTINUOUS
 62
    61
 10
371.14930602403427
 20
600.43096489036816
 30
0.0
 40
64.0
  1
産業扇
 41
0.9
  0
TEXT
  5
187
  8
ETC
  6
CONTINUOUS
 62
    61
 10
366.31703802403428
 20
711.77559489036832
 30
0.0
 40
64.0
  1
BF-21T3_6
 41
0.9
  0
TEXT
  5
188
  8
ETC
  6
CONTINUOUS
 62
    61
 10
455.0132481315826
 20
490.57716366400939
 30
0.0
 40
64.0
  1
BF-21T3
 41
0.9
  0
ENDSEC
  0
EOF
