  0
SECTION
  2
HEADER
  9
$ACADVER
  1
AC1009
  9
$DWGCODEPAGE
  3
dos932
  9
$INSBASE
 10
0.0
 20
0.0
 30
0.0
  9
$EXTMIN
 10
-890.51054283104713
 20
-516.54051572147364
 30
-0.0000000349181948
  9
$EXTMAX
 10
937.64191820244378
 20
606.58264964188311
 30
0.0000000814935746
  9
$LIMMIN
 10
-2970.0
 20
-2100.0
  9
$LIMMAX
 10
2970.0
 20
2100.0
  9
$ORTHOMODE
 70
     1
  9
$REGENMODE
 70
     1
  9
$FILLMODE
 70
     1
  9
$QTEXTMODE
 70
     0
  9
$MIRRTEXT
 70
     0
  9
$LTSCALE
 40
20.0
  9
$ATTMODE
 70
     1
  9
$TEXTSIZE
 40
64.0
  9
$TRACEWID
 40
0.05
  9
$TEXTSTYLE
  7
STANDARD
  9
$CLAYER
  8
SIZE
  9
$CELTYPE
  6
CONTINUOUS
  9
$CECOLOR
 62
     7
  9
$DIMSCALE
 40
1.0
  9
$DIMASZ
 40
12.0
  9
$DIMEXO
 40
20.0
  9
$DIMDLI
 40
200.0
  9
$DIMRND
 40
0.0
  9
$DIMDLE
 40
0.0
  9
$DIMEXE
 40
20.0
  9
$DIMTP
 40
0.0
  9
$DIMTM
 40
0.0
  9
$DIMTXT
 40
64.0
  9
$DIMCEN
 40
0.09
  9
$DIMTSZ
 40
0.0
  9
$DIMTOL
 70
     0
  9
$DIMLIM
 70
     0
  9
$DIMTIH
 70
     0
  9
$DIMTOH
 70
     0
  9
$DIMSE1
 70
     0
  9
$DIMSE2
 70
     0
  9
$DIMTAD
 70
     1
  9
$DIMZIN
 70
     8
  9
$DIMBLK
  1

  9
$DIMASO
 70
     1
  9
$DIMSHO
 70
     0
  9
$DIMPOST
  1

  9
$DIMAPOST
  1

  9
$DIMALT
 70
     0
  9
$DIMALTD
 70
     2
  9
$DIMALTF
 40
25.399999999999999
  9
$DIMLFAC
 40
1.0
  9
$DIMTOFL
 70
     1
  9
$DIMTVP
 40
0.0
  9
$DIMTIX
 70
     1
  9
$DIMSOXD
 70
     0
  9
$DIMSAH
 70
     0
  9
$DIMBLK1
  1

  9
$DIMBLK2
  1

  9
$DIMSTYLE
  2
STANDARD
  9
$DIMCLRD
 70
     7
  9
$DIMCLRE
 70
     7
  9
$DIMCLRT
 70
     7
  9
$DIMTFAC
 40
1.0
  9
$DIMGAP
 40
25.0
  9
$LUNITS
 70
     2
  9
$LUPREC
 70
     4
  9
$SKETCHINC
 40
0.1
  9
$FILLETRAD
 40
3.0
  9
$AUNITS
 70
     1
  9
$AUPREC
 70
     3
  9
$MENU
  1
ACAD
  9
$ELEVATION
 40
0.0
  9
$PELEVATION
 40
0.0
  9
$THICKNESS
 40
50.0
  9
$LIMCHECK
 70
     0
  9
$CHAMFERA
 40
0.0
  9
$CHAMFERB
 40
0.0
  9
$SKPOLY
 70
     0
  9
$TDCREATE
 40
2453019.62301037
  9
$TDUPDATE
 40
2458911.47389544
  9
$TDINDWG
 40
1.7209966667
  9
$TDUSRTIMER
 40
1.7209966667
  9
$USRTIMER
 70
     1
  9
$ANGBASE
 50
0.0
  9
$ANGDIR
 70
     0
  9
$PDMODE
 70
     3
  9
$PDSIZE
 40
-2.0
  9
$PLINEWID
 40
0.0
  9
$SPLFRAME
 70
     0
  9
$SPLINETYPE
 70
     6
  9
$SPLINESEGS
 70
     8
  9
$SURFTAB1
 70
     6
  9
$SURFTAB2
 70
     6
  9
$SURFTYPE
 70
     6
  9
$SURFU
 70
     6
  9
$SURFV
 70
     6
  9
$UCSNAME
  2

  9
$UCSORG
 10
0.0
 20
0.0
 30
0.0
  9
$UCSXDIR
 10
1.0
 20
0.0
 30
0.0
  9
$UCSYDIR
 10
0.0
 20
1.0
 30
0.0
  9
$PUCSNAME
  2

  9
$PUCSORG
 10
0.0
 20
0.0
 30
0.0
  9
$PUCSXDIR
 10
1.0
 20
0.0
 30
0.0
  9
$PUCSYDIR
 10
0.0
 20
1.0
 30
0.0
  9
$USERI1
 70
     0
  9
$USERI2
 70
     0
  9
$USERI3
 70
     0
  9
$USERI4
 70
     0
  9
$USERI5
 70
     0
  9
$USERR1
 40
20.0
  9
$USERR2
 40
0.0
  9
$USERR3
 40
0.0
  9
$USERR4
 40
0.0
  9
$USERR5
 40
0.0
  9
$WORLDVIEW
 70
     1
  9
$SHADEDGE
 70
     3
  9
$SHADEDIF
 70
    70
  9
$TILEMODE
 70
     1
  9
$MAXACTVP
 70
    48
  9
$PINSBASE
 10
0.0
 20
0.0
 30
0.0
  9
$PLIMCHECK
 70
     0
  9
$PEXTMIN
 10
-100000000000000000000.0
 20
-100000000000000000000.0
 30
-100000000000000000000.0
  9
$PEXTMAX
 10
100000000000000000000.0
 20
100000000000000000000.0
 30
100000000000000000000.0
  9
$PLIMMIN
 10
0.0
 20
0.0
  9
$PLIMMAX
 10
12.0
 20
9.0
  9
$UNITMODE
 70
     0
  9
$VISRETAIN
 70
     0
  9
$PLINEGEN
 70
     0
  9
$PSLTSCALE
 70
     0
  9
$TREEDEPTH
 70
  3020
  9
$ATTDIA
 70
     0
  9
$ATTREQ
 70
     1
  9
$BLIPMODE
 70
     1
  9
$COORDS
 70
     1
  9
$DRAGMODE
 70
     2
  9
$OSMODE
 70
     0
  9
$HANDLING
 70
     0
  9
$HANDSEED
  5
E830
  0
ENDSEC
  0
SECTION
  2
TABLES
  0
TABLE
  2
LTYPE
 70
     2
  0
LTYPE
  2
CONTINUOUS
 70
     0
  3
実線
 72
    65
 73
     0
 40
0.0
  0
LTYPE
  2
DASHDOT
 70
     0
  3
____ _ ____ _ ____ _ ____ _ ____ _ ____ _ ____
 72
    65
 73
     4
 40
5.5
 49
4.0
 49
-0.6
 49
0.3
 49
-0.6
  0
ENDTAB
  0
TABLE
  2
LAYER
 70
    12
  0
LAYER
  2
0
 70
     0
 62
     7
  6
CONTINUOUS
  0
LAYER
  2
BASIS
 70
     0
 62
     6
  6
DASHDOT
  0
LAYER
  2
OUTLINE
 70
     0
 62
     3
  6
CONTINUOUS
  0
LAYER
  2
DETAIL
 70
     0
 62
     5
  6
CONTINUOUS
  0
LAYER
  2
SIZE
 70
     0
 62
    30
  6
CONTINUOUS
  0
LAYER
  2
ARRANGE
 70
     0
 62
     1
  6
CONTINUOUS
  0
LAYER
  2
DEFPOINTS
 70
     0
 62
     7
  6
CONTINUOUS
  0
LAYER
  2
ETC
 70
     0
 62
    61
  6
CONTINUOUS
  0
LAYER
  2
FIX
 70
     0
 62
    11
  6
CONTINUOUS
  0
LAYER
  2
NOTE
 70
     0
 62
     4
  6
CONTINUOUS
  0
LAYER
  2
SERVICESPACE
 70
    64
 62
     2
  6
DASHDOT
  0
LAYER
  2
SYMBOLLINE
 70
    64
 62
    15
  6
CONTINUOUS
  0
ENDTAB
  0
TABLE
  2
STYLE
 70
     1
  0
STYLE
  2
STANDARD
 70
     0
 40
64.0
 41
0.9
 50
0.0
 71
     0
 42
64.0
  3
SIMPLEX.shx
  4
BIGFONT.shx
  0
ENDTAB
  0
TABLE
  2
APPID
 70
    16
  0
APPID
  2
ACAD
 70
     0
  0
APPID
  2
AUTOCAD_POSTSCRIPT_FIGURE
 70
     0
  0
APPID
  2
ACAD_EXEMPT_FROM_CAD_STANDARDS
 70
     0
  0
APPID
  2
ACAD_PSEXT
 70
     0
  0
APPID
  2
ACAUTHENVIRON
 70
     0
  0
APPID
  2
GENIUS_GENOENT_13
 70
     0
  0
APPID
  2
GENIUS_GENCFG_13
 70
     0
  0
APPID
  2
GENIUS_GENCFG0_13
 70
     0
  0
APPID
  2
GENIUS_GENCFG1_13
 70
     0
  0
APPID
  2
GENIUS_GENCFG2_13
 70
     0
  0
APPID
  2
GENIUS_GENCFG3_13
 70
     0
  0
APPID
  2
GENIUS_GENCFG4_13
 70
     0
  0
APPID
  2
GENIUS_GEVCFG0_13
 70
     0
  0
APPID
  2
CONTENTBLOCKICON
 70
     0
  0
APPID
  2
CONTENTBLOCKDESCRIPTION
 70
     0
  0
APPID
  2
ACAD_NAV_VCDISPLAY
 70
     0
  0
ENDTAB
  0
TABLE
  2
DIMSTYLE
 70
     1
  0
DIMSTYLE
  2
STANDARD
 70
     0
  3

  4

  5
_ORIGIN
  6

  7

 40
1.0
 41
12.0
 42
20.0
 43
200.0
 44
20.0
 45
0.0
 46
0.0
 47
0.0
 48
0.0
140
64.0
141
0.09
142
0.0
143
25.399999999999999
144
1.0
145
0.0
146
1.0
147
25.0
 71
     0
 72
     0
 73
     0
 74
     0
 75
     0
 76
     0
 77
     1
 78
     8
170
     0
171
     2
172
     1
173
     0
174
     1
175
     0
176
     7
177
     7
178
     7
  0
ENDTAB
  0
TABLE
  2
VIEW
 70
     1
  0
VIEW
  2
ALL
 70
     0
 40
4282.6198079999986
 10
0.0
 20
41.309904000000003
 41
5940.0
 11
0.0
 21
0.0
 31
1.0
 12
0.0
 22
0.0
 32
0.0
 42
50.0
 43
0.0
 44
0.0
 50
0.0
 71
     0
  0
ENDTAB
  0
TABLE
  2
UCS
 70
     0
  0
ENDTAB
  0
TABLE
  2
VPORT
 70
     1
  0
VPORT
  2
*ACTIVE
 70
     0
 10
0.0
 20
0.0
 11
1.0
 21
1.0
 12
23.565687685698279
 22
45.021066960204728
 13
0.0
 23
0.0
 14
1.0
 24
1.0
 15
0.0
 25
0.0
 16
0.0
 26
0.0
 36
1.0
 17
0.0
 27
0.0
 37
0.0
 40
1131.1646200079631
 41
1.7980884109916371
 42
50.0
 43
0.0
 44
0.0
 50
0.0
 51
0.0
 71
     0
 72
  1000
 73
     1
 74
     3
 75
     0
 76
     0
 77
     0
 78
     0
  0
ENDTAB
  0
ENDSEC
  0
SECTION
  2
BLOCKS
  0
BLOCK
  8
0
  2
_ORIGIN
 70
     0
 10
0.0
 20
0.0
 30
0.0
  3
_ORIGIN
  1
_ORIGIN
  0
CIRCLE
  8
0
  6
CONTINUOUS
 62
     7
 10
0.0
 20
0.0
 30
0.0
 40
0.5
  0
LINE
  8
0
  6
CONTINUOUS
 62
     7
 10
0.0
 20
0.0
 30
0.0
 11
-1.0
 21
0.0
 31
0.0
  0
ENDBLK
  8
0
  0
ENDSEC
  0
SECTION
  2
ENTITIES
  0
LINE
  8
DETAIL
  6
CONTINUOUS
 62
     5
 10
0.0
 20
187.5
 30
0.0
 11
-104.999999
 21
187.5
 31
0.0
  0
LINE
  8
DETAIL
  6
CONTINUOUS
 62
     5
 10
0.0
 20
187.5
 30
0.0
 11
105.0
 21
187.5
 31
0.0
  0
LINE
  8
DETAIL
  6
CONTINUOUS
 62
     5
 10
80.0
 20
-138.610929
 30
0.0
 11
-80.0
 21
-138.610929
 31
0.0
  0
LINE
  8
DETAIL
  6
CONTINUOUS
 62
     5
 10
-105.0
 20
159.404158
 30
0.0
 11
-105.0
 21
-142.5
 31
0.0
  0
LINE
  8
DETAIL
  6
CONTINUOUS
 62
     5
 10
-105.0
 20
186.5
 30
0.0
 11
-105.0
 21
185.69999999999999
 31
0.0
  0
LINE
  8
DETAIL
  6
CONTINUOUS
 62
     5
 10
-105.0
 20
-140.69999999999999
 30
0.0
 11
-105.0
 21
-141.5
 31
0.0
  0
LINE
  8
DETAIL
  6
CONTINUOUS
 62
     5
 10
-80.0
 20
-142.5
 30
0.0
 11
-105.0
 21
-142.5
 31
0.0
  0
LINE
  8
DETAIL
  6
CONTINUOUS
 62
     5
 10
105.0
 20
159.404158
 30
0.0
 11
105.0
 21
-34.264910999999977
 31
0.0
  0
LINE
  8
DETAIL
  6
CONTINUOUS
 62
     5
 10
105.0
 20
187.5
 30
0.0
 11
105.0
 21
159.404158
 31
0.0
  0
LINE
  8
DETAIL
  6
CONTINUOUS
 62
     5
 10
80.0
 20
-142.5
 30
0.0
 11
105.0
 21
-142.5
 31
0.0
  0
LINE
  8
DETAIL
  6
CONTINUOUS
 62
     5
 10
105.0
 20
-34.264910999999977
 30
0.0
 11
105.0
 21
-142.5
 31
0.0
  0
LINE
  8
DETAIL
  6
CONTINUOUS
 62
     5
 10
-105.0
 20
170.82825199999999
 30
0.0
 11
-105.0
 21
182.69999999999999
 31
0.0
  0
LINE
  8
BASIS
  6
DASHDOT
 62
     6
 10
0.0
 20
260.420703
 30
0.0
 11
0.0
 21
-177.454319
 31
0.0
  0
LINE
  8
DETAIL
  6
CONTINUOUS
 62
     5
 10
169.96313000000001
 20
122.5
 30
0.0
 11
169.96313000000001
 21
99.999999000000003
 31
0.0
  0
ARC
  8
DETAIL
  6
CONTINUOUS
 62
     5
 10
164.96313000000001
 20
122.5
 30
0.0
 40
5.0
 50
0.0
 51
90.0
  0
LINE
  8
DETAIL
  6
CONTINUOUS
 62
     5
 10
164.96313000000001
 20
127.5
 30
0.0
 11
139.0
 21
127.5
 31
0.0
  0
ARC
  8
DETAIL
  6
CONTINUOUS
 62
     5
 10
164.96313000000001
 20
100.0
 30
0.0
 40
5.0
 50
270.0
 51
0.0
  0
LINE
  8
DETAIL
  6
CONTINUOUS
 62
     5
 10
164.96313000000001
 20
95.0
 30
0.0
 11
139.0
 21
95.0
 31
0.0
  0
LINE
  8
DETAIL
  6
CONTINUOUS
 62
     5
 10
-104.999999
 20
187.5
 30
0.0
 11
-104.999999
 21
159.40415899999999
 31
0.0
  0
LINE
  8
NOTE
  6
CONTINUOUS
 62
     4
 10
-95.0
 20
187.5
 30
0.0
 11
-193.84454400000001
 21
302.66904299999999
 31
0.0
  0
LINE
  8
NOTE
  6
CONTINUOUS
 62
     4
 10
-128.004198
 20
210.09917999999999
 30
0.0
 11
-95.0
 21
187.5
 31
0.0
  0
LINE
  8
NOTE
  6
CONTINUOUS
 62
     4
 10
-95.0
 20
187.5
 30
0.0
 11
-112.282883
 21
223.57356300000001
 31
0.0
  0
LINE
  8
DETAIL
  6
CONTINUOUS
 62
     5
 10
134.0
 20
139.48975999999999
 30
0.0
 11
134.0
 21
-94.48975999999999
 31
0.0
  0
LINE
  8
DETAIL
  6
CONTINUOUS
 62
     5
 10
126.0
 20
147.48975999999999
 30
0.0
 11
105.0
 21
147.48975999999999
 31
0.0
  0
LINE
  8
DETAIL
  6
CONTINUOUS
 62
     5
 10
126.0
 20
-102.48976
 30
0.0
 11
105.0
 21
-102.48976
 31
0.0
  0
LINE
  8
DETAIL
  6
CONTINUOUS
 62
     5
 10
139.0
 20
133.5
 30
0.0
 11
139.0
 21
89.5
 31
0.0
  0
ARC
  8
DETAIL
  6
CONTINUOUS
 62
     5
 10
126.0
 20
-94.48975999999999
 30
0.0
 40
8.0
 50
270.0
 51
0.0
  0
ARC
  8
DETAIL
  6
CONTINUOUS
 62
     5
 10
126.0
 20
139.48975999999999
 30
0.0
 40
8.0
 50
0.0
 51
90.0
  0
LINE
  8
DETAIL
  6
CONTINUOUS
 62
     5
 10
139.0
 20
89.5
 30
0.0
 11
134.0
 21
89.5
 31
0.0
  0
LINE
  8
DETAIL
  6
CONTINUOUS
 62
     5
 10
139.0
 20
133.5
 30
0.0
 11
134.0
 21
133.5
 31
0.0
  0
LINE
  8
DETAIL
  6
CONTINUOUS
 62
     5
 10
80.0
 20
187.5
 30
0.0
 11
80.0
 21
-142.5
 31
0.0
  0
LINE
  8
DETAIL
  6
CONTINUOUS
 62
     5
 10
-80.0
 20
187.5
 30
0.0
 11
-80.0
 21
-142.5
 31
0.0
  0
LINE
  8
NOTE
  6
CONTINUOUS
 62
     4
 10
-95.0
 20
-162.5
 30
0.0
 11
-95.0
 21
-122.5
 31
0.0
  0
LINE
  8
NOTE
  6
CONTINUOUS
 62
     4
 10
-75.0
 20
-142.5
 30
0.0
 11
-115.0
 21
-142.5
 31
0.0
  0
LINE
  8
NOTE
  6
CONTINUOUS
 62
     4
 10
95.0
 20
-162.5
 30
0.0
 11
95.0
 21
-122.5
 31
0.0
  0
LINE
  8
NOTE
  6
CONTINUOUS
 62
     4
 10
115.0
 20
-142.5
 30
0.0
 11
75.0
 21
-142.5
 31
0.0
  0
LINE
  8
NOTE
  6
CONTINUOUS
 62
     4
 10
95.0
 20
207.5
 30
0.0
 11
95.0
 21
167.5
 31
0.0
  0
LINE
  8
NOTE
  6
CONTINUOUS
 62
     4
 10
115.0
 20
187.5
 30
0.0
 11
75.0
 21
187.5
 31
0.0
  0
LINE
  8
NOTE
  6
CONTINUOUS
 62
     4
 10
-95.0
 20
207.5
 30
0.0
 11
-95.0
 21
167.5
 31
0.0
  0
LINE
  8
NOTE
  6
CONTINUOUS
 62
     4
 10
-75.0
 20
187.5
 30
0.0
 11
-115.0
 21
187.5
 31
0.0
  0
LINE
  8
SIZE
  6
CONTINUOUS
 62
    30
 10
-95.0
 20
227.5
 30
0.0
 11
-95.0
 21
321.300343
 31
0.0
  0
LINE
  8
SIZE
  6
CONTINUOUS
 62
    30
 10
95.0
 20
227.5
 30
0.0
 11
95.0
 21
321.300343
 31
0.0
  0
LINE
  8
SIZE
  6
CONTINUOUS
 62
    30
 10
-83.0
 20
301.300343
 30
0.0
 11
83.0
 21
301.300343
 31
0.0
  0
TEXT
  8
SIZE
  6
CONTINUOUS
 62
    30
 10
-68.571428571428569
 20
324.434057
 30
0.0
 40
64.0
  1
190
 41
0.9
 72
     1
 11
0.0
 21
324.434057
 31
0.0
  0
CIRCLE
  8
SIZE
  6
CONTINUOUS
 62
    30
 10
-95.0
 20
301.300343
 30
0.0
 40
6.0
  0
LINE
  8
SIZE
  6
CONTINUOUS
 62
    30
 10
-95.0
 20
301.300343
 30
0.0
 11
-83.0
 21
301.300343
 31
0.0
  0
CIRCLE
  8
SIZE
  6
CONTINUOUS
 62
    30
 10
95.0
 20
301.300343
 30
0.0
 40
6.0
  0
LINE
  8
SIZE
  6
CONTINUOUS
 62
    30
 10
95.0
 20
301.300343
 30
0.0
 11
83.0
 21
301.300343
 31
0.0
  0
LINE
  8
SIZE
  6
CONTINUOUS
 62
    30
 10
-105.0
 20
205.69999999999999
 30
0.0
 11
-105.0
 21
450.47321599999998
 31
0.0
  0
LINE
  8
SIZE
  6
CONTINUOUS
 62
    30
 10
105.0
 20
207.5
 30
0.0
 11
105.0
 21
450.47321599999998
 31
0.0
  0
LINE
  8
SIZE
  6
CONTINUOUS
 62
    30
 10
-93.0
 20
430.47321599999998
 30
0.0
 11
93.0
 21
430.47321599999998
 31
0.0
  0
TEXT
  8
SIZE
  6
CONTINUOUS
 62
    30
 10
-68.571428571428555
 20
459.53531700000008
 30
0.0
 40
64.0
  1
210
 41
0.9
 72
     1
 11
0.0
 21
459.53531700000008
 31
0.0
  0
CIRCLE
  8
SIZE
  6
CONTINUOUS
 62
    30
 10
-105.0
 20
430.47321599999998
 30
0.0
 40
6.0
  0
LINE
  8
SIZE
  6
CONTINUOUS
 62
    30
 10
-105.0
 20
430.47321599999998
 30
0.0
 11
-93.0
 21
430.47321599999998
 31
0.0
  0
CIRCLE
  8
SIZE
  6
CONTINUOUS
 62
    30
 10
105.0
 20
430.47321599999998
 30
0.0
 40
6.0
  0
LINE
  8
SIZE
  6
CONTINUOUS
 62
    30
 10
105.0
 20
430.47321599999998
 30
0.0
 11
93.0
 21
430.47321599999998
 31
0.0
  0
LINE
  8
SIZE
  6
CONTINUOUS
 62
    30
 10
-105.0
 20
-160.69999999999999
 30
0.0
 11
-105.0
 21
-375.24277400000011
 31
0.0
  0
LINE
  8
SIZE
  6
CONTINUOUS
 62
    30
 10
-80.0
 20
-162.5
 30
0.0
 11
-80.0
 21
-375.24277400000011
 31
0.0
  0
LINE
  8
SIZE
  6
CONTINUOUS
 62
    30
 10
-117.0
 20
-355.24277400000011
 30
0.0
 11
-129.0
 21
-355.24277400000011
 31
0.0
  0
LINE
  8
SIZE
  6
CONTINUOUS
 62
    30
 10
-68.0
 20
-355.24277400000011
 30
0.0
 11
-56.0
 21
-355.24277400000011
 31
0.0
  0
LINE
  8
SIZE
  6
CONTINUOUS
 62
    30
 10
-289.61268100000001
 20
-355.24277400000011
 30
0.0
 11
-105.0
 21
-355.24277400000011
 31
0.0
  0
TEXT
  8
SIZE
  6
CONTINUOUS
 62
    30
 10
-264.61268142857142
 20
-330.24277400000011
 30
0.0
 40
64.0
  1
25
 41
0.9
 72
     1
 11
-217.98410999999999
 21
-330.24277400000011
 31
0.0
  0
LINE
  8
SIZE
  6
CONTINUOUS
 62
    30
 10
-105.0
 20
-355.24277400000011
 30
0.0
 11
-80.0
 21
-355.24277400000011
 31
0.0
  0
LINE
  8
SIZE
  6
CONTINUOUS
 62
    30
 10
-105.0
 20
-355.24277400000011
 30
0.0
 11
-80.0
 21
-355.24277400000011
 31
0.0
  0
CIRCLE
  8
SIZE
  6
CONTINUOUS
 62
    30
 10
-105.0
 20
-355.24277400000011
 30
0.0
 40
6.0
  0
LINE
  8
SIZE
  6
CONTINUOUS
 62
    30
 10
-105.0
 20
-355.24277400000011
 30
0.0
 11
-117.0
 21
-355.24277400000011
 31
0.0
  0
CIRCLE
  8
SIZE
  6
CONTINUOUS
 62
    30
 10
-80.0
 20
-355.24277400000011
 30
0.0
 40
6.0
  0
LINE
  8
SIZE
  6
CONTINUOUS
 62
    30
 10
-80.0
 20
-355.24277400000011
 30
0.0
 11
-68.0
 21
-355.24277400000011
 31
0.0
  0
LINE
  8
SIZE
  6
CONTINUOUS
 62
    30
 10
80.0
 20
-162.5
 30
0.0
 11
80.0
 21
-375.24277400000011
 31
0.0
  0
LINE
  8
SIZE
  6
CONTINUOUS
 62
    30
 10
105.0
 20
-162.5
 30
0.0
 11
105.0
 21
-375.24277400000011
 31
0.0
  0
LINE
  8
SIZE
  6
CONTINUOUS
 62
    30
 10
68.0
 20
-355.24277400000011
 30
0.0
 11
56.0
 21
-355.24277400000011
 31
0.0
  0
LINE
  8
SIZE
  6
CONTINUOUS
 62
    30
 10
117.0
 20
-355.24277400000011
 30
0.0
 11
129.0
 21
-355.24277400000011
 31
0.0
  0
LINE
  8
SIZE
  6
CONTINUOUS
 62
    30
 10
340.180904
 20
-355.24277400000011
 30
0.0
 11
105.0
 21
-355.24277400000011
 31
0.0
  0
TEXT
  8
SIZE
  6
CONTINUOUS
 62
    30
 10
221.92376157142851
 20
-330.24277400000011
 30
0.0
 40
64.0
  1
25
 41
0.9
 72
     1
 11
268.55233299999998
 21
-330.24277400000011
 31
0.0
  0
LINE
  8
SIZE
  6
CONTINUOUS
 62
    30
 10
80.0
 20
-355.24277400000011
 30
0.0
 11
105.0
 21
-355.24277400000011
 31
0.0
  0
LINE
  8
SIZE
  6
CONTINUOUS
 62
    30
 10
80.0
 20
-355.24277400000011
 30
0.0
 11
105.0
 21
-355.24277400000011
 31
0.0
  0
CIRCLE
  8
SIZE
  6
CONTINUOUS
 62
    30
 10
80.0
 20
-355.24277400000011
 30
0.0
 40
6.0
  0
LINE
  8
SIZE
  6
CONTINUOUS
 62
    30
 10
80.0
 20
-355.24277400000011
 30
0.0
 11
68.0
 21
-355.24277400000011
 31
0.0
  0
CIRCLE
  8
SIZE
  6
CONTINUOUS
 62
    30
 10
105.0
 20
-355.24277400000011
 30
0.0
 40
6.0
  0
LINE
  8
SIZE
  6
CONTINUOUS
 62
    30
 10
105.0
 20
-355.24277400000011
 30
0.0
 11
117.0
 21
-355.24277400000011
 31
0.0
  0
LINE
  8
SIZE
  6
CONTINUOUS
 62
    30
 10
-105.0
 20
-355.24277400000011
 30
0.0
 11
-269.01761099999999
 21
-355.24277400000011
 31
0.0
  0
LINE
  8
SIZE
  6
CONTINUOUS
 62
    30
 10
105.0
 20
-355.24277400000011
 30
0.0
 11
320.94499300000001
 21
-355.24277400000011
 31
0.0
  0
POINT
  8
ARRANGE
  6
CONTINUOUS
 62
     1
 10
0.0
 20
0.0
 30
0.0
  0
CIRCLE
  8
ARRANGE
  6
CONTINUOUS
 62
     1
 10
0.0
 20
0.0
 30
0.0
 40
40.0
  0
LINE
  8
NOTE
  6
CONTINUOUS
 62
     4
 10
-95.0
 20
167.5
 30
0.0
 11
-95.0
 21
127.5
 31
0.0
  0
LINE
  8
NOTE
  6
CONTINUOUS
 62
     4
 10
-75.0
 20
147.5
 30
0.0
 11
-115.0
 21
147.5
 31
0.0
  0
LINE
  8
NOTE
  6
CONTINUOUS
 62
     4
 10
95.0
 20
167.5
 30
0.0
 11
95.0
 21
127.5
 31
0.0
  0
LINE
  8
NOTE
  6
CONTINUOUS
 62
     4
 10
115.0
 20
147.5
 30
0.0
 11
75.0
 21
147.5
 31
0.0
  0
LINE
  8
NOTE
  6
CONTINUOUS
 62
     4
 10
-95.0
 20
-122.5
 30
0.0
 11
-95.0
 21
-82.5
 31
0.0
  0
LINE
  8
NOTE
  6
CONTINUOUS
 62
     4
 10
-75.0
 20
-102.5
 30
0.0
 11
-115.0
 21
-102.5
 31
0.0
  0
LINE
  8
NOTE
  6
CONTINUOUS
 62
     4
 10
95.0
 20
-122.5
 30
0.0
 11
95.0
 21
-82.5
 31
0.0
  0
LINE
  8
NOTE
  6
CONTINUOUS
 62
     4
 10
115.0
 20
-102.5
 30
0.0
 11
75.0
 21
-102.5
 31
0.0
  0
LINE
  8
NOTE
  6
CONTINUOUS
 62
     4
 10
134.0
 20
130.0
 30
0.0
 11
134.0
 21
90.0
 31
0.0
  0
LINE
  8
NOTE
  6
CONTINUOUS
 62
     4
 10
154.0
 20
110.0
 30
0.0
 11
114.0
 21
110.0
 31
0.0
  0
LINE
  8
DETAIL
  6
CONTINUOUS
 62
     5
 10
-89.0
 20
155.5
 30
0.0
 11
-89.0
 21
139.5
 31
0.0
  0
LINE
  8
DETAIL
  6
CONTINUOUS
 62
     5
 10
-101.0
 20
155.5
 30
0.0
 11
-101.0
 21
139.5
 31
0.0
  0
ARC
  8
DETAIL
  6
CONTINUOUS
 62
     5
 10
-95.0
 20
147.5
 30
0.0
 40
10.0
 50
233.13010200000039
 51
306.86989799999958
  0
ARC
  8
DETAIL
  6
CONTINUOUS
 62
     5
 10
-95.0
 20
147.5
 30
0.0
 40
10.0
 50
53.130102000000349
 51
126.86989799999969
  0
CIRCLE
  8
FIX
  6
CONTINUOUS
 62
    11
 10
-95.0
 20
147.5
 30
0.0
 40
6.0
  0
CIRCLE
  8
FIX
  6
CONTINUOUS
 62
    11
 10
95.0
 20
147.5
 30
0.0
 40
6.0
  0
ARC
  8
DETAIL
  6
CONTINUOUS
 62
     5
 10
95.0
 20
147.5
 30
0.0
 40
10.0
 50
53.130102000000349
 51
126.86989799999969
  0
ARC
  8
DETAIL
  6
CONTINUOUS
 62
     5
 10
95.0
 20
147.5
 30
0.0
 40
10.0
 50
233.13010200000039
 51
306.86989799999958
  0
LINE
  8
DETAIL
  6
CONTINUOUS
 62
     5
 10
89.0
 20
155.5
 30
0.0
 11
89.0
 21
139.5
 31
0.0
  0
LINE
  8
DETAIL
  6
CONTINUOUS
 62
     5
 10
101.0
 20
155.5
 30
0.0
 11
101.0
 21
139.5
 31
0.0
  0
CIRCLE
  8
FIX
  6
CONTINUOUS
 62
    11
 10
-95.0
 20
187.5
 30
0.0
 40
6.0
  0
CIRCLE
  8
FIX
  6
CONTINUOUS
 62
    11
 10
95.0
 20
187.5
 30
0.0
 40
6.0
  0
CIRCLE
  8
FIX
  6
CONTINUOUS
 62
    11
 10
-95.0
 20
-142.5
 30
0.0
 40
6.0
  0
CIRCLE
  8
FIX
  6
CONTINUOUS
 62
    11
 10
95.0
 20
-142.5
 30
0.0
 40
6.0
  0
LINE
  8
DETAIL
  6
CONTINUOUS
 62
     5
 10
101.0
 20
-110.5
 30
0.0
 11
101.0
 21
-94.5
 31
0.0
  0
LINE
  8
DETAIL
  6
CONTINUOUS
 62
     5
 10
89.0
 20
-110.5
 30
0.0
 11
89.0
 21
-94.5
 31
0.0
  0
ARC
  8
DETAIL
  6
CONTINUOUS
 62
     5
 10
95.0
 20
-102.5
 30
0.0
 40
10.0
 50
53.130102000000349
 51
126.86989799999969
  0
ARC
  8
DETAIL
  6
CONTINUOUS
 62
     5
 10
95.0
 20
-102.5
 30
0.0
 40
10.0
 50
233.13010200000039
 51
306.86989799999958
  0
CIRCLE
  8
FIX
  6
CONTINUOUS
 62
    11
 10
95.0
 20
-102.5
 30
0.0
 40
6.0
  0
CIRCLE
  8
FIX
  6
CONTINUOUS
 62
    11
 10
-95.0
 20
-102.5
 30
0.0
 40
6.0
  0
ARC
  8
DETAIL
  6
CONTINUOUS
 62
     5
 10
-95.0
 20
-102.5
 30
0.0
 40
10.0
 50
233.13010200000039
 51
306.86989799999958
  0
ARC
  8
DETAIL
  6
CONTINUOUS
 62
     5
 10
-95.0
 20
-102.5
 30
0.0
 40
10.0
 50
53.130102000000349
 51
126.86989799999969
  0
LINE
  8
DETAIL
  6
CONTINUOUS
 62
     5
 10
-101.0
 20
-110.5
 30
0.0
 11
-101.0
 21
-94.5
 31
0.0
  0
LINE
  8
DETAIL
  6
CONTINUOUS
 62
     5
 10
-89.0
 20
-110.5
 30
0.0
 11
-89.0
 21
-94.5
 31
0.0
  0
LINE
  8
SIZE
  6
CONTINUOUS
 62
    30
 10
125.0
 20
187.5
 30
0.0
 11
655.32544099999996
 21
187.5
 31
0.0
  0
LINE
  8
SIZE
  6
CONTINUOUS
 62
    30
 10
238.518866
 20
0.0
 30
0.0
 11
655.32544099999996
 21
0.0
 31
0.0
  0
LINE
  8
SIZE
  6
CONTINUOUS
 62
    30
 10
635.32544099999996
 20
175.5
 30
0.0
 11
635.32544099999996
 21
12.0
 31
0.0
  0
TEXT
  8
SIZE
  6
CONTINUOUS
 62
    30
 10
608.00115199999982
 20
-236.4267077142857
 30
0.0
 40
64.0
  1
187.5
 50
90.0
 41
0.9
 72
     1
 11
608.00115199999982
 21
-126.712422
 31
0.0
  0
CIRCLE
  8
SIZE
  6
CONTINUOUS
 62
    30
 10
635.32544099999996
 20
187.5
 30
0.0
 40
6.0
  0
LINE
  8
SIZE
  6
CONTINUOUS
 62
    30
 10
635.32544099999996
 20
187.5
 30
0.0
 11
635.32544099999996
 21
175.5
 31
0.0
  0
CIRCLE
  8
SIZE
  6
CONTINUOUS
 62
    30
 10
635.32544099999996
 20
0.0
 30
0.0
 40
6.0
  0
LINE
  8
SIZE
  6
CONTINUOUS
 62
    30
 10
635.32544099999996
 20
0.0
 30
0.0
 11
635.32544099999996
 21
12.0
 31
0.0
  0
LINE
  8
SIZE
  6
CONTINUOUS
 62
    30
 10
635.32544099999996
 20
-4.0999999999999943
 30
0.0
 11
635.32544099999996
 21
-237.855649
 31
0.0
  0
LINE
  8
SIZE
  6
CONTINUOUS
 62
    30
 10
-135.0
 20
147.5
 30
0.0
 11
-507.65512633001691
 21
147.5
 31
0.0
  0
LINE
  8
SIZE
  6
CONTINUOUS
 62
    30
 10
-135.0
 20
-102.5
 30
0.0
 11
-507.65512633001691
 21
-102.5
 31
0.0
  0
LINE
  8
SIZE
  6
CONTINUOUS
 62
    30
 10
-487.65512633001703
 20
135.5
 30
0.0
 11
-487.65512633001703
 21
-90.5
 31
0.0
  0
TEXT
  8
SIZE
  6
CONTINUOUS
 62
    30
 10
-511.86269933001688
 20
-51.55714285714285
 30
0.0
 40
64.0
  1
250
 50
90.0
 41
0.9
 72
     1
 11
-511.86269933001688
 21
22.5
 31
0.0
  0
CIRCLE
  8
SIZE
  6
CONTINUOUS
 62
    30
 10
-487.65512633001703
 20
147.5
 30
0.0
 40
6.0
  0
LINE
  8
SIZE
  6
CONTINUOUS
 62
    30
 10
-487.65512633001703
 20
147.5
 30
0.0
 11
-487.65512633001703
 21
135.5
 31
0.0
  0
CIRCLE
  8
SIZE
  6
CONTINUOUS
 62
    30
 10
-487.65512633001703
 20
-102.5
 30
0.0
 40
6.0
  0
LINE
  8
SIZE
  6
CONTINUOUS
 62
    30
 10
-487.65512633001703
 20
-102.5
 30
0.0
 11
-487.65512633001703
 21
-90.5
 31
0.0
  0
LINE
  8
SIZE
  6
CONTINUOUS
 62
    30
 10
-124.999999
 20
187.5
 30
0.0
 11
-634.65709233001701
 21
187.5
 31
0.0
  0
LINE
  8
SIZE
  6
CONTINUOUS
 62
    30
 10
-125.0
 20
-142.5
 30
0.0
 11
-634.65709233001701
 21
-142.5
 31
0.0
  0
LINE
  8
SIZE
  6
CONTINUOUS
 62
    30
 10
-614.65709233001689
 20
175.5
 30
0.0
 11
-614.65709233001689
 21
-130.5
 31
0.0
  0
TEXT
  8
SIZE
  6
CONTINUOUS
 62
    30
 10
-632.68432433001692
 20
-51.557142857142857
 30
0.0
 40
64.0
  1
330
 50
90.0
 41
0.9
 72
     1
 11
-632.68432433001692
 21
22.5
 31
0.0
  0
CIRCLE
  8
SIZE
  6
CONTINUOUS
 62
    30
 10
-614.65709233001689
 20
187.5
 30
0.0
 40
6.0
  0
LINE
  8
SIZE
  6
CONTINUOUS
 62
    30
 10
-614.65709233001689
 20
187.5
 30
0.0
 11
-614.65709233001689
 21
175.5
 31
0.0
  0
CIRCLE
  8
SIZE
  6
CONTINUOUS
 62
    30
 10
-614.65709233001689
 20
-142.5
 30
0.0
 40
6.0
  0
LINE
  8
SIZE
  6
CONTINUOUS
 62
    30
 10
-614.65709233001689
 20
-142.5
 30
0.0
 11
-614.65709233001689
 21
-130.5
 31
0.0
  0
TEXT
  8
NOTE
  6
CONTINUOUS
 62
     4
 10
293.68633700000009
 20
280.531271
 30
0.0
 40
64.0
  1
EL
 41
0.9
  0
TEXT
  8
NOTE
  6
CONTINUOUS
 62
     4
 10
-870.40350699999999
 20
332.10062499999998
 30
0.0
 40
64.0
  1
AH 12-φ20×12
 41
0.9
  0
LINE
  8
NOTE
  6
CONTINUOUS
 62
     4
 10
275.56744200000003
 20
257.3793
 30
0.0
 11
388.23183
 21
257.3793
 31
0.0
  0
LINE
  8
NOTE
  6
CONTINUOUS
 62
     4
 10
134.0
 20
110.0
 30
0.0
 11
275.56744200000003
 21
257.3793
 31
0.0
  0
LINE
  8
NOTE
  6
CONTINUOUS
 62
     4
 10
152.88351499999999
 20
145.26205999999999
 30
0.0
 11
134.0
 21
110.0
 31
0.0
  0
LINE
  8
NOTE
  6
CONTINUOUS
 62
     4
 10
134.0
 20
110.0
 30
0.0
 11
167.984634
 21
131.096082
 31
0.0
  0
LINE
  8
OUTLINE
  6
CONTINUOUS
 62
     3
 10
-80.0
 20
-138.61092899999991
 30
0.0
 11
-80.0
 21
-142.5
 31
0.0
  0
LINE
  8
OUTLINE
  6
CONTINUOUS
 62
     3
 10
80.0
 20
-138.61092899999991
 30
0.0
 11
80.0
 21
-142.5
 31
0.0
  0
LINE
  8
OUTLINE
  6
CONTINUOUS
 62
     3
 10
139.0
 20
133.5
 30
0.0
 11
134.0
 21
133.5
 31
0.0
  0
LINE
  8
OUTLINE
  6
CONTINUOUS
 62
     3
 10
139.0
 20
89.5
 30
0.0
 11
134.0
 21
89.5
 31
0.0
  0
ARC
  8
OUTLINE
  6
CONTINUOUS
 62
     3
 10
126.0
 20
139.48975999999999
 30
0.0
 40
8.0
 50
0.0
 51
90.0
  0
ARC
  8
OUTLINE
  6
CONTINUOUS
 62
     3
 10
126.0
 20
-94.48975999999999
 30
0.0
 40
8.0
 50
270.0
 51
0.0
  0
LINE
  8
OUTLINE
  6
CONTINUOUS
 62
     3
 10
139.0
 20
133.5
 30
0.0
 11
139.0
 21
127.5
 31
0.0
  0
LINE
  8
OUTLINE
  6
CONTINUOUS
 62
     3
 10
139.0
 20
95.0
 30
0.0
 11
139.0
 21
89.5
 31
0.0
  0
LINE
  8
OUTLINE
  6
CONTINUOUS
 62
     3
 10
126.0
 20
-102.48976
 30
0.0
 11
105.0
 21
-102.48976
 31
0.0
  0
LINE
  8
OUTLINE
  6
CONTINUOUS
 62
     3
 10
126.0
 20
147.48975999999999
 30
0.0
 11
109.547782702994
 21
147.48975999999999
 31
0.0
  0
LINE
  8
OUTLINE
  6
CONTINUOUS
 62
     3
 10
134.0
 20
139.48975999999999
 30
0.0
 11
134.0
 21
133.5
 31
0.0
  0
LINE
  8
OUTLINE
  6
CONTINUOUS
 62
     3
 10
134.0
 20
89.5
 30
0.0
 11
134.0
 21
56.0
 31
0.0
  0
LINE
  8
OUTLINE
  6
CONTINUOUS
 62
     3
 10
134.0
 20
-56.199999999999989
 30
0.0
 11
134.0
 21
-94.48975999999999
 31
0.0
  0
LINE
  8
OUTLINE
  6
CONTINUOUS
 62
     3
 10
-104.999999
 20
187.5
 30
0.0
 11
-104.999999
 21
159.40415899999999
 31
0.0
  0
LINE
  8
OUTLINE
  6
CONTINUOUS
 62
     3
 10
164.96313000000001
 20
95.0
 30
0.0
 11
139.0
 21
95.0
 31
0.0
  0
ARC
  8
OUTLINE
  6
CONTINUOUS
 62
     3
 10
164.96313000000001
 20
100.0
 30
0.0
 40
5.0
 50
270.0
 51
0.0
  0
LINE
  8
OUTLINE
  6
CONTINUOUS
 62
     3
 10
164.96313000000001
 20
127.5
 30
0.0
 11
139.0
 21
127.5
 31
0.0
  0
ARC
  8
OUTLINE
  6
CONTINUOUS
 62
     3
 10
164.96313000000001
 20
122.5
 30
0.0
 40
5.0
 50
0.0
 51
90.0
  0
LINE
  8
OUTLINE
  6
CONTINUOUS
 62
     3
 10
169.96313000000001
 20
122.5
 30
0.0
 11
169.96313000000001
 21
99.999999000000003
 31
0.0
  0
LINE
  8
OUTLINE
  6
CONTINUOUS
 62
     3
 10
105.0
 20
-102.48976
 30
0.0
 11
105.0
 21
-142.5
 31
0.0
  0
LINE
  8
OUTLINE
  6
CONTINUOUS
 62
     3
 10
80.0
 20
-142.5
 30
0.0
 11
105.0
 21
-142.5
 31
0.0
  0
LINE
  8
OUTLINE
  6
CONTINUOUS
 62
     3
 10
105.0
 20
187.5
 30
0.0
 11
105.0
 21
159.404158
 31
0.0
  0
LINE
  8
OUTLINE
  6
CONTINUOUS
 62
     3
 10
-80.0
 20
-142.5
 30
0.0
 11
-105.0
 21
-142.5
 31
0.0
  0
LINE
  8
OUTLINE
  6
CONTINUOUS
 62
     3
 10
-105.0
 20
65.595842401765708
 30
0.0
 11
-105.0
 21
-142.5
 31
0.0
  0
LINE
  8
OUTLINE
  6
CONTINUOUS
 62
     3
 10
80.0
 20
-138.610929
 30
0.0
 11
-80.0
 21
-138.610929
 31
0.0
  0
LINE
  8
OUTLINE
  6
CONTINUOUS
 62
     3
 10
87.177978870813462
 20
187.5
 30
0.0
 11
105.0
 21
187.5
 31
0.0
  0
LINE
  8
OUTLINE
  6
CONTINUOUS
 62
     3
 10
-87.17797887081349
 20
187.5
 30
0.0
 11
-104.999999
 21
187.5
 31
0.0
  0
LINE
  8
BASIS
  6
DASHDOT
 62
     6
 10
-79.402548999999965
 20
1.5
 30
0.0
 11
-137.45686699999999
 21
1.5
 31
0.0
  0
TEXT
  8
NOTE
  6
CONTINUOUS
 62
     4
 10
-308.33005800000001
 20
-15.48809399999999
 30
0.0
 40
64.0
  1
入口
 41
0.9
  0
LINE
  8
NOTE
  6
CONTINUOUS
 62
     4
 10
-193.84454400000001
 20
302.66904299999999
 30
0.0
 11
-890.35809399999971
 21
302.66904299999999
 31
0.0
  0
LINE
  8
DETAIL
  6
CONTINUOUS
 62
     5
 10
134.0
 20
56.0
 30
0.0
 11
147.64168699999999
 21
56.0
 31
0.0
  0
LINE
  8
OUTLINE
  6
CONTINUOUS
 62
     3
 10
134.0
 20
56.0
 30
0.0
 11
147.64168699999999
 21
56.0
 31
0.0
  0
LINE
  8
DETAIL
  6
CONTINUOUS
 62
     5
 10
134.0
 20
-56.199999999999989
 30
0.0
 11
147.64168699999999
 21
-56.199999999999989
 31
0.0
  0
LINE
  8
OUTLINE
  6
CONTINUOUS
 62
     3
 10
134.0
 20
-56.199999999999989
 30
0.0
 11
147.64168699999999
 21
-56.199999999999989
 31
0.0
  0
LINE
  8
DETAIL
  6
CONTINUOUS
 62
     5
 10
147.64168699999999
 20
41.140060000000013
 30
0.0
 11
147.64168699999999
 21
-0.1357250000000079
 31
0.0
  0
LINE
  8
DETAIL
  6
CONTINUOUS
 62
     5
 10
147.64168699999999
 20
56.0
 30
0.0
 11
147.64168699999999
 21
-0.0643049999999903
 31
0.0
  0
LINE
  8
OUTLINE
  6
CONTINUOUS
 62
     3
 10
147.64168699999999
 20
56.0
 30
0.0
 11
147.64168699999999
 21
55.599999999999987
 31
0.0
  0
LINE
  8
DETAIL
  6
CONTINUOUS
 62
     5
 10
147.64168699999999
 20
-56.199999999999989
 30
0.0
 11
147.64168699999999
 21
-55.699999999999989
 31
0.0
  0
LINE
  8
DETAIL
  6
CONTINUOUS
 62
     5
 10
147.64168699999999
 20
-55.699999999999989
 30
0.0
 11
147.64168699999999
 21
-0.1356949999999983
 31
0.0
  0
LINE
  8
OUTLINE
  6
CONTINUOUS
 62
     3
 10
147.64168699999999
 20
-56.199999999999989
 30
0.0
 11
147.64168699999999
 21
-55.699999999999989
 31
0.0
  0
LINE
  8
OUTLINE
  6
CONTINUOUS
 62
     3
 10
147.64168699999999
 20
-55.699999999999989
 30
0.0
 11
147.64168699999999
 21
-55.599999999999973
 31
0.0
  0
LINE
  8
SIZE
  6
CONTINUOUS
 62
    30
 10
203.09999999999999
 20
55.535709999999987
 30
0.0
 11
522.39902300000006
 21
55.535709999999987
 31
0.0
  0
LINE
  8
SIZE
  6
CONTINUOUS
 62
    30
 10
203.09999999999999
 20
-55.664289999999987
 30
0.0
 11
522.39902300000006
 21
-55.664289999999987
 31
0.0
  0
LINE
  8
SIZE
  6
CONTINUOUS
 62
    30
 10
502.39902300000011
 20
43.535709999999987
 30
0.0
 11
502.39902300000011
 21
-43.664289999999987
 31
0.0
  0
LINE
  8
SIZE
  6
CONTINUOUS
 62
    30
 10
502.39902300000011
 20
-388.37530499999991
 30
0.0
 11
502.39902300000011
 21
-55.664289999999987
 31
0.0
  0
TEXT
  8
SIZE
  6
CONTINUOUS
 62
    30
 10
477.39902300000011
 20
-367.48959071428573
 30
0.0
 40
64.0
  1
φ111.2
 50
90.0
 41
0.9
 72
     1
 11
477.39902300000011
 21
-238.57530499999999
 31
0.0
  0
CIRCLE
  8
SIZE
  6
CONTINUOUS
 62
    30
 10
502.39902300000011
 20
55.535709999999987
 30
0.0
 40
6.0
  0
LINE
  8
SIZE
  6
CONTINUOUS
 62
    30
 10
502.39902300000011
 20
55.535709999999987
 30
0.0
 11
502.39902300000011
 21
43.535709999999987
 31
0.0
  0
CIRCLE
  8
SIZE
  6
CONTINUOUS
 62
    30
 10
502.39902300000011
 20
-55.664289999999987
 30
0.0
 40
6.0
  0
LINE
  8
SIZE
  6
CONTINUOUS
 62
    30
 10
502.39902300000011
 20
-55.664289999999987
 30
0.0
 11
502.39902300000011
 21
-43.664289999999987
 31
0.0
  0
LINE
  8
SIZE
  6
CONTINUOUS
 62
    30
 10
-105.0
 20
-160.69999999999999
 30
0.0
 11
-105.0
 21
-516.38175355301451
 31
0.0
  0
LINE
  8
SIZE
  6
CONTINUOUS
 62
    30
 10
186.0
 20
-73.100000000000023
 30
0.0
 11
186.0
 21
-516.38175355301451
 31
0.0
  0
LINE
  8
SIZE
  6
CONTINUOUS
 62
    30
 10
-93.0
 20
-496.38175355301462
 30
0.0
 11
174.0
 21
-496.38175355301462
 31
0.0
  0
TEXT
  8
SIZE
  6
CONTINUOUS
 62
    30
 10
-19.714285714285712
 20
-471.20050655301458
 30
0.0
 40
64.0
  1
291
 41
0.9
 72
     1
 11
42.0
 21
-471.20050655301458
 31
0.0
  0
CIRCLE
  8
SIZE
  6
CONTINUOUS
 62
    30
 10
-105.0
 20
-496.38175355301462
 30
0.0
 40
6.0
  0
LINE
  8
SIZE
  6
CONTINUOUS
 62
    30
 10
-105.0
 20
-496.38175355301462
 30
0.0
 11
-93.0
 21
-496.38175355301462
 31
0.0
  0
CIRCLE
  8
SIZE
  6
CONTINUOUS
 62
    30
 10
186.0
 20
-496.38175355301462
 30
0.0
 40
6.0
  0
LINE
  8
SIZE
  6
CONTINUOUS
 62
    30
 10
186.0
 20
-496.38175355301462
 30
0.0
 11
174.0
 21
-496.38175355301462
 31
0.0
  0
ARC
  8
DETAIL
  6
CONTINUOUS
 62
     5
 10
0.0
 20
112.5
 30
0.0
 40
115.0
 50
335.929384999999
 51
24.07061500000103
  0
ARC
  8
OUTLINE
  6
CONTINUOUS
 62
     3
 10
0.0
 20
112.5
 30
0.0
 40
115.0
 50
17.71357605946751
 51
24.07061500000103
  0
ARC
  8
DETAIL
  6
CONTINUOUS
 62
     5
 10
0.0
 20
112.5
 30
0.0
 40
115.0
 50
155.929384999999
 51
204.070615000001
  0
ARC
  8
DETAIL
  6
CONTINUOUS
 62
     5
 10
0.0
 20
112.5
 30
0.0
 40
115.0
 50
40.705707000000302
 51
139.2942929999997
  0
ARC
  8
OUTLINE
  6
CONTINUOUS
 62
     3
 10
0.0
 20
112.5
 30
0.0
 40
115.0
 50
40.705707000000302
 51
139.2942929999997
  0
ARC
  8
OUTLINE
  6
CONTINUOUS
 62
     3
 10
0.0
 20
112.5
 30
0.0
 40
115.0
 50
155.929384999999
 51
204.070615000001
  0
ARC
  8
DETAIL
  6
CONTINUOUS
 62
     5
 10
183.5
 20
53.099999999999987
 30
0.0
 40
2.5
 50
0.0
 51
90.0
  0
ARC
  8
OUTLINE
  6
CONTINUOUS
 62
     3
 10
183.5
 20
53.099999999999987
 30
0.0
 40
2.5
 50
0.0
 51
90.0
  0
LINE
  8
OUTLINE
  6
CONTINUOUS
 62
     3
 10
183.5
 20
55.599999999999987
 30
0.0
 11
147.64168699999999
 21
55.599999999999987
 31
0.0
  0
LINE
  8
DETAIL
  6
CONTINUOUS
 62
     5
 10
183.5
 20
55.599999999999987
 30
0.0
 11
147.64168699999999
 21
55.599999999999987
 31
0.0
  0
LINE
  8
OUTLINE
  6
CONTINUOUS
 62
     3
 10
147.64168699999999
 20
-56.199999999999989
 30
0.0
 11
147.64168699999999
 21
-55.699999999999989
 31
0.0
  0
LINE
  8
DETAIL
  6
CONTINUOUS
 62
     5
 10
147.64168699999999
 20
-56.199999999999989
 30
0.0
 11
147.64168699999999
 21
-55.699999999999989
 31
0.0
  0
ARC
  8
DETAIL
  6
CONTINUOUS
 62
     5
 10
183.5
 20
-53.099999999999973
 30
0.0
 40
2.5
 50
270.0
 51
0.0
  0
ARC
  8
OUTLINE
  6
CONTINUOUS
 62
     3
 10
183.5
 20
-53.099999999999973
 30
0.0
 40
2.5
 50
270.0
 51
0.0
  0
LINE
  8
OUTLINE
  6
CONTINUOUS
 62
     3
 10
183.5
 20
-55.599999999999973
 30
0.0
 11
147.64168699999999
 21
-55.599999999999973
 31
0.0
  0
LINE
  8
DETAIL
  6
CONTINUOUS
 62
     5
 10
183.5
 20
-55.599999999999973
 30
0.0
 11
147.64168699999999
 21
-55.599999999999973
 31
0.0
  0
LINE
  8
DETAIL
  6
CONTINUOUS
 62
     5
 10
186.0
 20
53.099999999999987
 30
0.0
 11
186.0
 21
-0.0357099999999946
 31
0.0
  0
LINE
  8
OUTLINE
  6
CONTINUOUS
 62
     3
 10
186.0
 20
53.099999999999987
 30
0.0
 11
186.0
 21
-0.0357099999999946
 31
0.0
  0
LINE
  8
DETAIL
  6
CONTINUOUS
 62
     5
 10
186.0
 20
-53.099999999999973
 30
0.0
 11
186.0
 21
-0.0357099999999946
 31
0.0
  0
LINE
  8
OUTLINE
  6
CONTINUOUS
 62
     3
 10
186.0
 20
-53.099999999999973
 30
0.0
 11
186.0
 21
-0.0357099999999946
 31
0.0
  0
LINE
  8
BASIS
  6
DASHDOT
 62
     6
 10
218.518866
 20
0.0
 30
0.0
 11
-137.20021901261771
 21
0.0
 31
0.0
  0
TEXT
  8
ETC
  6
CONTINUOUS
 62
    61
 10
456.56390004123642
 20
431.01145402913039
 30
0.0
 40
64.0
  1
産業扇
 41
0.9
  0
TEXT
  8
ETC
  6
CONTINUOUS
 62
    61
 10
451.73163204123642
 20
542.35608402913033
 30
0.0
 40
64.0
  1
BF-21T5_3
 41
0.9
  0
TEXT
  8
ETC
  6
CONTINUOUS
 62
    61
 10
540.42784214878475
 20
321.15765280277151
 30
0.0
 40
64.0
  1
BF-21T5
 41
0.9
  0
LINE
  8
SIZE
  6
CONTINUOUS
 62
    30
 10
-124.999999
 20
187.5
 30
0.0
 11
-370.2830877748965
 21
187.50000000000011
 31
0.0
  0
LINE
  8
SIZE
  6
CONTINUOUS
 62
    30
 10
-157.45686699999999
 20
1.500000000000006
 30
0.0
 11
-370.28308777489661
 21
1.5000000000000659
 31
0.0
  0
LINE
  8
SIZE
  6
CONTINUOUS
 62
    30
 10
-350.2830877748965
 20
175.50000000000011
 30
0.0
 11
-350.28308777489661
 21
13.50000000000006
 31
0.0
  0
LINE
  8
SIZE
  6
CONTINUOUS
 62
    30
 10
-350.28308777489661
 20
1.50000000000006
 30
0.0
 11
-350.28308777489661
 21
-331.49214417407228
 31
0.0
  0
CIRCLE
  8
SIZE
  6
CONTINUOUS
 62
    30
 10
-350.2830877748965
 20
187.50000000000011
 30
0.0
 40
6.0
  0
LINE
  8
SIZE
  6
CONTINUOUS
 62
    30
 10
-350.2830877748965
 20
187.50000000000011
 30
0.0
 11
-350.2830877748965
 21
175.50000000000011
 31
0.0
  0
CIRCLE
  8
SIZE
  6
CONTINUOUS
 62
    30
 10
-350.28308777489661
 20
1.50000000000006
 30
0.0
 40
6.0
  0
LINE
  8
SIZE
  6
CONTINUOUS
 62
    30
 10
-350.28308777489661
 20
1.50000000000006
 30
0.0
 11
-350.28308777489661
 21
13.50000000000006
 31
0.0
  0
TEXT
  8
SIZE
  6
CONTINUOUS
 62
    30
 10
-375.28308777489661
 20
-313.88414417407233
 30
0.0
 40
64.0
  1
186
 50
90.0
 41
0.9
 51
0.0
  7
STANDARD
 71
     0
 72
     1
 11
-375.28308777489661
 21
-239.29214417407235
 31
0.0
210
0.0
220
0.0
230
1.0
  0
POINT
  8
DEFPOINTS
  6
CONTINUOUS
 62
    30
 10
-104.999999
 20
187.5
 30
0.0
  0
POINT
  8
DEFPOINTS
  6
CONTINUOUS
 62
    30
 10
-137.45686699999999
 20
1.5
 30
0.0
  0
POINT
  8
DEFPOINTS
  6
CONTINUOUS
 62
    30
 10
-350.28308777489661
 20
1.50000000000006
 30
0.0
  0
ENDSEC
  0
EOF
