  0
SECTION
  2
HEADER
  9
$ACADVER
  1
AC1009
  9
$INSBASE
 10
0.0
 20
0.0
 30
0.0
  9
$EXTMIN
 10
-956.8676529999999
 20
-779.28462400000001
 30
0.0
  9
$EXTMAX
 10
1157.847305285715
 20
729.0575570210425
 30
0.0
  9
$LIMMIN
 10
-2970.0
 20
-2100.0
  9
$LIMMAX
 10
2970.0
 20
2100.0
  9
$ORTHOMODE
 70
     1
  9
$REGENMODE
 70
     0
  9
$FILLMODE
 70
     1
  9
$QTEXTMODE
 70
     0
  9
$MIRRTEXT
 70
     0
  9
$DRAGMODE
 70
     2
  9
$LTSCALE
 40
20.0
  9
$OSMODE
 70
    37
  9
$ATTMODE
 70
     1
  9
$TEXTSIZE
 40
64.0
  9
$TRACEWID
 40
0.05
  9
$TEXTSTYLE
  7
STANDARD
  9
$CLAYER
  8
SIZE
  9
$CELTYPE
  6
CONTINUOUS
  9
$CECOLOR
 62
    30
  9
$DIMSCALE
 40
1.0
  9
$DIMASZ
 40
12.0
  9
$DIMEXO
 40
20.0
  9
$DIMDLI
 40
200.0
  9
$DIMRND
 40
0.0
  9
$DIMDLE
 40
0.0
  9
$DIMEXE
 40
20.0
  9
$DIMTP
 40
0.0
  9
$DIMTM
 40
0.0
  9
$DIMTXT
 40
64.0
  9
$DIMCEN
 40
0.09
  9
$DIMTSZ
 40
0.0
  9
$DIMTOL
 70
     0
  9
$DIMLIM
 70
     0
  9
$DIMTIH
 70
     0
  9
$DIMTOH
 70
     0
  9
$DIMSE1
 70
     0
  9
$DIMSE2
 70
     0
  9
$DIMTAD
 70
     1
  9
$DIMZIN
 70
     8
  9
$DIMBLK
  1
DOT1
  9
$DIMASO
 70
     1
  9
$DIMSHO
 70
     0
  9
$DIMPOST
  1

  9
$DIMAPOST
  1

  9
$DIMALT
 70
     0
  9
$DIMALTD
 70
     2
  9
$DIMALTF
 40
25.399999999999999
  9
$DIMLFAC
 40
1.0
  9
$DIMTOFL
 70
     1
  9
$DIMTVP
 40
0.0
  9
$DIMTIX
 70
     1
  9
$DIMSOXD
 70
     0
  9
$DIMSAH
 70
     1
  9
$DIMBLK1
  1
ORIGIN
  9
$DIMBLK2
  1
ORIGIN
  9
$DIMSTYLE
  2
STANDARD
  9
$DIMCLRD
 70
     0
  9
$DIMCLRE
 70
     0
  9
$DIMCLRT
 70
     0
  9
$DIMTFAC
 40
1.0
  9
$DIMGAP
 40
0.09
  9
$LUNITS
 70
     2
  9
$LUPREC
 70
     4
  9
$SKETCHINC
 40
0.1
  9
$FILLETRAD
 40
4.0
  9
$AUNITS
 70
     1
  9
$AUPREC
 70
     3
  9
$MENU
  1
ACAD
  9
$ELEVATION
 40
0.0
  9
$PELEVATION
 40
0.0
  9
$THICKNESS
 40
50.0
  9
$LIMCHECK
 70
     0
  9
$BLIPMODE
 70
     0
  9
$CHAMFERA
 40
0.0
  9
$CHAMFERB
 40
0.0
  9
$SKPOLY
 70
     0
  9
$TDCREATE
 40
2452321.3961996529
  9
$TDUPDATE
 40
2454923.6934764241
  9
$TDINDWG
 40
0.1220339352
  9
$TDUSRTIMER
 40
0.1220339352
  9
$USRTIMER
 70
     1
  9
$ANGBASE
 50
0.0
  9
$ANGDIR
 70
     0
  9
$PDMODE
 70
     3
  9
$PDSIZE
 40
-2.0
  9
$PLINEWID
 40
0.0
  9
$COORDS
 70
     0
  9
$SPLFRAME
 70
     0
  9
$SPLINETYPE
 70
     6
  9
$SPLINESEGS
 70
     8
  9
$ATTDIA
 70
     0
  9
$ATTREQ
 70
     1
  9
$HANDLING
 70
     1
  9
$HANDSEED
  5
251
  9
$SURFTAB1
 70
     6
  9
$SURFTAB2
 70
     6
  9
$SURFTYPE
 70
     6
  9
$SURFU
 70
     6
  9
$SURFV
 70
     6
  9
$UCSNAME
  2

  9
$UCSORG
 10
0.0
 20
0.0
 30
0.0
  9
$UCSXDIR
 10
1.0
 20
0.0
 30
0.0
  9
$UCSYDIR
 10
0.0
 20
1.0
 30
0.0
  9
$PUCSNAME
  2

  9
$PUCSORG
 10
0.0
 20
0.0
 30
0.0
  9
$PUCSXDIR
 10
1.0
 20
0.0
 30
0.0
  9
$PUCSYDIR
 10
0.0
 20
1.0
 30
0.0
  9
$USERI1
 70
     0
  9
$USERI2
 70
     0
  9
$USERI3
 70
     0
  9
$USERI4
 70
     0
  9
$USERI5
 70
     0
  9
$USERR1
 40
20.0
  9
$USERR2
 40
0.0
  9
$USERR3
 40
0.0
  9
$USERR4
 40
0.0
  9
$USERR5
 40
0.0
  9
$WORLDVIEW
 70
     1
  9
$SHADEDGE
 70
     3
  9
$SHADEDIF
 70
    70
  9
$TILEMODE
 70
     1
  9
$MAXACTVP
 70
    64
  9
$PLIMCHECK
 70
     0
  9
$PEXTMIN
 10
1.0000000000000000E+020
 20
1.0000000000000000E+020
 30
1.0000000000000000E+020
  9
$PEXTMAX
 10
-1.0000000000000000E+020
 20
-1.0000000000000000E+020
 30
-1.0000000000000000E+020
  9
$PLIMMIN
 10
0.0
 20
0.0
  9
$PLIMMAX
 10
12.0
 20
9.0
  9
$UNITMODE
 70
     0
  9
$VISRETAIN
 70
     1
  9
$PLINEGEN
 70
     0
  9
$PSLTSCALE
 70
     1
  0
ENDSEC
  0
SECTION
  2
TABLES
  0
TABLE
  2
VPORT
 70
     1
  0
VPORT
  2
*ACTIVE
 70
     0
 10
0.0
 20
0.0
 11
1.0
 21
1.0
 12
279.68831619557272
 22
-51.22300808358613
 13
0.0
 23
0.0
 14
1.0
 24
1.0
 15
0.0
 25
0.0
 16
0.0
 26
0.0
 36
1.0
 17
0.0
 27
0.0
 37
0.0
 40
1893.519613168688
 41
1.3098995695839311
 42
50.0
 43
0.0
 44
0.0
 50
0.0
 51
0.0
 71
     0
 72
   100
 73
     1
 74
     0
 75
     0
 76
     0
 77
     0
 78
     0
  0
ENDTAB
  0
TABLE
  2
LTYPE
 70
     4
  0
LTYPE
  2
CONTINUOUS
 70
     0
  3
実線
 72
    65
 73
     0
 40
0.0
  0
LTYPE
  2
DASHDOT
 70
     0
  3
____ _ ____ _ ____ _ ____ _ ____ _ ____ _ ____
 72
    65
 73
     4
 40
5.5
 49
4.0
 49
-0.6
 49
0.3
 49
-0.6
  0
LTYPE
  2
DASHED
 70
     0
  3
_ _ _ _ _ _ _ _ _ _ _ _ _ _ _ _ _ _ _ _ _ _ _
 72
    65
 73
     2
 40
2.0
 49
1.1999999999999991
 49
-0.8
  0
ENDTAB
  0
TABLE
  2
LAYER
 70
    12
  0
LAYER
  2
0
 70
     0
 62
     7
  6
CONTINUOUS
  0
LAYER
  2
SIZE
 70
     0
 62
     4
  6
CONTINUOUS
  0
LAYER
  2
BASIS
 70
     0
 62
     6
  6
DASHDOT
  0
LAYER
  2
OUTLINE
 70
     0
 62
     3
  6
CONTINUOUS
  0
LAYER
  2
DETAIL
 70
     0
 62
     5
  6
CONTINUOUS
  0
LAYER
  2
ARRANGE
 70
     0
 62
     1
  6
CONTINUOUS
  0
LAYER
  2
DEFPOINTS
 70
     0
 62
     7
  6
CONTINUOUS
  0
LAYER
  2
ETC
 70
     0
 62
    61
  6
CONTINUOUS
  0
LAYER
  2
FIX
 70
     0
 62
     7
  6
CONTINUOUS
  0
LAYER
  2
NOTE
 70
     0
 62
     4
  6
CONTINUOUS
  0
LAYER
  2
SERVICESPACE
 70
     0
 62
     2
  6
DASHDOT
  0
LAYER
  2
SYMBOLLINE
 70
     0
 62
    15
  6
CONTINUOUS
  0
ENDTAB
  0
TABLE
  2
STYLE
 70
     2
  0
STYLE
  2
STANDARD
 70
     0
 40
64.0
 41
0.9
 50
0.0
 71
     0
 42
64.0
  3
SIMPLEX.shx
  4
BIGFONT.shx
  0
STYLE
  2
ANNOTATIVE
 70
     0
 40
0.0
 41
1.0
 50
0.0
 71
     0
 42
0.2
  3
txt
  4

  0
ENDTAB
  0
TABLE
  2
VIEW
 70
     1
  0
VIEW
  2
ALL
 70
     0
 40
4282.6198079999986
 10
0.0
 20
41.309903999999989
 41
5940.0
 11
0.0
 21
0.0
 31
1.0
 12
0.0
 22
0.0
 32
0.0
 42
50.0
 43
0.0
 44
0.0
 50
0.0
 71
     0
  0
ENDTAB
  0
TABLE
  2
UCS
 70
     0
  0
ENDTAB
  0
TABLE
  2
APPID
 70
     4
  0
APPID
  2
ACAD
 70
     0
  0
APPID
  2
ACADANNOTATIVE
 70
     0
  0
APPID
  2
ACAD_MLEADERVER
 70
     0
  0
APPID
  2
ACAD_EXEMPT_FROM_CAD_STANDARDS
 70
     0
  0
ENDTAB
  0
TABLE
  2
DIMSTYLE
 70
     2
  0
DIMSTYLE
  2
STANDARD
 70
     0
  3

  4

  5

  6

  7

 40
1.0
 41
0.18
 42
0.0625
 43
0.38
 44
0.18
 45
0.0
 46
0.0
 47
0.0
 48
0.0
140
0.18
141
0.09
142
0.0
143
25.399999999999999
144
1.0
145
0.0
146
1.0
147
0.09
 71
     0
 72
     0
 73
     1
 74
     1
 75
     0
 76
     0
 77
     0
 78
     0
170
     0
171
     2
172
     0
173
     0
174
     0
175
     0
176
     0
177
     0
178
     0
  0
DIMSTYLE
  2
ANNOTATIVE
 70
     0
  3

  4

  5

  6

  7

 40
1.0
 41
0.18
 42
0.0625
 43
0.38
 44
0.18
 45
0.0
 46
0.0
 47
0.0
 48
0.0
140
0.18
141
0.09
142
0.0
143
25.399999999999999
144
1.0
145
0.0
146
1.0
147
0.09
 71
     0
 72
     0
 73
     1
 74
     1
 75
     0
 76
     0
 77
     0
 78
     0
170
     0
171
     2
172
     0
173
     0
174
     0
175
     0
176
     0
177
     0
178
     0
  0
ENDTAB
  0
ENDSEC
  0
SECTION
  2
BLOCKS
  0
BLOCK
  8
0
  2
$MODEL_SPACE
 70
     0
 10
0.0
 20
0.0
 30
0.0
  3
$MODEL_SPACE
  1

  0
ENDBLK
  5
76
  8
0
  0
BLOCK
 67
     1
  8
0
  2
$PAPER_SPACE
 70
     0
 10
0.0
 20
0.0
 30
0.0
  3
$PAPER_SPACE
  1

  0
ENDBLK
  5
72
 67
     1
  8
0
  0
BLOCK
  8
0
  2
DOT1
 70
     0
 10
0.0
 20
0.0
 30
0.0
  3
DOT1
  1

  0
CIRCLE
  5
8C
  8
SIZE
  6
CONTINUOUS
 62
     7
 10
0.0
 20
0.0
 30
0.0
 40
3.0
  0
ENDBLK
  5
8D
  8
0
  0
BLOCK
  8
0
  2
_ORIGIN
 70
     0
 10
0.0
 20
0.0
 30
0.0
  3
_ORIGIN
  1

  0
CIRCLE
  5
90
  8
0
  6
CONTINUOUS
 62
     7
 10
0.0
 20
0.0
 30
0.0
 40
0.5
  0
LINE
  5
91
  8
0
  6
CONTINUOUS
 62
     7
 10
0.0
 20
0.0
 30
0.0
 11
-1.0
 21
0.0
 31
0.0
  0
ENDBLK
  5
92
  8
0
  0
ENDSEC
  0
SECTION
  2
ENTITIES
  0
TEXT
  5
93
  8
NOTE
  6
CONTINUOUS
 62
     4
 10
-939.90114499999993
 20
-306.45552700000002
 30
0.0
 40
64.0
  1
AH 12-φ12×20
 41
0.9
  0
LINE
  5
94
  8
NOTE
  6
CONTINUOUS
 62
     4
 10
-282.31475499999999
 20
-341.53105499999998
 30
0.0
 11
-956.8676529999999
 21
-341.53105499999998
 31
0.0
  0
LINE
  5
96
  8
NOTE
  6
CONTINUOUS
 62
     4
 10
-150.0
 20
-190.00001399999999
 30
0.0
 11
-282.31475499999999
 21
-341.53105499999998
 31
0.0
  0
LINE
  5
97
  8
NOTE
  6
CONTINUOUS
 62
     4
 10
-183.153346
 20
-212.379819
 30
0.0
 11
-150.0
 21
-190.00001399999999
 31
0.0
  0
LINE
  5
98
  8
NOTE
  6
CONTINUOUS
 62
     4
 10
-150.0
 20
-190.00001399999999
 30
0.0
 11
-167.521737
 21
-225.958167
 31
0.0
  0
LINE
  5
99
  8
BASIS
  6
DASHDOT
 62
     6
 10
-125.798721
 20
-27.499991999999999
 30
0.0
 11
119.51354600000001
 21
-27.499991999999999
 31
0.0
  0
LINE
  5
9A
  8
BASIS
  6
DASHDOT
 62
     6
 10
0.0
 20
235.75238300000001
 30
0.0
 11
0.0
 21
-237.56468000000001
 31
0.0
  0
LINE
  5
9B
  8
DETAIL
  6
CONTINUOUS
 62
     5
 10
190.00001399999999
 20
183.74118200000001
 30
0.0
 11
190.00001399999999
 21
225.00000800000001
 31
0.0
  0
LINE
  5
9C
  8
DETAIL
  6
CONTINUOUS
 62
     5
 10
190.00001399999999
 20
-90.590276000000003
 30
0.0
 11
190.00001399999999
 21
183.741184
 31
0.0
  0
LINE
  5
9D
  8
DETAIL
  6
CONTINUOUS
 62
     5
 10
-172.11765399999999
 20
185.52941999999999
 30
0.0
 11
-185.97647799999999
 21
185.52941999999999
 31
0.0
  0
ARC
  5
9E
  8
DETAIL
  6
CONTINUOUS
 62
     5
 10
-185.97647799999999
 20
183.741184
 30
0.0
 40
1.7882349999999989
 50
90.0
 51
180.0
  0
ARC
  5
9F
  8
DETAIL
  6
CONTINUOUS
 62
     5
 10
-185.97647799999999
 20
183.741184
 30
0.0
 40
4.0235300000000001
 50
90.0
 51
180.0
  0
LINE
  5
A0
  8
DETAIL
  6
CONTINUOUS
 62
     5
 10
-185.97647799999999
 20
187.764714
 30
0.0
 11
-185.97647799999999
 21
190.00000800000001
 31
0.0
  0
LINE
  5
A1
  8
DETAIL
  6
CONTINUOUS
 62
     5
 10
-190.00000800000001
 20
-183.74118999999999
 30
0.0
 11
-190.00000800000001
 21
102.96165499999999
 31
0.0
  0
LINE
  5
A2
  8
DETAIL
  6
CONTINUOUS
 62
     5
 10
-187.764714
 20
-183.74118999999999
 30
0.0
 11
-187.764714
 21
102.96165499999999
 31
0.0
  0
LINE
  5
A3
  8
DETAIL
  6
CONTINUOUS
 62
     5
 10
-185.97647799999999
 20
-187.76472000000001
 30
0.0
 11
-185.97647799999999
 21
-190.00001399999999
 31
0.0
  0
LINE
  5
A4
  8
DETAIL
  6
CONTINUOUS
 62
     5
 10
-172.11765399999999
 20
-185.529426
 30
0.0
 11
-185.97647799999999
 21
-185.529426
 31
0.0
  0
ARC
  5
A5
  8
DETAIL
  6
CONTINUOUS
 62
     5
 10
-185.97647799999999
 20
-183.74118999999999
 30
0.0
 40
1.7882349999999989
 50
180.0
 51
270.0
  0
ARC
  5
A6
  8
DETAIL
  6
CONTINUOUS
 62
     5
 10
-185.97647799999999
 20
-183.74118999999999
 30
0.0
 40
4.0235300000000001
 50
180.0
 51
270.0
  0
LINE
  5
A7
  8
DETAIL
  6
CONTINUOUS
 62
     5
 10
-185.97647799999999
 20
-190.00001399999999
 30
0.0
 11
0.000006
 21
-190.00001399999999
 31
0.0
  0
LINE
  5
A8
  8
DETAIL
  6
CONTINUOUS
 62
     5
 10
-185.97647799999999
 20
-187.76472000000001
 30
0.0
 11
0.000006
 21
-187.76472000000001
 31
0.0
  0
LINE
  5
A9
  8
DETAIL
  6
CONTINUOUS
 62
     5
 10
190.00001399999999
 20
-183.74118999999999
 30
0.0
 11
190.00001399999999
 21
-92.420335999999992
 31
0.0
  0
LINE
  5
AA
  8
DETAIL
  6
CONTINUOUS
 62
     5
 10
187.76472000000001
 20
-183.74118999999999
 30
0.0
 11
187.76472000000001
 21
-92.573741999999996
 31
0.0
  0
LINE
  5
AB
  8
DETAIL
  6
CONTINUOUS
 62
     5
 10
172.11766
 20
-185.529426
 30
0.0
 11
185.976485
 21
-185.529426
 31
0.0
  0
LINE
  5
AC
  8
DETAIL
  6
CONTINUOUS
 62
     5
 10
185.976485
 20
-187.76472000000001
 30
0.0
 11
185.976485
 21
-190.00001399999999
 31
0.0
  0
ARC
  5
AD
  8
DETAIL
  6
CONTINUOUS
 62
     5
 10
185.976485
 20
-183.74118999999999
 30
0.0
 40
4.0235300000000001
 50
270.0
 51
0.0
  0
ARC
  5
AE
  8
DETAIL
  6
CONTINUOUS
 62
     5
 10
185.976485
 20
-183.74118999999999
 30
0.0
 40
1.7882349999999989
 50
270.0
 51
0.0
  0
LINE
  5
AF
  8
DETAIL
  6
CONTINUOUS
 62
     5
 10
172.11766
 20
185.52941999999999
 30
0.0
 11
185.976485
 21
185.52941999999999
 31
0.0
  0
LINE
  5
B0
  8
DETAIL
  6
CONTINUOUS
 62
     5
 10
185.976485
 20
190.00000800000001
 30
0.0
 11
-185.97647799999999
 21
190.00000800000001
 31
0.0
  0
LINE
  5
B1
  8
DETAIL
  6
CONTINUOUS
 62
     5
 10
185.976485
 20
187.764714
 30
0.0
 11
-185.97647799999999
 21
187.764714
 31
0.0
  0
LINE
  5
B2
  8
DETAIL
  6
CONTINUOUS
 62
     5
 10
185.976485
 20
187.764714
 30
0.0
 11
185.976485
 21
190.00000800000001
 31
0.0
  0
ARC
  5
B3
  8
DETAIL
  6
CONTINUOUS
 62
     5
 10
185.976485
 20
183.741184
 30
0.0
 40
4.0235300000000001
 50
0.0
 51
90.0
  0
ARC
  5
B4
  8
DETAIL
  6
CONTINUOUS
 62
     5
 10
185.976485
 20
183.741184
 30
0.0
 40
1.7882349999999989
 50
0.0
 51
90.0
  0
LINE
  5
B5
  8
DETAIL
  6
CONTINUOUS
 62
     5
 10
187.76472000000001
 20
-92.573741999999996
 30
0.0
 11
187.76472000000001
 21
183.741184
 31
0.0
  0
LINE
  5
B6
  8
DETAIL
  6
CONTINUOUS
 62
     5
 10
190.00001399999999
 20
-92.420335999999992
 30
0.0
 11
190.00001399999999
 21
183.741184
 31
0.0
  0
LINE
  5
B7
  8
DETAIL
  6
CONTINUOUS
 62
     5
 10
-172.11765399999999
 20
187.764714
 30
0.0
 11
-172.11765399999999
 21
185.52941999999999
 31
0.0
  0
LINE
  5
B8
  8
DETAIL
  6
CONTINUOUS
 62
     5
 10
172.11766
 20
187.764714
 30
0.0
 11
172.11766
 21
185.52941999999999
 31
0.0
  0
LINE
  5
B9
  8
DETAIL
  6
CONTINUOUS
 62
     5
 10
172.11766
 20
-187.76472000000001
 30
0.0
 11
172.11766
 21
-185.529426
 31
0.0
  0
LINE
  5
BA
  8
DETAIL
  6
CONTINUOUS
 62
     5
 10
-172.11765399999999
 20
-187.76472000000001
 30
0.0
 11
-172.11765399999999
 21
-185.529426
 31
0.0
  0
LINE
  5
BB
  8
BASIS
  6
DASHDOT
 62
     6
 10
205.208778
 20
0.0
 30
0.0
 11
-203.17241799999999
 21
0.0
 31
0.0
  0
LINE
  5
BC
  8
BASIS
  6
DASHDOT
 62
     6
 10
257.4768029999999
 20
85.000007999999994
 30
0.0
 11
165.59988300000001
 21
85.000007999999994
 31
0.0
  0
LINE
  5
BD
  8
BASIS
  6
DASHDOT
 62
     6
 10
-1.9999859999999989
 20
-145.884231
 30
0.0
 11
-1.9999859999999989
 21
100.891684
 31
0.0
  0
LINE
  5
BE
  8
DETAIL
  6
CONTINUOUS
 62
     5
 10
0.000006
 20
-190.00001399999999
 30
0.0
 11
185.976485
 21
-190.00001399999999
 31
0.0
  0
LINE
  5
BF
  8
DETAIL
  6
CONTINUOUS
 62
     5
 10
0.000006
 20
-187.76472000000001
 30
0.0
 11
185.976485
 21
-187.76472000000001
 31
0.0
  0
LINE
  5
C0
  8
OUTLINE
  6
CONTINUOUS
 62
     3
 10
185.976485
 20
187.764714
 30
0.0
 11
185.976485
 21
190.00000800000001
 31
0.0
  0
LINE
  5
C1
  8
OUTLINE
  6
CONTINUOUS
 62
     3
 10
185.976485
 20
-187.76472000000001
 30
0.0
 11
185.976485
 21
-190.00001399999999
 31
0.0
  0
ARC
  5
C2
  8
OUTLINE
  6
CONTINUOUS
 62
     3
 10
185.976485
 20
-183.74118999999999
 30
0.0
 40
4.0235300000000001
 50
270.0
 51
0.0
  0
LINE
  5
C3
  8
OUTLINE
  6
CONTINUOUS
 62
     3
 10
-185.97647799999999
 20
-187.76472000000001
 30
0.0
 11
-185.97647799999999
 21
-190.00001399999999
 31
0.0
  0
LINE
  5
C4
  8
OUTLINE
  6
CONTINUOUS
 62
     3
 10
-185.97647799999999
 20
187.764714
 30
0.0
 11
-185.97647799999999
 21
190.00000800000001
 31
0.0
  0
ARC
  5
C5
  8
OUTLINE
  6
CONTINUOUS
 62
     3
 10
-185.97647799999999
 20
183.741184
 30
0.0
 40
4.0235300000000001
 50
90.0
 51
180.0
  0
LINE
  5
C6
  8
OUTLINE
  6
CONTINUOUS
 62
     3
 10
-190.00000800000001
 20
-183.74118999999999
 30
0.0
 11
-190.00000800000001
 21
183.741184
 31
0.0
  0
ARC
  5
C7
  8
OUTLINE
  6
CONTINUOUS
 62
     3
 10
-185.97647799999999
 20
-183.74118999999999
 30
0.0
 40
4.0235300000000001
 50
180.0
 51
270.0
  0
LINE
  5
C8
  8
OUTLINE
  6
CONTINUOUS
 62
     3
 10
-185.97647799999999
 20
-190.00001399999999
 30
0.0
 11
185.976485
 21
-190.00001399999999
 31
0.0
  0
LINE
  5
C9
  8
OUTLINE
  6
CONTINUOUS
 62
     3
 10
190.00001399999999
 20
-183.74118999999999
 30
0.0
 11
190.00001399999999
 21
-92.420335999999992
 31
0.0
  0
LINE
  5
CA
  8
OUTLINE
  6
CONTINUOUS
 62
     3
 10
190.00001399999999
 20
-92.420335999999992
 30
0.0
 11
190.00001399999999
 21
183.741184
 31
0.0
  0
ARC
  5
CB
  8
OUTLINE
  6
CONTINUOUS
 62
     3
 10
185.976485
 20
183.741184
 30
0.0
 40
4.0235300000000001
 50
0.0
 51
90.0
  0
LINE
  5
CC
  8
OUTLINE
  6
CONTINUOUS
 62
     3
 10
190.00001399999999
 20
183.741184
 30
0.0
 11
190.00001399999999
 21
225.00000800000001
 31
0.0
  0
LINE
  5
CD
  8
OUTLINE
  6
CONTINUOUS
 62
     3
 10
185.976485
 20
190.00000800000001
 30
0.0
 11
-185.97647799999999
 21
190.00000800000001
 31
0.0
  0
LINE
  5
CE
  8
DETAIL
  6
CONTINUOUS
 62
     5
 10
192.53334799999999
 20
161.17825999999999
 30
0.0
 11
192.53334799999999
 21
225.00000800000001
 31
0.0
  0
LINE
  5
CF
  8
DETAIL
  6
CONTINUOUS
 62
     5
 10
192.53334799999999
 20
-54.999992000000013
 30
0.0
 11
192.53334799999999
 21
161.17825999999999
 31
0.0
  0
LINE
  5
D0
  8
SIZE
  6
CONTINUOUS
 62
    30
 10
190.00001399999999
 20
-203.74118999999999
 30
0.0
 11
190.00001399999999
 21
-520.39858300000003
 31
0.0
  0
LINE
  5
D1
  8
SIZE
  6
CONTINUOUS
 62
    30
 10
-1.9999859999999989
 20
-165.884231
 30
0.0
 11
-1.9999859999999989
 21
-520.39858300000003
 31
0.0
  0
LINE
  5
D2
  8
SIZE
  6
CONTINUOUS
 62
    30
 10
178.00001399999999
 20
-500.39858299999997
 30
0.0
 11
10.000014
 21
-500.39858299999997
 31
0.0
  0
LINE
  5
D3
  8
SIZE
  6
CONTINUOUS
 62
    30
 10
-432.28195999999991
 20
-500.39858299999997
 30
0.0
 11
-1.9999859999999989
 21
-500.39858299999997
 31
0.0
  0
TEXT
  5
D4
  8
SIZE
  6
CONTINUOUS
 62
    30
 10
-407.2819595714285
 20
-475.39858299999997
 30
0.0
 40
64.0
  1
192
 41
0.9
 72
     1
 11
-338.710531
 21
-475.39858299999997
 31
0.0
  0
CIRCLE
  5
D5
  8
SIZE
  6
CONTINUOUS
 62
    30
 10
190.00001399999999
 20
-500.39858299999997
 30
0.0
 40
6.0
  0
LINE
  5
D6
  8
SIZE
  6
CONTINUOUS
 62
    30
 10
190.00001399999999
 20
-500.39858299999997
 30
0.0
 11
178.00001399999999
 21
-500.39858299999997
 31
0.0
  0
CIRCLE
  5
D7
  8
SIZE
  6
CONTINUOUS
 62
    30
 10
-1.9999859999999989
 20
-500.39858299999997
 30
0.0
 40
6.0
  0
LINE
  5
D8
  8
SIZE
  6
CONTINUOUS
 62
    30
 10
-1.9999859999999989
 20
-500.39858299999997
 30
0.0
 11
10.000014
 21
-500.39858299999997
 31
0.0
  0
POINT
  5
D9
  8
DEFPOINTS
  6
CONTINUOUS
 62
    30
 10
190.00001399999999
 20
-183.74118999999999
 30
0.0
  0
POINT
  5
DA
  8
DEFPOINTS
  6
CONTINUOUS
 62
    30
 10
-1.9999859999999989
 20
-145.884231
 30
0.0
  0
POINT
  5
DB
  8
DEFPOINTS
  6
CONTINUOUS
 62
    30
 10
-1.9999859999999989
 20
-500.39858299999997
 30
0.0
  0
LINE
  5
DC
  8
NOTE
  6
CONTINUOUS
 62
     4
 10
150.0
 20
166.47058799999999
 30
0.0
 11
150.0
 21
213.529428
 31
0.0
  0
LINE
  5
DD
  8
NOTE
  6
CONTINUOUS
 62
     4
 10
173.52941999999999
 20
190.00000800000001
 30
0.0
 11
126.47058
 21
190.00000800000001
 31
0.0
  0
CIRCLE
  5
DE
  8
FIX
  6
CONTINUOUS
 62
    11
 10
150.0
 20
190.00000800000001
 30
0.0
 40
6.0
  0
CIRCLE
  5
DF
  8
FIX
  6
CONTINUOUS
 62
    11
 10
-150.0
 20
190.00000800000001
 30
0.0
 40
6.0
  0
LINE
  5
E0
  8
NOTE
  6
CONTINUOUS
 62
     4
 10
-150.0
 20
166.47058799999999
 30
0.0
 11
-150.0
 21
213.529428
 31
0.0
  0
LINE
  5
E1
  8
NOTE
  6
CONTINUOUS
 62
     4
 10
-173.52941999999999
 20
190.00000800000001
 30
0.0
 11
-126.47058
 21
190.00000800000001
 31
0.0
  0
CIRCLE
  5
E2
  8
FIX
  6
CONTINUOUS
 62
    11
 10
-150.0
 20
-190.00000800000001
 30
0.0
 40
6.0
  0
LINE
  5
E3
  8
NOTE
  6
CONTINUOUS
 62
     4
 10
-150.0
 20
-166.47058799999999
 30
0.0
 11
-150.0
 21
-213.529428
 31
0.0
  0
LINE
  5
E4
  8
NOTE
  6
CONTINUOUS
 62
     4
 10
-173.52941999999999
 20
-190.00000800000001
 30
0.0
 11
-126.47058
 21
-190.00000800000001
 31
0.0
  0
CIRCLE
  5
E5
  8
FIX
  6
CONTINUOUS
 62
    11
 10
150.0
 20
-190.00000800000001
 30
0.0
 40
6.0
  0
LINE
  5
E6
  8
NOTE
  6
CONTINUOUS
 62
     4
 10
150.0
 20
-166.47058799999999
 30
0.0
 11
150.0
 21
-213.529428
 31
0.0
  0
LINE
  5
E7
  8
NOTE
  6
CONTINUOUS
 62
     4
 10
173.52941999999999
 20
-190.00000800000001
 30
0.0
 11
126.47058
 21
-190.00000800000001
 31
0.0
  0
LINE
  5
E8
  8
SIZE
  6
CONTINUOUS
 62
    30
 10
150.0
 20
-233.52941999999999
 30
0.0
 11
150.0
 21
-644.77224199999989
 31
0.0
  0
LINE
  5
E9
  8
SIZE
  6
CONTINUOUS
 62
    30
 10
-150.0
 20
-233.52941999999999
 30
0.0
 11
-150.0
 21
-644.77224199999989
 31
0.0
  0
LINE
  5
EA
  8
SIZE
  6
CONTINUOUS
 62
    30
 10
138.0
 20
-624.77224200000001
 30
0.0
 11
-138.0
 21
-624.77224200000001
 31
0.0
  0
CIRCLE
  5
EB
  8
SIZE
  6
CONTINUOUS
 62
    30
 10
150.0
 20
-624.77224200000001
 30
0.0
 40
6.0
  0
LINE
  5
EC
  8
SIZE
  6
CONTINUOUS
 62
    30
 10
150.0
 20
-624.77224200000001
 30
0.0
 11
138.0
 21
-624.77224200000001
 31
0.0
  0
CIRCLE
  5
ED
  8
SIZE
  6
CONTINUOUS
 62
    30
 10
-150.0
 20
-624.77224200000001
 30
0.0
 40
6.0
  0
LINE
  5
EE
  8
SIZE
  6
CONTINUOUS
 62
    30
 10
-150.0
 20
-624.77224200000001
 30
0.0
 11
-138.0
 21
-624.77224200000001
 31
0.0
  0
TEXT
  5
EF
  8
SIZE
  6
CONTINUOUS
 62
    30
 10
-74.05714285714285
 20
-599.77224200000001
 30
0.0
 40
64.0
  1
300
 41
0.9
 72
     1
 11
0.0
 21
-599.77224200000001
 31
0.0
  0
POINT
  5
F0
  8
DEFPOINTS
  6
CONTINUOUS
 62
    30
 10
150.0
 20
-213.52941999999999
 30
0.0
  0
POINT
  5
F1
  8
DEFPOINTS
  6
CONTINUOUS
 62
    30
 10
-150.0
 20
-213.52941999999999
 30
0.0
  0
POINT
  5
F2
  8
DEFPOINTS
  6
CONTINUOUS
 62
    30
 10
-150.0
 20
-624.77224200000001
 30
0.0
  0
LINE
  5
F3
  8
SIZE
  6
CONTINUOUS
 62
    30
 10
-190.00000800000001
 20
-203.74118999999999
 30
0.0
 11
-190.00000800000001
 21
-779.28462400000001
 31
0.0
  0
LINE
  5
F4
  8
SIZE
  6
CONTINUOUS
 62
    30
 10
190.00001399999999
 20
-203.74118999999999
 30
0.0
 11
190.00001399999999
 21
-779.28462400000001
 31
0.0
  0
LINE
  5
F5
  8
SIZE
  6
CONTINUOUS
 62
    30
 10
-178.00000800000001
 20
-759.28462400000001
 30
0.0
 11
178.00001399999999
 21
-759.28462400000001
 31
0.0
  0
TEXT
  5
F6
  8
SIZE
  6
CONTINUOUS
 62
    30
 10
-74.057139857142829
 20
-723.96226000000001
 30
0.0
 40
64.0
  1
380
 41
0.9
 72
     1
 11
0.000003
 21
-723.96226000000001
 31
0.0
  0
CIRCLE
  5
F7
  8
SIZE
  6
CONTINUOUS
 62
    30
 10
-190.00000800000001
 20
-759.28462400000001
 30
0.0
 40
6.0
  0
LINE
  5
F8
  8
SIZE
  6
CONTINUOUS
 62
    30
 10
-190.00000800000001
 20
-759.28462400000001
 30
0.0
 11
-178.00000800000001
 21
-759.28462400000001
 31
0.0
  0
CIRCLE
  5
F9
  8
SIZE
  6
CONTINUOUS
 62
    30
 10
190.00001399999999
 20
-759.28462400000001
 30
0.0
 40
6.0
  0
LINE
  5
FA
  8
SIZE
  6
CONTINUOUS
 62
    30
 10
190.00001399999999
 20
-759.28462400000001
 30
0.0
 11
178.00001399999999
 21
-759.28462400000001
 31
0.0
  0
POINT
  5
FB
  8
DEFPOINTS
  6
CONTINUOUS
 62
    30
 10
-190.00000800000001
 20
-183.74118999999999
 30
0.0
  0
POINT
  5
FC
  8
DEFPOINTS
  6
CONTINUOUS
 62
    30
 10
190.00001399999999
 20
-183.74118999999999
 30
0.0
  0
POINT
  5
FD
  8
DEFPOINTS
  6
CONTINUOUS
 62
    30
 10
190.00001399999999
 20
-759.28462400000001
 30
0.0
  0
LINE
  5
FE
  8
SIZE
  6
CONTINUOUS
 62
    30
 10
-150.0
 20
233.52941999999999
 30
0.0
 11
-150.0
 21
412.38703700000002
 31
0.0
  0
LINE
  5
FF
  8
SIZE
  6
CONTINUOUS
 62
    30
 10
150.0
 20
233.52941999999999
 30
0.0
 11
150.0
 21
412.38703700000002
 31
0.0
  0
LINE
  5
100
  8
SIZE
  6
CONTINUOUS
 62
    30
 10
-138.0
 20
392.38703700000002
 30
0.0
 11
138.0
 21
392.38703700000002
 31
0.0
  0
TEXT
  5
101
  8
SIZE
  6
CONTINUOUS
 62
    30
 10
-74.05714285714285
 20
423.4166919999999
 30
0.0
 40
64.0
  1
300
 41
0.9
 72
     1
 11
0.0
 21
423.4166919999999
 31
0.0
  0
CIRCLE
  5
102
  8
SIZE
  6
CONTINUOUS
 62
    30
 10
-150.0
 20
392.38703700000002
 30
0.0
 40
6.0
  0
LINE
  5
103
  8
SIZE
  6
CONTINUOUS
 62
    30
 10
-150.0
 20
392.38703700000002
 30
0.0
 11
-138.0
 21
392.38703700000002
 31
0.0
  0
CIRCLE
  5
104
  8
SIZE
  6
CONTINUOUS
 62
    30
 10
150.0
 20
392.38703700000002
 30
0.0
 40
6.0
  0
LINE
  5
105
  8
SIZE
  6
CONTINUOUS
 62
    30
 10
150.0
 20
392.38703700000002
 30
0.0
 11
138.0
 21
392.38703700000002
 31
0.0
  0
POINT
  5
106
  8
DEFPOINTS
  6
CONTINUOUS
 62
    30
 10
-150.0
 20
213.52941999999999
 30
0.0
  0
POINT
  5
107
  8
DEFPOINTS
  6
CONTINUOUS
 62
    30
 10
150.0
 20
213.52941999999999
 30
0.0
  0
POINT
  5
108
  8
DEFPOINTS
  6
CONTINUOUS
 62
    30
 10
150.0
 20
392.38703700000002
 30
0.0
  0
LINE
  5
109
  8
NOTE
  6
CONTINUOUS
 62
     4
 10
-190.00000800000001
 20
126.47058
 30
0.0
 11
-190.00000800000001
 21
173.52941999999999
 31
0.0
  0
LINE
  5
10A
  8
NOTE
  6
CONTINUOUS
 62
     4
 10
-213.529428
 20
150.0
 30
0.0
 11
-166.47058799999999
 21
150.0
 31
0.0
  0
CIRCLE
  5
10B
  8
FIX
  6
CONTINUOUS
 62
    11
 10
-190.00000800000001
 20
150.0
 30
0.0
 40
6.0
  0
CIRCLE
  5
10C
  8
FIX
  6
CONTINUOUS
 62
    11
 10
-190.00000800000001
 20
-150.0
 30
0.0
 40
6.0
  0
LINE
  5
10D
  8
NOTE
  6
CONTINUOUS
 62
     4
 10
-190.00000800000001
 20
-173.52941999999999
 30
0.0
 11
-190.00000800000001
 21
-126.47058
 31
0.0
  0
LINE
  5
10E
  8
NOTE
  6
CONTINUOUS
 62
     4
 10
-213.529428
 20
-150.0
 30
0.0
 11
-166.47058799999999
 21
-150.0
 31
0.0
  0
POINT
  5
10F
  8
ARRANGE
  6
CONTINUOUS
 62
     1
 10
0.0
 20
0.0
 30
0.0
  0
CIRCLE
  5
110
  8
ARRANGE
  6
CONTINUOUS
 62
     1
 10
0.0
 20
0.0
 30
0.0
 40
40.0
  0
CIRCLE
  5
112
  8
DETAIL
  6
CONTINUOUS
 62
     5
 10
-1.9999859999999989
 20
-27.499991999999999
 30
0.0
 40
81.599999999999994
  0
CIRCLE
  5
113
  8
DETAIL
  6
CONTINUOUS
 62
     5
 10
-1.9999859999999989
 20
-27.499991999999999
 30
0.0
 40
77.5
  0
ARC
  5
114
  8
DETAIL
  6
CONTINUOUS
 62
     5
 10
-1.9999859999999989
 20
-27.499991999999999
 30
0.0
 40
67.5
 50
185.95248699999999
 51
264.04751299999998
  0
ARC
  5
115
  8
DETAIL
  6
CONTINUOUS
 62
     5
 10
-1.9999859999999989
 20
-27.499991999999999
 30
0.0
 40
30.0
 50
193.49339900000001
 51
256.50660099999999
  0
LINE
  5
116
  8
DETAIL
  6
CONTINUOUS
 62
     5
 10
-69.136042000000003
 20
-20.499991999999999
 30
0.0
 11
-31.171890000000001
 21
-20.499991999999999
 31
0.0
  0
LINE
  5
117
  8
DETAIL
  6
CONTINUOUS
 62
     5
 10
-69.136042000000003
 20
-34.499991999999999
 30
0.0
 11
-31.171890000000001
 21
-34.499991999999999
 31
0.0
  0
LINE
  5
118
  8
DETAIL
  6
CONTINUOUS
 62
     5
 10
-8.9999859999999998
 20
-94.636048000000002
 30
0.0
 11
-8.9999859999999998
 21
-56.671895999999997
 31
0.0
  0
LINE
  5
119
  8
DETAIL
  6
CONTINUOUS
 62
     5
 10
5.0000140000000002
 20
-94.636048000000002
 30
0.0
 11
5.0000140000000002
 21
-56.671895999999997
 31
0.0
  0
ARC
  5
11A
  8
DETAIL
  6
CONTINUOUS
 62
     5
 10
-1.9999859999999989
 20
-27.499991999999999
 30
0.0
 40
67.5
 50
275.95248700000002
 51
354.04751299999998
  0
ARC
  5
11B
  8
DETAIL
  6
CONTINUOUS
 62
     5
 10
-1.9999859999999989
 20
-27.499991999999999
 30
0.0
 40
67.5
 50
5.9524869999999996
 51
84.047512999999995
  0
ARC
  5
11C
  8
DETAIL
  6
CONTINUOUS
 62
     5
 10
-1.9999859999999989
 20
-27.499991999999999
 30
0.0
 40
67.5
 50
95.952487000000005
 51
174.04751300000001
  0
LINE
  5
11D
  8
DETAIL
  6
CONTINUOUS
 62
     5
 10
27.171918999999999
 20
-20.499991999999999
 30
0.0
 11
65.136069999999989
 21
-20.499991999999999
 31
0.0
  0
LINE
  5
11E
  8
DETAIL
  6
CONTINUOUS
 62
     5
 10
27.171918999999999
 20
-34.499991999999999
 30
0.0
 11
65.136069999999989
 21
-34.499991999999999
 31
0.0
  0
LINE
  5
11F
  8
DETAIL
  6
CONTINUOUS
 62
     5
 10
-8.9999859999999998
 20
1.671911999999999
 30
0.0
 11
-8.9999859999999998
 21
39.636064000000012
 31
0.0
  0
LINE
  5
120
  8
DETAIL
  6
CONTINUOUS
 62
     5
 10
5.0000140000000002
 20
1.671911999999999
 30
0.0
 11
5.0000140000000002
 21
39.636064000000012
 31
0.0
  0
ARC
  5
121
  8
DETAIL
  6
CONTINUOUS
 62
     5
 10
-1.9999859999999989
 20
-27.499991999999999
 30
0.0
 40
30.0
 50
103.493399
 51
166.50660099999999
  0
ARC
  5
122
  8
DETAIL
  6
CONTINUOUS
 62
     5
 10
-1.9999859999999989
 20
-27.499991999999999
 30
0.0
 40
30.0
 50
13.493399
 51
76.506601000000003
  0
ARC
  5
123
  8
DETAIL
  6
CONTINUOUS
 62
     5
 10
-1.9999859999999989
 20
-27.499991999999999
 30
0.0
 40
30.0
 50
283.49339900000001
 51
346.50660099999999
  0
CIRCLE
  5
124
  8
DETAIL
  6
CONTINUOUS
 62
     5
 10
0.0
 20
-6.5718690000000004
 30
0.0
 40
180.0
  0
CIRCLE
  5
125
  8
DETAIL
  6
CONTINUOUS
 62
     5
 10
0.0
 20
-6.5718690000000004
 30
0.0
 40
150.0
  0
LINE
  5
126
  8
DETAIL
  6
CONTINUOUS
 62
     5
 10
-41.390538999999997
 20
102.457545
 30
0.0
 11
-32.958407000000001
 21
104.585382
 31
0.0
  0
ARC
  5
127
  8
DETAIL
  6
CONTINUOUS
 62
     5
 10
-38.252149000000003
 20
92.961654999999993
 30
0.0
 40
10.0
 50
100.12288700000001
 51
178.58168800000001
  0
ARC
  5
128
  8
DETAIL
  6
CONTINUOUS
 62
     5
 10
-35.252149000000003
 20
91.011655000000005
 30
0.0
 40
20.0
 50
90.0
 51
169.00702799999999
  0
LINE
  5
129
  8
NOTE
  6
CONTINUOUS
 62
     4
 10
-32.958407000000001
 20
87.761655000000005
 30
0.0
 11
-32.958407000000001
 21
127.761655
 31
0.0
  0
LINE
  5
12A
  8
NOTE
  6
CONTINUOUS
 62
     4
 10
-12.958406999999999
 20
107.761655
 30
0.0
 11
-52.958406999999987
 21
107.761655
 31
0.0
  0
LINE
  5
12B
  8
DETAIL
  6
CONTINUOUS
 62
     5
 10
-51.289527
 20
102.96165499999999
 30
0.0
 11
-201.68004099999999
 21
102.96165499999999
 31
0.0
  0
LINE
  5
12C
  8
DETAIL
  6
CONTINUOUS
 62
     5
 10
-51.81818599999999
 20
102.217298
 30
0.0
 11
-62.788022999999988
 21
102.217298
 31
0.0
  0
LINE
  5
12D
  8
DETAIL
  6
CONTINUOUS
 62
     5
 10
-62.788022999999988
 20
102.217298
 30
0.0
 11
-62.788022999999988
 21
113.04358000000001
 31
0.0
  0
LINE
  5
12E
  8
DETAIL
  6
CONTINUOUS
 62
     5
 10
-32.958407000000001
 20
113.04358000000001
 30
0.0
 11
-62.788022999999988
 21
113.04358000000001
 31
0.0
  0
LINE
  5
12F
  8
DETAIL
  6
CONTINUOUS
 62
     5
 10
-32.958407000000001
 20
102.217298
 30
0.0
 11
-42.038055
 21
102.217298
 31
0.0
  0
LINE
  5
130
  8
DETAIL
  6
CONTINUOUS
 62
     5
 10
-201.68004099999999
 20
102.96165499999999
 30
0.0
 11
-207.90103999999999
 21
102.96165499999999
 31
0.0
  0
LINE
  5
131
  8
DETAIL
  6
CONTINUOUS
 62
     5
 10
-201.68004099999999
 20
112.561655
 30
0.0
 11
-207.62029999999999
 21
112.561655
 31
0.0
  0
LINE
  5
132
  8
DETAIL
  6
DASHED
 62
     5
 10
-32.958407000000001
 20
112.561655
 30
0.0
 11
-57.910305000000008
 21
112.561655
 31
0.0
  0
POLYLINE
  5
133
  8
DETAIL
  6
CONTINUOUS
 62
     5
 66
     1
 10
0.0
 20
0.0
 30
0.0
  0
VERTEX
  5
22E
  8
DETAIL
  6
CONTINUOUS
 62
     5
 10
-207.53737000000001
 20
112.499394
 30
0.0
  0
VERTEX
  5
22F
  8
DETAIL
  6
CONTINUOUS
 62
     5
 10
-208.06438900000001
 20
112.090008
 30
0.0
  0
VERTEX
  5
230
  8
DETAIL
  6
CONTINUOUS
 62
     5
 10
-208.42791
 20
111.60885500000001
 30
0.0
  0
VERTEX
  5
231
  8
DETAIL
  6
CONTINUOUS
 62
     5
 10
-208.42791
 20
111.60885500000001
 30
0.0
  0
VERTEX
  5
232
  8
DETAIL
  6
CONTINUOUS
 62
     5
 10
-208.516616
 20
111.021682
 30
0.0
  0
VERTEX
  5
233
  8
DETAIL
  6
CONTINUOUS
 62
     5
 10
-208.42791
 20
110.444304
 30
0.0
  0
VERTEX
  5
234
  8
DETAIL
  6
CONTINUOUS
 62
     5
 10
-208.42791
 20
110.444304
 30
0.0
  0
VERTEX
  5
235
  8
DETAIL
  6
CONTINUOUS
 62
     5
 10
-207.91619800000001
 20
109.355874
 30
0.0
  0
VERTEX
  5
236
  8
DETAIL
  6
CONTINUOUS
 62
     5
 10
-207.26335800000001
 20
108.32071000000001
 30
0.0
  0
VERTEX
  5
237
  8
DETAIL
  6
CONTINUOUS
 62
     5
 10
-207.26335800000001
 20
108.32071000000001
 30
0.0
  0
VERTEX
  5
238
  8
DETAIL
  6
CONTINUOUS
 62
     5
 10
-207.08636999999999
 20
107.884462
 30
0.0
  0
VERTEX
  5
239
  8
DETAIL
  6
CONTINUOUS
 62
     5
 10
-206.92084299999999
 20
107.430171
 30
0.0
  0
VERTEX
  5
23A
  8
DETAIL
  6
CONTINUOUS
 62
     5
 10
-206.92084299999999
 20
107.430171
 30
0.0
  0
VERTEX
  5
23B
  8
DETAIL
  6
CONTINUOUS
 62
     5
 10
-206.555173
 20
106.335274
 30
0.0
  0
VERTEX
  5
23C
  8
DETAIL
  6
CONTINUOUS
 62
     5
 10
-206.44132200000001
 20
105.51208699999999
 30
0.0
  0
VERTEX
  5
23D
  8
DETAIL
  6
CONTINUOUS
 62
     5
 10
-206.44132200000001
 20
105.51208699999999
 30
0.0
  0
VERTEX
  5
23E
  8
DETAIL
  6
CONTINUOUS
 62
     5
 10
-206.584643
 20
104.684287
 30
0.0
  0
VERTEX
  5
23F
  8
DETAIL
  6
CONTINUOUS
 62
     5
 10
-206.92084299999999
 20
103.93651699999999
 30
0.0
  0
VERTEX
  5
240
  8
DETAIL
  6
CONTINUOUS
 62
     5
 10
-206.92084299999999
 20
103.93651699999999
 30
0.0
  0
VERTEX
  5
241
  8
DETAIL
  6
CONTINUOUS
 62
     5
 10
-207.37257099999999
 20
103.39326800000001
 30
0.0
  0
VERTEX
  5
242
  8
DETAIL
  6
CONTINUOUS
 62
     5
 10
-207.879886
 20
102.977475
 30
0.0
  0
SEQEND
  5
243
  8
DETAIL
  6
CONTINUOUS
 62
     5
  0
POLYLINE
  5
14A
  8
DETAIL
  6
CONTINUOUS
 62
     5
 66
     1
 10
0.0
 20
0.0
 30
0.0
  0
VERTEX
  5
244
  8
DETAIL
  6
CONTINUOUS
 62
     5
 10
-207.10794899999999
 20
107.781888
 30
0.0
  0
VERTEX
  5
245
  8
DETAIL
  6
CONTINUOUS
 62
     5
 10
-207.88913199999999
 20
107.20128699999999
 30
0.0
  0
VERTEX
  5
246
  8
DETAIL
  6
CONTINUOUS
 62
     5
 10
-208.46778499999999
 20
106.558036
 30
0.0
  0
VERTEX
  5
247
  8
DETAIL
  6
CONTINUOUS
 62
     5
 10
-208.46778499999999
 20
106.558036
 30
0.0
  0
VERTEX
  5
248
  8
DETAIL
  6
CONTINUOUS
 62
     5
 10
-208.70792299999999
 20
105.818136
 30
0.0
  0
VERTEX
  5
249
  8
DETAIL
  6
CONTINUOUS
 62
     5
 10
-208.73975200000001
 20
105.06221600000001
 30
0.0
  0
VERTEX
  5
24A
  8
DETAIL
  6
CONTINUOUS
 62
     5
 10
-208.73975200000001
 20
105.06221600000001
 30
0.0
  0
VERTEX
  5
24B
  8
DETAIL
  6
CONTINUOUS
 62
     5
 10
-208.680812
 20
104.35292699999999
 30
0.0
  0
VERTEX
  5
24C
  8
DETAIL
  6
CONTINUOUS
 62
     5
 10
-208.33180100000001
 20
103.566396
 30
0.0
  0
VERTEX
  5
24D
  8
DETAIL
  6
CONTINUOUS
 62
     5
 10
-208.33180100000001
 20
103.566396
 30
0.0
  0
VERTEX
  5
24E
  8
DETAIL
  6
CONTINUOUS
 62
     5
 10
-208.13997499999999
 20
103.299723
 30
0.0
  0
VERTEX
  5
24F
  8
DETAIL
  6
CONTINUOUS
 62
     5
 10
-207.92384999999999
 20
103.022462
 30
0.0
  0
SEQEND
  5
250
  8
DETAIL
  6
CONTINUOUS
 62
     5
  0
LINE
  5
158
  8
DETAIL
  6
CONTINUOUS
 62
     5
 10
-57.910305000000008
 20
112.561655
 30
0.0
 11
-201.68004099999999
 21
112.561655
 31
0.0
  0
LINE
  5
159
  8
DETAIL
  6
CONTINUOUS
 62
     5
 10
-32.958407000000001
 20
111.011655
 30
0.0
 11
-35.252149000000003
 21
111.011655
 31
0.0
  0
ARC
  5
15A
  8
DETAIL
  6
CONTINUOUS
 62
     5
 10
-32.458407000000001
 20
100.561655
 30
0.0
 40
0.5
 50
90.0
 51
180.0
  0
ARC
  5
15B
  8
DETAIL
  6
CONTINUOUS
 62
     5
 10
-32.458407000000001
 20
114.961656
 30
0.0
 40
0.5
 50
180.0
 51
270.0
  0
ARC
  5
15C
  8
DETAIL
  6
CONTINUOUS
 62
     5
 10
-18.458407000000001
 20
114.961656
 30
0.0
 40
0.5
 50
270.0
 51
0.0
  0
ARC
  5
15D
  8
DETAIL
  6
CONTINUOUS
 62
     5
 10
-18.458407000000001
 20
100.561655
 30
0.0
 40
0.5
 50
0.0
 51
90.0
  0
LINE
  5
15E
  8
DETAIL
  6
CONTINUOUS
 62
     5
 10
-19.458407000000001
 20
116.461656
 30
0.0
 11
-19.458407000000001
 21
131.26165599999999
 31
0.0
  0
ARC
  5
15F
  8
DETAIL
  6
CONTINUOUS
 62
     5
 10
-26.958407000000001
 20
93.261655000000005
 30
0.0
 40
6.0
 50
180.0
 51
270.0
  0
LINE
  5
160
  8
DETAIL
  6
CONTINUOUS
 62
     5
 10
44.541592999999992
 20
89.761655000000005
 30
0.0
 11
40.541592999999999
 21
89.761655000000005
 31
0.0
  0
ARC
  5
161
  8
DETAIL
  6
CONTINUOUS
 62
     5
 10
44.541592999999992
 20
94.261655000000005
 30
0.0
 40
4.5
 50
270.0
 51
0.0
  0
LINE
  5
162
  8
DETAIL
  6
CONTINUOUS
 62
     5
 10
-26.958407000000001
 20
87.261655000000005
 30
0.0
 11
-19.458407000000001
 21
87.261655000000005
 31
0.0
  0
ARC
  5
163
  8
DETAIL
  6
CONTINUOUS
 62
     5
 10
44.541592999999992
 20
123.761656
 30
0.0
 40
1.5
 50
0.0
 51
90.0
  0
ARC
  5
164
  8
DETAIL
  6
CONTINUOUS
 62
     5
 10
44.541592999999992
 20
123.761656
 30
0.0
 40
4.5
 50
0.0
 51
90.0
  0
ARC
  5
165
  8
DETAIL
  6
CONTINUOUS
 62
     5
 10
-16.458407000000001
 20
123.761656
 30
0.0
 40
1.5
 50
90.0
 51
180.0
  0
LINE
  5
166
  8
DETAIL
  6
CONTINUOUS
 62
     5
 10
44.541592999999992
 20
125.261656
 30
0.0
 11
-16.458407000000001
 21
125.261656
 31
0.0
  0
LINE
  5
167
  8
DETAIL
  6
CONTINUOUS
 62
     5
 10
46.041592999999999
 20
123.761656
 30
0.0
 11
46.041592999999999
 21
94.261655000000005
 31
0.0
  0
LINE
  5
168
  8
DETAIL
  6
CONTINUOUS
 62
     5
 10
-17.958407000000001
 20
94.261655000000005
 30
0.0
 11
-17.958407000000001
 21
123.761656
 31
0.0
  0
LINE
  5
169
  8
DETAIL
  6
CONTINUOUS
 62
     5
 10
-32.958407000000001
 20
115.961656
 30
0.0
 11
-32.958407000000001
 21
93.261655000000005
 31
0.0
  0
LINE
  5
16A
  8
DETAIL
  6
CONTINUOUS
 62
     5
 10
49.041594000000011
 20
123.761656
 30
0.0
 11
49.041594000000011
 21
94.261655000000005
 31
0.0
  0
ARC
  5
16B
  8
DETAIL
  6
CONTINUOUS
 62
     5
 10
44.541592999999992
 20
94.261655000000005
 30
0.0
 40
1.5
 50
270.0
 51
0.0
  0
ARC
  5
16C
  8
DETAIL
  6
CONTINUOUS
 62
     5
 10
-16.458407000000001
 20
94.261655000000005
 30
0.0
 40
1.5
 50
180.0
 51
270.0
  0
LINE
  5
16D
  8
DETAIL
  6
CONTINUOUS
 62
     5
 10
44.541592999999992
 20
92.761655000000005
 30
0.0
 11
-16.458407000000001
 21
92.761655000000005
 31
0.0
  0
LINE
  5
16E
  8
DETAIL
  6
CONTINUOUS
 62
     5
 10
-19.958407000000001
 20
115.961656
 30
0.0
 11
-32.958407000000001
 21
115.961656
 31
0.0
  0
LINE
  5
16F
  8
DETAIL
  6
CONTINUOUS
 62
     5
 10
-18.458407000000001
 20
114.46165499999999
 30
0.0
 11
-32.458407000000001
 21
114.46165499999999
 31
0.0
  0
LINE
  5
170
  8
DETAIL
  6
CONTINUOUS
 62
     5
 10
-18.458407000000001
 20
101.061655
 30
0.0
 11
-32.458407000000001
 21
101.061655
 31
0.0
  0
LINE
  5
171
  8
DETAIL
  6
CONTINUOUS
 62
     5
 10
44.541592999999992
 20
128.26165599999999
 30
0.0
 11
44.541592999999992
 21
131.26165599999999
 31
0.0
  0
LINE
  5
172
  8
DETAIL
  6
CONTINUOUS
 62
     5
 10
-18.958407000000001
 20
89.261655000000005
 30
0.0
 11
-18.958407000000001
 21
87.761655000000005
 31
0.0
  0
ARC
  5
173
  8
DETAIL
  6
CONTINUOUS
 62
     5
 10
-19.958407000000001
 20
116.461656
 30
0.0
 40
0.5
 50
270.0
 51
0.0
  0
ARC
  5
174
  8
DETAIL
  6
CONTINUOUS
 62
     5
 10
-18.458407000000001
 20
89.261655000000005
 30
0.0
 40
0.5
 50
90.0
 51
180.0
  0
ARC
  5
175
  8
DETAIL
  6
CONTINUOUS
 62
     5
 10
-19.458407000000001
 20
87.761655000000005
 30
0.0
 40
0.5
 50
270.0
 51
0.0
  0
LINE
  5
176
  8
DETAIL
  6
CONTINUOUS
 62
     5
 10
-12.458406999999999
 20
89.761655000000005
 30
0.0
 11
-18.458407000000001
 21
89.761655000000005
 31
0.0
  0
LINE
  5
177
  8
DETAIL
  6
CONTINUOUS
 62
     5
 10
30.541592999999999
 20
89.761655000000005
 30
0.0
 11
-2.4584069999999989
 21
89.761655000000005
 31
0.0
  0
ARC
  5
178
  8
DETAIL
  6
CONTINUOUS
 62
     5
 10
-30.958407000000001
 20
128.26165599999999
 30
0.0
 40
2.0
 50
90.0
 51
180.0
  0
LINE
  5
179
  8
DETAIL
  6
CONTINUOUS
 62
     5
 10
-19.458407000000001
 20
130.26165599999999
 30
0.0
 11
-19.458407000000001
 21
128.26165599999999
 31
0.0
  0
LINE
  5
17A
  8
DETAIL
  6
CONTINUOUS
 62
     5
 10
-19.458407000000001
 20
130.26165599999999
 30
0.0
 11
-19.458407000000001
 21
131.26165599999999
 31
0.0
  0
LINE
  5
17B
  8
DETAIL
  6
CONTINUOUS
 62
     5
 10
-30.958407000000001
 20
130.26165599999999
 30
0.0
 11
-19.458407000000001
 21
130.26165599999999
 31
0.0
  0
LINE
  5
17C
  8
DETAIL
  6
CONTINUOUS
 62
     5
 10
44.541592999999992
 20
131.26165599999999
 30
0.0
 11
44.541592999999992
 21
128.26165599999999
 31
0.0
  0
LINE
  5
17D
  8
DETAIL
  6
CONTINUOUS
 62
     5
 10
-32.958407000000001
 20
128.26165599999999
 30
0.0
 11
-32.958407000000001
 21
93.261655000000005
 31
0.0
  0
ARC
  5
17E
  8
DETAIL
  6
CONTINUOUS
 62
     5
 10
-26.958407000000001
 20
93.261655000000005
 30
0.0
 40
6.0
 50
180.0
 51
270.0
  0
LINE
  5
17F
  8
DETAIL
  6
CONTINUOUS
 62
     5
 10
-26.958407000000001
 20
87.261655000000005
 30
0.0
 11
-21.458407000000001
 21
87.261655000000005
 31
0.0
  0
LINE
  5
180
  8
DETAIL
  6
CONTINUOUS
 62
     5
 10
-12.458406999999999
 20
89.761655000000005
 30
0.0
 11
-17.958407000000001
 21
89.761655000000005
 31
0.0
  0
LINE
  5
181
  8
DETAIL
  6
CONTINUOUS
 62
     5
 10
-2.4584069999999989
 20
91.261655000000005
 30
0.0
 11
-2.4584069999999989
 21
88.261655000000005
 31
0.0
  0
LINE
  5
182
  8
DETAIL
  6
CONTINUOUS
 62
     5
 10
-12.458406999999999
 20
91.261655000000005
 30
0.0
 11
-12.458406999999999
 21
88.261655000000005
 31
0.0
  0
LINE
  5
183
  8
DETAIL
  6
CONTINUOUS
 62
     5
 10
-12.458406999999999
 20
91.261655000000005
 30
0.0
 11
-2.4584069999999989
 21
91.261655000000005
 31
0.0
  0
LINE
  5
184
  8
DETAIL
  6
CONTINUOUS
 62
     5
 10
44.541592999999992
 20
88.261655000000005
 30
0.0
 11
17.541592999999999
 21
88.261655000000005
 31
0.0
  0
LINE
  5
185
  8
DETAIL
  6
CONTINUOUS
 62
     5
 10
30.541592999999999
 20
89.761655000000005
 30
0.0
 11
14.187491
 21
89.761655000000005
 31
0.0
  0
LINE
  5
186
  8
DETAIL
  6
CONTINUOUS
 62
     5
 10
30.541592999999999
 20
91.261655000000005
 30
0.0
 11
30.541592999999999
 21
88.261655000000005
 31
0.0
  0
LINE
  5
187
  8
DETAIL
  6
CONTINUOUS
 62
     5
 10
30.541592999999999
 20
91.261655000000005
 30
0.0
 11
40.541592999999999
 21
91.261655000000005
 31
0.0
  0
LINE
  5
188
  8
DETAIL
  6
CONTINUOUS
 62
     5
 10
47.895695000000003
 20
89.761655000000005
 30
0.0
 11
40.541592999999999
 21
89.761655000000005
 31
0.0
  0
LINE
  5
189
  8
DETAIL
  6
CONTINUOUS
 62
     5
 10
40.541592999999999
 20
91.261655000000005
 30
0.0
 11
40.541592999999999
 21
88.261655000000005
 31
0.0
  0
LINE
  5
18A
  8
DETAIL
  6
CONTINUOUS
 62
     5
 10
8.0415929999999989
 20
92.761655000000005
 30
0.0
 11
7.541592999999998
 21
92.761655000000005
 31
0.0
  0
LINE
  5
18B
  8
DETAIL
  6
CONTINUOUS
 62
     5
 10
7.541592999999998
 20
92.761655000000005
 30
0.0
 11
7.041592999999998
 21
92.761655000000005
 31
0.0
  0
LINE
  5
18C
  8
DETAIL
  6
CONTINUOUS
 62
     5
 10
49.041594000000011
 20
123.761656
 30
0.0
 11
49.041594000000011
 21
92.761655000000005
 31
0.0
  0
ARC
  5
18D
  8
DETAIL
  6
CONTINUOUS
 62
     5
 10
44.541592999999992
 20
92.761655000000005
 30
0.0
 40
4.5
 50
270.0
 51
0.0
  0
LINE
  5
18E
  8
DETAIL
  6
CONTINUOUS
 62
     5
 10
-20.958407000000001
 20
130.26165599999999
 30
0.0
 11
-20.958407000000001
 21
115.961656
 31
0.0
  0
LINE
  5
18F
  8
DETAIL
  6
CONTINUOUS
 62
     5
 10
3.0415930000000002
 20
88.261655000000005
 30
0.0
 11
-17.958407000000001
 21
88.261655000000005
 31
0.0
  0
LINE
  5
190
  8
DETAIL
  6
CONTINUOUS
 62
     5
 10
6.395694999999999
 20
89.761655000000005
 30
0.0
 11
-2.4584069999999989
 21
89.761655000000005
 31
0.0
  0
ARC
  5
191
  8
DETAIL
  6
CONTINUOUS
 62
     5
 10
3.0415930000000002
 20
92.761655000000005
 30
0.0
 40
4.5
 50
270.0
 51
318.189685
  0
ARC
  5
192
  8
DETAIL
  6
CONTINUOUS
 62
     5
 10
44.541592999999992
 20
123.761656
 30
0.0
 40
4.5
 50
0.0
 51
90.0
  0
LINE
  5
193
  8
DETAIL
  6
CONTINUOUS
 62
     5
 10
-17.958407000000001
 20
89.761655000000005
 30
0.0
 11
-17.958407000000001
 21
88.261655000000005
 31
0.0
  0
ARC
  5
194
  8
DETAIL
  6
CONTINUOUS
 62
     5
 10
17.541592999999999
 20
92.761655000000005
 30
0.0
 40
4.5
 50
221.81031500000009
 51
270.0
  0
LINE
  5
195
  8
DETAIL
  6
CONTINUOUS
 62
     5
 10
-19.458407000000001
 20
131.26165599999999
 30
0.0
 11
44.541592999999992
 21
131.26165599999999
 31
0.0
  0
LINE
  5
196
  8
DETAIL
  6
CONTINUOUS
 62
     5
 10
-48.249085000000001
 20
93.209171999999995
 30
0.0
 11
-58.523408000000003
 21
37.231113000000001
 31
0.0
  0
LINE
  5
197
  8
DETAIL
  6
CONTINUOUS
 62
     5
 10
-54.890904000000013
 20
94.825427000000005
 30
0.0
 11
-65.098157
 21
39.212790000000012
 31
0.0
  0
ARC
  5
198
  8
DETAIL
  6
CONTINUOUS
 62
     5
 10
-45.326754000000001
 20
35.702261999999997
 30
0.0
 40
20.0
 50
169.59957800000001
 51
202.07270700000001
  0
ARC
  5
199
  8
DETAIL
  6
CONTINUOUS
 62
     5
 10
-48.58770599999999
 20
35.525849000000001
 30
0.0
 40
10.0
 50
169.59957800000001
 51
201.085365
  0
LINE
  5
19A
  8
DETAIL
  6
CONTINUOUS
 62
     5
 10
-63.860908999999999
 20
28.186603999999999
 30
0.0
 11
-63.176819999999992
 21
26.499590999999999
 31
0.0
  0
LINE
  5
19B
  8
NOTE
  6
CONTINUOUS
 62
     4
 10
-32.958407000000001
 20
107.5
 30
0.0
 11
-194.026183
 21
293.5917
 31
0.0
  0
LINE
  5
19C
  8
NOTE
  6
CONTINUOUS
 62
     4
 10
-65.359440000000006
 20
130.95576800000001
 30
0.0
 11
-32.958407000000001
 21
107.5
 31
0.0
  0
LINE
  5
19D
  8
NOTE
  6
CONTINUOUS
 62
     4
 10
-32.958407000000001
 20
107.5
 30
0.0
 11
-49.290641000000001
 21
144.01380800000001
 31
0.0
  0
TEXT
  5
19E
  8
NOTE
  6
CONTINUOUS
 62
     4
 10
-281.29021
 20
313.27357899999998
 30
0.0
 40
64.0
  1
EL
 41
0.9
  0
LINE
  5
19F
  8
NOTE
  6
CONTINUOUS
 62
     4
 10
-194.026183
 20
293.5917
 30
0.0
 11
-285.55796099999998
 21
293.5917
 31
0.0
  0
LINE
  5
1A0
  8
SIZE
  6
CONTINUOUS
 62
    30
 10
277.47680300000002
 20
85.000007999999994
 30
0.0
 11
497.560653
 21
85.000007999999994
 31
0.0
  0
LINE
  5
1A1
  8
SIZE
  6
CONTINUOUS
 62
    30
 10
193.52941200000001
 20
190.00000800000001
 30
0.0
 11
497.560653
 21
190.00000800000001
 31
0.0
  0
LINE
  5
1A2
  8
SIZE
  6
CONTINUOUS
 62
    30
 10
477.560653
 20
97.000007999999994
 30
0.0
 11
477.560653
 21
178.00000800000001
 31
0.0
  0
LINE
  5
1A3
  8
SIZE
  6
CONTINUOUS
 62
    30
 10
477.560653
 20
434.37907199999989
 30
0.0
 11
477.560653
 21
190.00000800000001
 31
0.0
  0
TEXT
  5
1A4
  8
SIZE
  6
CONTINUOUS
 62
    30
 10
452.560653
 20
272.23621442857149
 30
0.0
 40
64.0
  1
105
 50
90.0
 41
0.9
 72
     1
 11
452.560653
 21
340.80764299999998
 31
0.0
  0
CIRCLE
  5
1A5
  8
SIZE
  6
CONTINUOUS
 62
    30
 10
477.560653
 20
85.000007999999994
 30
0.0
 40
6.0
  0
LINE
  5
1A6
  8
SIZE
  6
CONTINUOUS
 62
    30
 10
477.560653
 20
85.000007999999994
 30
0.0
 11
477.560653
 21
97.000007999999994
 31
0.0
  0
CIRCLE
  5
1A7
  8
SIZE
  6
CONTINUOUS
 62
    30
 10
477.560653
 20
190.00000800000001
 30
0.0
 40
6.0
  0
LINE
  5
1A8
  8
SIZE
  6
CONTINUOUS
 62
    30
 10
477.560653
 20
190.00000800000001
 30
0.0
 11
477.560653
 21
178.00000800000001
 31
0.0
  0
POINT
  5
1A9
  8
DEFPOINTS
  6
CONTINUOUS
 62
    30
 10
257.4768029999999
 20
85.000007999999994
 30
0.0
  0
POINT
  5
1AA
  8
DEFPOINTS
  6
CONTINUOUS
 62
    30
 10
173.52941200000001
 20
190.00000800000001
 30
0.0
  0
POINT
  5
1AB
  8
DEFPOINTS
  6
CONTINUOUS
 62
    30
 10
477.560653
 20
190.00000800000001
 30
0.0
  0
LINE
  5
1AC
  8
SIZE
  6
CONTINUOUS
 62
    30
 10
-205.97647799999999
 20
190.00000800000001
 30
0.0
 11
-569.882296
 21
190.00000800000001
 31
0.0
  0
LINE
  5
1AD
  8
SIZE
  6
CONTINUOUS
 62
    30
 10
-205.97647799999999
 20
-190.00001399999999
 30
0.0
 11
-569.882296
 21
-190.00001399999999
 31
0.0
  0
LINE
  5
1AE
  8
SIZE
  6
CONTINUOUS
 62
    30
 10
-549.882296
 20
178.00000800000001
 30
0.0
 11
-549.882296
 21
-178.00001399999999
 31
0.0
  0
TEXT
  5
1AF
  8
SIZE
  6
CONTINUOUS
 62
    30
 10
-579.78783699999985
 20
-74.057145857142842
 30
0.0
 40
64.0
  1
380
 50
90.0
 41
0.9
 72
     1
 11
-579.78783699999985
 21
-0.000003
 31
0.0
  0
CIRCLE
  5
1B0
  8
SIZE
  6
CONTINUOUS
 62
    30
 10
-549.882296
 20
190.00000800000001
 30
0.0
 40
6.0
  0
LINE
  5
1B1
  8
SIZE
  6
CONTINUOUS
 62
    30
 10
-549.882296
 20
190.00000800000001
 30
0.0
 11
-549.882296
 21
178.00000800000001
 31
0.0
  0
CIRCLE
  5
1B2
  8
SIZE
  6
CONTINUOUS
 62
    30
 10
-549.882296
 20
-190.00001399999999
 30
0.0
 40
6.0
  0
LINE
  5
1B3
  8
SIZE
  6
CONTINUOUS
 62
    30
 10
-549.882296
 20
-190.00001399999999
 30
0.0
 11
-549.882296
 21
-178.00001399999999
 31
0.0
  0
POINT
  5
1B4
  8
DEFPOINTS
  6
CONTINUOUS
 62
    30
 10
-185.97647799999999
 20
190.00000800000001
 30
0.0
  0
POINT
  5
1B5
  8
DEFPOINTS
  6
CONTINUOUS
 62
    30
 10
-185.97647799999999
 20
-190.00001399999999
 30
0.0
  0
POINT
  5
1B6
  8
DEFPOINTS
  6
CONTINUOUS
 62
    30
 10
-549.882296
 20
-190.00001399999999
 30
0.0
  0
LINE
  5
1B7
  8
SIZE
  6
CONTINUOUS
 62
    30
 10
-233.52941999999999
 20
150.0
 30
0.0
 11
-446.5444599999999
 21
150.0
 31
0.0
  0
LINE
  5
1B8
  8
SIZE
  6
CONTINUOUS
 62
    30
 10
-233.52941999999999
 20
-150.0
 30
0.0
 11
-446.5444599999999
 21
-150.0
 31
0.0
  0
LINE
  5
1B9
  8
SIZE
  6
CONTINUOUS
 62
    30
 10
-426.5444599999999
 20
138.0
 30
0.0
 11
-426.5444599999999
 21
-138.0
 31
0.0
  0
TEXT
  5
1BA
  8
SIZE
  6
CONTINUOUS
 62
    30
 10
-444.49807099999998
 20
-74.05714285714285
 30
0.0
 40
64.0
  1
300
 50
90.0
 41
0.9
 72
     1
 11
-444.49807099999998
 21
0.0
 31
0.0
  0
CIRCLE
  5
1BB
  8
SIZE
  6
CONTINUOUS
 62
    30
 10
-426.5444599999999
 20
150.0
 30
0.0
 40
6.0
  0
LINE
  5
1BC
  8
SIZE
  6
CONTINUOUS
 62
    30
 10
-426.5444599999999
 20
150.0
 30
0.0
 11
-426.5444599999999
 21
138.0
 31
0.0
  0
CIRCLE
  5
1BD
  8
SIZE
  6
CONTINUOUS
 62
    30
 10
-426.5444599999999
 20
-150.0
 30
0.0
 40
6.0
  0
LINE
  5
1BE
  8
SIZE
  6
CONTINUOUS
 62
    30
 10
-426.5444599999999
 20
-150.0
 30
0.0
 11
-426.5444599999999
 21
-138.0
 31
0.0
  0
POINT
  5
1BF
  8
DEFPOINTS
  6
CONTINUOUS
 62
    30
 10
-213.52941999999999
 20
150.0
 30
0.0
  0
POINT
  5
1C0
  8
DEFPOINTS
  6
CONTINUOUS
 62
    30
 10
-213.52941999999999
 20
-150.0
 30
0.0
  0
POINT
  5
1C1
  8
DEFPOINTS
  6
CONTINUOUS
 62
    30
 10
-426.5444599999999
 20
-150.0
 30
0.0
  0
LINE
  5
1C2
  8
SIZE
  6
CONTINUOUS
 62
    30
 10
-193.52941200000001
 20
190.00000800000001
 30
0.0
 11
-341.29617300000001
 21
190.00000800000001
 31
0.0
  0
LINE
  5
1C3
  8
SIZE
  6
CONTINUOUS
 62
    30
 10
-145.798721
 20
-27.499991999999999
 30
0.0
 11
-341.29617300000001
 21
-27.499991999999999
 31
0.0
  0
LINE
  5
1C4
  8
SIZE
  6
CONTINUOUS
 62
    30
 10
-321.29617300000001
 20
178.00000800000001
 30
0.0
 11
-321.29617300000001
 21
-15.499992000000001
 31
0.0
  0
LINE
  5
1C5
  8
SIZE
  6
CONTINUOUS
 62
    30
 10
-321.29617300000001
 20
482.01469200000003
 30
0.0
 11
-321.29617300000001
 21
190.00000800000001
 31
0.0
  0
TEXT
  5
1C6
  8
SIZE
  6
CONTINUOUS
 62
    30
 10
-346.29617300000001
 20
237.58612028571429
 30
0.0
 40
64.0
  1
217.5
 50
90.0
 41
0.9
 72
     1
 11
-346.29617300000001
 21
347.30040600000001
 31
0.0
  0
CIRCLE
  5
1C7
  8
SIZE
  6
CONTINUOUS
 62
    30
 10
-321.29617300000001
 20
190.00000800000001
 30
0.0
 40
6.0
  0
LINE
  5
1C8
  8
SIZE
  6
CONTINUOUS
 62
    30
 10
-321.29617300000001
 20
190.00000800000001
 30
0.0
 11
-321.29617300000001
 21
178.00000800000001
 31
0.0
  0
CIRCLE
  5
1C9
  8
SIZE
  6
CONTINUOUS
 62
    30
 10
-321.29617300000001
 20
-27.499991999999999
 30
0.0
 40
6.0
  0
LINE
  5
1CA
  8
SIZE
  6
CONTINUOUS
 62
    30
 10
-321.29617300000001
 20
-27.499991999999999
 30
0.0
 11
-321.29617300000001
 21
-15.499992000000001
 31
0.0
  0
POINT
  5
1CB
  8
DEFPOINTS
  6
CONTINUOUS
 62
    30
 10
-173.52941200000001
 20
190.00000800000001
 30
0.0
  0
POINT
  5
1CC
  8
DEFPOINTS
  6
CONTINUOUS
 62
    30
 10
-125.798721
 20
-27.499991999999999
 30
0.0
  0
POINT
  5
1CD
  8
DEFPOINTS
  6
CONTINUOUS
 62
    30
 10
-321.29617300000001
 20
-27.499991999999999
 30
0.0
  0
LINE
  5
1CE
  8
SIZE
  6
CONTINUOUS
 62
    30
 10
18.000014
 20
54.100007999999988
 30
0.0
 11
498.00344100000001
 21
54.100007999999988
 31
0.0
  0
LINE
  5
1CF
  8
SIZE
  6
CONTINUOUS
 62
    30
 10
18.000014
 20
-109.099992
 30
0.0
 11
498.00344100000001
 21
-109.099992
 31
0.0
  0
LINE
  5
1D0
  8
SIZE
  6
CONTINUOUS
 62
    30
 10
478.0034409999999
 20
42.100008000000003
 30
0.0
 11
478.0034409999999
 21
-97.099992
 31
0.0
  0
LINE
  5
1D1
  8
SIZE
  6
CONTINUOUS
 62
    30
 10
478.0034409999999
 20
-481.085892
 30
0.0
 11
478.0034409999999
 21
-109.099992
 31
0.0
  0
TEXT
  5
1D2
  8
SIZE
  6
CONTINUOUS
 62
    30
 10
453.0034409999999
 20
-467.60589171428569
 30
0.0
 40
64.0
  1
φ163.2
 50
90.0
 41
0.9
 72
     1
 11
453.0034409999999
 21
-317.57160599999997
 31
0.0
  0
CIRCLE
  5
1D3
  8
SIZE
  6
CONTINUOUS
 62
    30
 10
478.0034409999999
 20
54.100007999999988
 30
0.0
 40
6.0
  0
LINE
  5
1D4
  8
SIZE
  6
CONTINUOUS
 62
    30
 10
478.0034409999999
 20
54.100007999999988
 30
0.0
 11
478.0034409999999
 21
42.100008000000003
 31
0.0
  0
CIRCLE
  5
1D5
  8
SIZE
  6
CONTINUOUS
 62
    30
 10
478.0034409999999
 20
-109.099992
 30
0.0
 40
6.0
  0
LINE
  5
1D6
  8
SIZE
  6
CONTINUOUS
 62
    30
 10
478.0034409999999
 20
-109.099992
 30
0.0
 11
478.0034409999999
 21
-97.099992
 31
0.0
  0
POINT
  5
1D7
  8
DEFPOINTS
  6
CONTINUOUS
 62
    30
 10
-1.9999859999999989
 20
54.100007999999988
 30
0.0
  0
POINT
  5
1D8
  8
DEFPOINTS
  6
CONTINUOUS
 62
    30
 10
-1.9999859999999989
 20
-109.099992
 30
0.0
  0
POINT
  5
1D9
  8
DEFPOINTS
  6
CONTINUOUS
 62
    30
 10
478.0034409999999
 20
-109.099992
 30
0.0
  0
TEXT
  5
1DA
  8
NOTE
  6
CONTINUOUS
 62
     4
 10
233.53786199999999
 20
107.43595999999999
 30
0.0
 40
64.0
  1
出口
 41
0.9
  0
LINE
  5
1DB
  8
DETAIL
  6
CONTINUOUS
 62
     5
 10
-187.764714
 20
112.561655
 30
0.0
 11
-187.764714
 21
183.741184
 31
0.0
  0
LINE
  5
1DC
  8
DETAIL
  6
CONTINUOUS
 62
     5
 10
-190.00000800000001
 20
112.561655
 30
0.0
 11
-190.00000800000001
 21
183.741184
 31
0.0
  0
LINE
  5
1DD
  8
DETAIL
  6
CONTINUOUS
 62
     5
 10
190.00001399999999
 20
225.00000800000001
 30
0.0
 11
192.53334799999999
 21
225.00000800000001
 31
0.0
  0
LINE
  5
1DE
  8
DETAIL
  6
CONTINUOUS
 62
     5
 10
190.00001399999999
 20
-54.999992000000013
 30
0.0
 11
192.53334799999999
 21
-54.999992000000013
 31
0.0
  0
LINE
  5
1DF
  8
SIZE
  6
CONTINUOUS
 62
    30
 10
212.53334799999999
 20
225.00000800000001
 30
0.0
 11
641.3487889999999
 21
225.00000800000001
 31
0.0
  0
LINE
  5
1E0
  8
SIZE
  6
CONTINUOUS
 62
    30
 10
212.53334799999999
 20
-54.999992000000013
 30
0.0
 11
641.3487889999999
 21
-54.999992000000013
 31
0.0
  0
LINE
  5
1E1
  8
SIZE
  6
CONTINUOUS
 62
    30
 10
621.34878900000001
 20
213.00000800000001
 30
0.0
 11
621.34878900000001
 21
-42.999991999999999
 31
0.0
  0
CIRCLE
  5
1E2
  8
SIZE
  6
CONTINUOUS
 62
    30
 10
621.34878900000001
 20
225.00000800000001
 30
0.0
 40
6.0
  0
LINE
  5
1E3
  8
SIZE
  6
CONTINUOUS
 62
    30
 10
621.34878900000001
 20
225.00000800000001
 30
0.0
 11
621.34878900000001
 21
213.00000800000001
 31
0.0
  0
CIRCLE
  5
1E4
  8
SIZE
  6
CONTINUOUS
 62
    30
 10
621.34878900000001
 20
-54.999992000000013
 30
0.0
 40
6.0
  0
LINE
  5
1E5
  8
SIZE
  6
CONTINUOUS
 62
    30
 10
621.34878900000001
 20
-54.999992000000013
 30
0.0
 11
621.34878900000001
 21
-42.999991999999999
 31
0.0
  0
TEXT
  5
1E6
  8
SIZE
  6
CONTINUOUS
 62
    30
 10
596.34878900000001
 20
-29.377134857142892
 30
0.0
 40
64.0
  1
φ280
 50
90.0
 41
0.9
 72
     1
 11
596.34878900000001
 21
85.000007999999994
 31
0.0
  0
POINT
  5
1E7
  8
DEFPOINTS
  6
CONTINUOUS
 62
    30
 10
192.53334799999999
 20
225.00000800000001
 30
0.0
  0
POINT
  5
1E8
  8
DEFPOINTS
  6
CONTINUOUS
 62
    30
 10
192.53334799999999
 20
-54.999992000000013
 30
0.0
  0
POINT
  5
1E9
  8
DEFPOINTS
  6
CONTINUOUS
 62
    30
 10
621.34878900000001
 20
-54.999992000000013
 30
0.0
  0
TEXT
  5
1F1
  8
ETC
  6
CONTINUOUS
 62
    61
 10
614.23496586837769
 20
553.71292702104165
 30
0.0
 40
64.0
  1
産業扇
 41
0.9
  0
TEXT
  5
1F2
  8
ETC
  6
CONTINUOUS
 62
    61
 10
609.40269786837769
 20
665.05755702104182
 30
0.0
 40
64.0
  1
BF-23S3_5
 41
0.9
  0
TEXT
  5
1F3
  8
ETC
  6
CONTINUOUS
 62
    61
 10
698.09890797592595
 20
443.85912579468288
 30
0.0
 40
64.0
  1
BF-23S3
 41
0.9
  0
ENDSEC
  0
EOF
