  0
SECTION
  2
HEADER
  9
$ACADVER
  1
AC1009
  9
$DWGCODEPAGE
  3
dos932
  9
$INSBASE
 10
0.0
 20
0.0
 30
0.0
  9
$EXTMIN
 10
-638.08592095515633
 20
-745.33079919094598
 30
-0.0015258207003583
  9
$EXTMAX
 10
1148.826610831107
 20
628.69263501918431
 30
0.0000000349246037
  9
$LIMMIN
 10
-2970.0
 20
-2100.0
  9
$LIMMAX
 10
2970.0
 20
2100.0
  9
$ORTHOMODE
 70
     1
  9
$REGENMODE
 70
     1
  9
$FILLMODE
 70
     1
  9
$QTEXTMODE
 70
     0
  9
$MIRRTEXT
 70
     0
  9
$LTSCALE
 40
20.0
  9
$ATTMODE
 70
     1
  9
$TEXTSIZE
 40
64.0
  9
$TRACEWID
 40
0.05
  9
$TEXTSTYLE
  7
STANDARD
  9
$CLAYER
  8
SIZE
  9
$CELTYPE
  6
CONTINUOUS
  9
$CECOLOR
 62
     7
  9
$DIMSCALE
 40
1.0
  9
$DIMASZ
 40
12.0
  9
$DIMEXO
 40
20.0
  9
$DIMDLI
 40
200.0
  9
$DIMRND
 40
0.0
  9
$DIMDLE
 40
0.0
  9
$DIMEXE
 40
20.0
  9
$DIMTP
 40
0.0
  9
$DIMTM
 40
0.0
  9
$DIMTXT
 40
64.0
  9
$DIMCEN
 40
0.09
  9
$DIMTSZ
 40
0.0
  9
$DIMTOL
 70
     0
  9
$DIMLIM
 70
     0
  9
$DIMTIH
 70
     0
  9
$DIMTOH
 70
     0
  9
$DIMSE1
 70
     0
  9
$DIMSE2
 70
     0
  9
$DIMTAD
 70
     1
  9
$DIMZIN
 70
     8
  9
$DIMBLK
  1

  9
$DIMASO
 70
     1
  9
$DIMSHO
 70
     0
  9
$DIMPOST
  1

  9
$DIMAPOST
  1

  9
$DIMALT
 70
     0
  9
$DIMALTD
 70
     2
  9
$DIMALTF
 40
25.399999999999999
  9
$DIMLFAC
 40
1.0
  9
$DIMTOFL
 70
     1
  9
$DIMTVP
 40
0.0
  9
$DIMTIX
 70
     1
  9
$DIMSOXD
 70
     0
  9
$DIMSAH
 70
     0
  9
$DIMBLK1
  1

  9
$DIMBLK2
  1

  9
$DIMSTYLE
  2
STANDARD
  9
$DIMCLRD
 70
     7
  9
$DIMCLRE
 70
     7
  9
$DIMCLRT
 70
     7
  9
$DIMTFAC
 40
1.0
  9
$DIMGAP
 40
25.0
  9
$LUNITS
 70
     2
  9
$LUPREC
 70
     4
  9
$SKETCHINC
 40
0.1
  9
$FILLETRAD
 40
3.0
  9
$AUNITS
 70
     1
  9
$AUPREC
 70
     3
  9
$MENU
  1
ACAD
  9
$ELEVATION
 40
0.0
  9
$PELEVATION
 40
0.0
  9
$THICKNESS
 40
0.0
  9
$LIMCHECK
 70
     0
  9
$CHAMFERA
 40
0.0
  9
$CHAMFERB
 40
0.0
  9
$SKPOLY
 70
     0
  9
$TDCREATE
 40
2453019.62301037
  9
$TDUPDATE
 40
2459025.610547118
  9
$TDINDWG
 40
1.7129557986
  9
$TDUSRTIMER
 40
1.7129557986
  9
$USRTIMER
 70
     1
  9
$ANGBASE
 50
0.0
  9
$ANGDIR
 70
     0
  9
$PDMODE
 70
     3
  9
$PDSIZE
 40
-2.0
  9
$PLINEWID
 40
0.0
  9
$SPLFRAME
 70
     0
  9
$SPLINETYPE
 70
     6
  9
$SPLINESEGS
 70
     8
  9
$SURFTAB1
 70
     6
  9
$SURFTAB2
 70
     6
  9
$SURFTYPE
 70
     6
  9
$SURFU
 70
     6
  9
$SURFV
 70
     6
  9
$UCSNAME
  2

  9
$UCSORG
 10
0.0
 20
0.0
 30
0.0
  9
$UCSXDIR
 10
1.0
 20
0.0
 30
0.0
  9
$UCSYDIR
 10
0.0
 20
1.0
 30
0.0
  9
$PUCSNAME
  2

  9
$PUCSORG
 10
0.0
 20
0.0
 30
0.0
  9
$PUCSXDIR
 10
1.0
 20
0.0
 30
0.0
  9
$PUCSYDIR
 10
0.0
 20
1.0
 30
0.0
  9
$USERI1
 70
     0
  9
$USERI2
 70
     0
  9
$USERI3
 70
     0
  9
$USERI4
 70
     0
  9
$USERI5
 70
     0
  9
$USERR1
 40
20.0
  9
$USERR2
 40
0.0
  9
$USERR3
 40
0.0
  9
$USERR4
 40
0.0
  9
$USERR5
 40
0.0
  9
$WORLDVIEW
 70
     1
  9
$SHADEDGE
 70
     3
  9
$SHADEDIF
 70
    70
  9
$TILEMODE
 70
     1
  9
$MAXACTVP
 70
    48
  9
$PINSBASE
 10
0.0
 20
0.0
 30
0.0
  9
$PLIMCHECK
 70
     0
  9
$PEXTMIN
 10
-100000000000000000000.0
 20
-100000000000000000000.0
 30
-100000000000000000000.0
  9
$PEXTMAX
 10
100000000000000000000.0
 20
100000000000000000000.0
 30
100000000000000000000.0
  9
$PLIMMIN
 10
0.0
 20
0.0
  9
$PLIMMAX
 10
12.0
 20
9.0
  9
$UNITMODE
 70
     0
  9
$VISRETAIN
 70
     0
  9
$PLINEGEN
 70
     0
  9
$PSLTSCALE
 70
     0
  9
$TREEDEPTH
 70
  3020
  9
$ATTDIA
 70
     0
  9
$ATTREQ
 70
     1
  9
$BLIPMODE
 70
     1
  9
$COORDS
 70
     1
  9
$DRAGMODE
 70
     2
  9
$OSMODE
 70
     0
  9
$HANDLING
 70
     0
  9
$HANDSEED
  5
ED4A
  0
ENDSEC
  0
SECTION
  2
TABLES
  0
TABLE
  2
LTYPE
 70
     3
  0
LTYPE
  2
CONTINUOUS
 70
     0
  3
実線
 72
    65
 73
     0
 40
0.0
  0
LTYPE
  2
DASHDOT
 70
     0
  3
____ _ ____ _ ____ _ ____ _ ____ _ ____ _ ____
 72
    65
 73
     4
 40
5.5
 49
4.0
 49
-0.6
 49
0.3
 49
-0.6
  0
LTYPE
  2
DASHED
 70
     0
  3
-- -- -- -- -- -- -- -- -- -- -- -- -- -- --
 72
    65
 73
     2
 40
0.75
 49
0.5
 49
-0.25
  0
ENDTAB
  0
TABLE
  2
LAYER
 70
    12
  0
LAYER
  2
0
 70
     0
 62
     7
  6
CONTINUOUS
  0
LAYER
  2
BASIS
 70
     0
 62
     6
  6
DASHDOT
  0
LAYER
  2
OUTLINE
 70
     0
 62
     3
  6
CONTINUOUS
  0
LAYER
  2
DETAIL
 70
     0
 62
     5
  6
CONTINUOUS
  0
LAYER
  2
SIZE
 70
     0
 62
    30
  6
CONTINUOUS
  0
LAYER
  2
ARRANGE
 70
     0
 62
     1
  6
CONTINUOUS
  0
LAYER
  2
DEFPOINTS
 70
     0
 62
     7
  6
CONTINUOUS
  0
LAYER
  2
ETC
 70
     0
 62
    61
  6
CONTINUOUS
  0
LAYER
  2
FIX
 70
     0
 62
    11
  6
CONTINUOUS
  0
LAYER
  2
NOTE
 70
     0
 62
     4
  6
CONTINUOUS
  0
LAYER
  2
SERVICESPACE
 70
    64
 62
     2
  6
DASHDOT
  0
LAYER
  2
SYMBOLLINE
 70
    64
 62
    15
  6
CONTINUOUS
  0
ENDTAB
  0
TABLE
  2
STYLE
 70
     1
  0
STYLE
  2
STANDARD
 70
     0
 40
64.0
 41
0.9
 50
0.0
 71
     0
 42
64.0
  3
SIMPLEX.shx
  4
BIGFONT.shx
  0
ENDTAB
  0
TABLE
  2
APPID
 70
    19
  0
APPID
  2
ACAD
 70
     0
  0
APPID
  2
AUTOCAD_POSTSCRIPT_FIGURE
 70
     0
  0
APPID
  2
ACAD_EXEMPT_FROM_CAD_STANDARDS
 70
     0
  0
APPID
  2
ACAD_PSEXT
 70
     0
  0
APPID
  2
ACAUTHENVIRON
 70
     0
  0
APPID
  2
GENIUS_GENOENT_13
 70
     0
  0
APPID
  2
GENIUS_GENCFG_13
 70
     0
  0
APPID
  2
GENIUS_GENCFG0_13
 70
     0
  0
APPID
  2
GENIUS_GENCFG1_13
 70
     0
  0
APPID
  2
GENIUS_GENCFG2_13
 70
     0
  0
APPID
  2
GENIUS_GENCFG3_13
 70
     0
  0
APPID
  2
GENIUS_GENCFG4_13
 70
     0
  0
APPID
  2
GENIUS_GEVCFG0_13
 70
     0
  0
APPID
  2
CONTENTBLOCKICON
 70
     0
  0
APPID
  2
CONTENTBLOCKDESCRIPTION
 70
     0
  0
APPID
  2
ACAD_NAV_VCDISPLAY
 70
     0
  0
APPID
  2
ACAD_MLEADERVER
 70
     0
  0
APPID
  2
ACDBDYNAMICBLOCKTRUENAME
 70
     0
  0
APPID
  2
ACDBDYNAMICBLOCKGUID
 70
     0
  0
ENDTAB
  0
TABLE
  2
DIMSTYLE
 70
     1
  0
DIMSTYLE
  2
STANDARD
 70
     0
  3

  4

  5
_ORIGIN
  6

  7

 40
1.0
 41
12.0
 42
20.0
 43
200.0
 44
20.0
 45
0.0
 46
0.0
 47
0.0
 48
0.0
140
64.0
141
0.09
142
0.0
143
25.399999999999999
144
1.0
145
0.0
146
1.0
147
25.0
 71
     0
 72
     0
 73
     0
 74
     0
 75
     0
 76
     0
 77
     1
 78
     8
170
     0
171
     2
172
     1
173
     0
174
     1
175
     0
176
     7
177
     7
178
     7
  0
ENDTAB
  0
TABLE
  2
VIEW
 70
     1
  0
VIEW
  2
ALL
 70
     0
 40
4282.6198079999986
 10
0.0
 20
41.309904000000003
 41
5940.0
 11
0.0
 21
0.0
 31
1.0
 12
0.0
 22
0.0
 32
0.0
 42
50.0
 43
0.0
 44
0.0
 50
0.0
 71
     0
  0
ENDTAB
  0
TABLE
  2
UCS
 70
     0
  0
ENDTAB
  0
TABLE
  2
VPORT
 70
     1
  0
VPORT
  2
*ACTIVE
 70
     0
 10
0.0
 20
0.0
 11
1.0
 21
1.0
 12
255.37034493797529
 22
-58.319082085880837
 13
0.0
 23
0.0
 14
1.0
 24
1.0
 15
0.0
 25
0.0
 16
0.0
 26
0.0
 36
1.0
 17
0.0
 27
0.0
 37
0.0
 40
1383.132981840253
 41
1.747787610619469
 42
50.0
 43
0.0
 44
0.0
 50
0.0
 51
0.0
 71
     0
 72
  1000
 73
     1
 74
     3
 75
     0
 76
     0
 77
     0
 78
     0
  0
ENDTAB
  0
ENDSEC
  0
SECTION
  2
BLOCKS
  0
BLOCK
  8
0
  2
_ORIGIN
 70
     0
 10
0.0
 20
0.0
 30
0.0
  3
_ORIGIN
  1
_ORIGIN
  0
CIRCLE
  8
0
  6
CONTINUOUS
 62
     7
 10
0.0
 20
0.0
 30
0.0
 40
0.5
  0
LINE
  8
0
  6
CONTINUOUS
 62
     7
 10
0.0
 20
0.0
 30
0.0
 11
-1.0
 21
0.0
 31
0.0
  0
ENDBLK
  8
0
  0
ENDSEC
  0
SECTION
  2
ENTITIES
  0
TEXT
  8
NOTE
  6
CONTINUOUS
 62
     4
 10
297.28127799999987
 20
-278.95553500000011
 30
0.0
 40
64.0
  1
AH 12-φ20×12
 41
0.9
  0
LINE
  8
NOTE
  6
CONTINUOUS
 62
     4
 10
954.86766699999998
 20
-314.03106300000002
 30
0.0
 11
280.31476900000013
 21
-314.03106300000002
 31
0.0
  0
LINE
  8
NOTE
  6
CONTINUOUS
 62
     4
 10
148.00001400000019
 20
-162.50002199999989
 30
0.0
 11
280.31476900000013
 21
-314.03106300000002
 31
0.0
  0
LINE
  8
NOTE
  6
CONTINUOUS
 62
     4
 10
181.15336000000019
 20
-184.87982700000001
 30
0.0
 11
148.00001400000019
 21
-162.50002199999989
 31
0.0
  0
LINE
  8
NOTE
  6
CONTINUOUS
 62
     4
 10
148.00001400000019
 20
-162.50002199999989
 30
0.0
 11
165.52175100000019
 21
-198.45817500000001
 31
0.0
  0
LINE
  8
BASIS
  6
DASHDOT
 62
     6
 10
241.85232771370281
 20
0.0
 30
0.0
 11
-237.4412910879719
 21
0.0
 31
0.0
  0
LINE
  8
DETAIL
  6
CONTINUOUS
 62
     5
 10
-192.0
 20
211.241174
 30
0.0
 11
-192.0
 21
252.5
 31
0.0
  0
LINE
  8
DETAIL
  6
CONTINUOUS
 62
     5
 10
-192.0
 20
-63.090283999999997
 30
0.0
 11
-192.0
 21
211.241176
 31
0.0
  0
LINE
  8
DETAIL
  6
CONTINUOUS
 62
     5
 10
170.1176679999999
 20
213.02941200000001
 30
0.0
 11
183.97649199999981
 21
213.02941200000001
 31
0.0
  0
ARC
  8
DETAIL
  6
CONTINUOUS
 62
     5
 10
183.97649199999981
 20
211.241176
 30
0.0
 40
1.7882349999999989
 50
0.0
 51
90.0
  0
ARC
  8
DETAIL
  6
CONTINUOUS
 62
     5
 10
183.97649199999981
 20
211.241176
 30
0.0
 40
4.0235300000000001
 50
0.0
 51
90.0
  0
LINE
  8
DETAIL
  6
CONTINUOUS
 62
     5
 10
183.97649199999981
 20
215.2647059999999
 30
0.0
 11
183.97649199999981
 21
217.5
 31
0.0
  0
LINE
  8
DETAIL
  6
CONTINUOUS
 62
     5
 10
188.0000220000002
 20
-156.24119799999991
 30
0.0
 11
188.0000220000002
 21
211.241176
 31
0.0
  0
LINE
  8
DETAIL
  6
CONTINUOUS
 62
     5
 10
185.7647280000001
 20
-156.24119799999991
 30
0.0
 11
185.7647280000001
 21
211.241176
 31
0.0
  0
LINE
  8
DETAIL
  6
CONTINUOUS
 62
     5
 10
183.97649199999981
 20
-160.26472799999999
 30
0.0
 11
183.97649199999981
 21
-162.50002199999989
 31
0.0
  0
LINE
  8
DETAIL
  6
CONTINUOUS
 62
     5
 10
170.1176679999999
 20
-158.02943400000001
 30
0.0
 11
183.97649199999981
 21
-158.02943400000001
 31
0.0
  0
ARC
  8
DETAIL
  6
CONTINUOUS
 62
     5
 10
183.97649199999981
 20
-156.24119799999991
 30
0.0
 40
1.7882349999999989
 50
270.0
 51
0.0
  0
ARC
  8
DETAIL
  6
CONTINUOUS
 62
     5
 10
183.97649199999981
 20
-156.24119799999991
 30
0.0
 40
4.0235300000000001
 50
270.0
 51
0.0
  0
LINE
  8
DETAIL
  6
CONTINUOUS
 62
     5
 10
183.97649199999981
 20
-162.50002199999989
 30
0.0
 11
-1.99999200000002
 21
-162.50002199999989
 31
0.0
  0
LINE
  8
DETAIL
  6
CONTINUOUS
 62
     5
 10
183.97649199999981
 20
-160.26472799999999
 30
0.0
 11
-1.99999200000002
 21
-160.26472799999999
 31
0.0
  0
LINE
  8
DETAIL
  6
CONTINUOUS
 62
     5
 10
-192.0
 20
-156.24119799999991
 30
0.0
 11
-192.0
 21
-64.920344
 31
0.0
  0
LINE
  8
DETAIL
  6
CONTINUOUS
 62
     5
 10
-189.7647059999999
 20
-156.24119799999991
 30
0.0
 11
-189.7647059999999
 21
-65.073750000000018
 31
0.0
  0
LINE
  8
DETAIL
  6
CONTINUOUS
 62
     5
 10
-174.11764600000009
 20
-158.02943400000001
 30
0.0
 11
-187.97647099999989
 21
-158.02943400000001
 31
0.0
  0
LINE
  8
DETAIL
  6
CONTINUOUS
 62
     5
 10
-187.97647099999989
 20
-160.26472799999999
 30
0.0
 11
-187.97647099999989
 21
-162.50002199999989
 31
0.0
  0
ARC
  8
DETAIL
  6
CONTINUOUS
 62
     5
 10
-187.97647099999989
 20
-156.24119799999991
 30
0.0
 40
4.0235300000000001
 50
180.0
 51
270.0
  0
ARC
  8
DETAIL
  6
CONTINUOUS
 62
     5
 10
-187.97647099999989
 20
-156.24119799999991
 30
0.0
 40
1.7882349999999989
 50
180.0
 51
270.0
  0
LINE
  8
DETAIL
  6
CONTINUOUS
 62
     5
 10
-174.11764600000009
 20
213.02941200000001
 30
0.0
 11
-187.97647099999989
 21
213.02941200000001
 31
0.0
  0
LINE
  8
DETAIL
  6
CONTINUOUS
 62
     5
 10
-187.97647099999989
 20
217.5
 30
0.0
 11
183.97649199999981
 21
217.5
 31
0.0
  0
LINE
  8
DETAIL
  6
CONTINUOUS
 62
     5
 10
-187.97647099999989
 20
215.2647059999999
 30
0.0
 11
183.97649199999981
 21
215.2647059999999
 31
0.0
  0
LINE
  8
DETAIL
  6
CONTINUOUS
 62
     5
 10
-187.97647099999989
 20
215.2647059999999
 30
0.0
 11
-187.97647099999989
 21
217.5
 31
0.0
  0
ARC
  8
DETAIL
  6
CONTINUOUS
 62
     5
 10
-187.97647099999989
 20
211.241176
 30
0.0
 40
4.0235300000000001
 50
90.0
 51
180.0
  0
ARC
  8
DETAIL
  6
CONTINUOUS
 62
     5
 10
-187.97647099999989
 20
211.241176
 30
0.0
 40
1.7882349999999989
 50
90.0
 51
180.0
  0
LINE
  8
DETAIL
  6
CONTINUOUS
 62
     5
 10
-189.7647059999999
 20
-65.073750000000018
 30
0.0
 11
-189.7647059999999
 21
211.241176
 31
0.0
  0
LINE
  8
DETAIL
  6
CONTINUOUS
 62
     5
 10
-192.0
 20
-64.920344
 30
0.0
 11
-192.0
 21
211.241176
 31
0.0
  0
LINE
  8
DETAIL
  6
CONTINUOUS
 62
     5
 10
170.1176679999999
 20
215.2647059999999
 30
0.0
 11
170.1176679999999
 21
213.02941200000001
 31
0.0
  0
LINE
  8
DETAIL
  6
CONTINUOUS
 62
     5
 10
-174.11764600000009
 20
215.2647059999999
 30
0.0
 11
-174.11764600000009
 21
213.02941200000001
 31
0.0
  0
LINE
  8
DETAIL
  6
CONTINUOUS
 62
     5
 10
-174.11764600000009
 20
-160.26472799999999
 30
0.0
 11
-174.11764600000009
 21
-158.02943400000001
 31
0.0
  0
LINE
  8
DETAIL
  6
CONTINUOUS
 62
     5
 10
170.1176679999999
 20
-160.26472799999999
 30
0.0
 11
170.1176679999999
 21
-158.02943400000001
 31
0.0
  0
LINE
  8
BASIS
  6
DASHDOT
 62
     6
 10
-259.47678899999983
 20
112.5
 30
0.0
 11
-167.5998690000001
 21
112.5
 31
0.0
  0
LINE
  8
BASIS
  6
DASHDOT
 62
     6
 10
0.0
 20
-187.46345061688439
 30
0.0
 11
0.0
 21
263.37729984161069
 31
0.0
  0
LINE
  8
DETAIL
  6
CONTINUOUS
 62
     5
 10
-1.99999200000002
 20
-162.50002199999989
 30
0.0
 11
-187.97647099999989
 21
-162.50002199999989
 31
0.0
  0
LINE
  8
DETAIL
  6
CONTINUOUS
 62
     5
 10
-1.99999200000002
 20
-160.26472799999999
 30
0.0
 11
-187.97647099999989
 21
-160.26472799999999
 31
0.0
  0
LINE
  8
OUTLINE
  6
CONTINUOUS
 62
     3
 10
-187.97647099999989
 20
215.2647059999999
 30
0.0
 11
-187.97647099999989
 21
217.5
 31
0.0
  0
LINE
  8
OUTLINE
  6
CONTINUOUS
 62
     3
 10
-187.97647099999989
 20
-160.26472799999999
 30
0.0
 11
-187.97647099999989
 21
-162.50002199999989
 31
0.0
  0
ARC
  8
OUTLINE
  6
CONTINUOUS
 62
     3
 10
-187.97647099999989
 20
-156.24119799999991
 30
0.0
 40
4.0235300000000001
 50
180.0
 51
270.0
  0
LINE
  8
OUTLINE
  6
CONTINUOUS
 62
     3
 10
183.97649199999981
 20
-160.26472799999999
 30
0.0
 11
183.97649199999981
 21
-162.50002199999989
 31
0.0
  0
LINE
  8
OUTLINE
  6
CONTINUOUS
 62
     3
 10
183.97649199999981
 20
215.2647059999999
 30
0.0
 11
183.97649199999981
 21
217.5
 31
0.0
  0
ARC
  8
OUTLINE
  6
CONTINUOUS
 62
     3
 10
183.97649199999981
 20
211.241176
 30
0.0
 40
4.0235300000000001
 50
0.0
 51
90.0
  0
LINE
  8
OUTLINE
  6
CONTINUOUS
 62
     3
 10
188.0000220000002
 20
-156.24119799999991
 30
0.0
 11
188.0000220000002
 21
211.241176
 31
0.0
  0
ARC
  8
OUTLINE
  6
CONTINUOUS
 62
     3
 10
183.97649199999981
 20
-156.24119799999991
 30
0.0
 40
4.0235300000000001
 50
270.0
 51
0.0
  0
LINE
  8
OUTLINE
  6
CONTINUOUS
 62
     3
 10
183.97649199999981
 20
-162.50002199999989
 30
0.0
 11
-187.97647099999989
 21
-162.50002199999989
 31
0.0
  0
LINE
  8
OUTLINE
  6
CONTINUOUS
 62
     3
 10
-192.0
 20
-156.24119799999991
 30
0.0
 11
-192.0
 21
-27.5
 31
0.0
  0
ARC
  8
OUTLINE
  6
CONTINUOUS
 62
     3
 10
-187.97647099999989
 20
211.241176
 30
0.0
 40
4.0235300000000001
 50
90.0
 51
180.0
  0
LINE
  8
OUTLINE
  6
CONTINUOUS
 62
     3
 10
-192.0
 20
211.241176
 30
0.0
 11
-192.0
 21
252.5
 31
0.0
  0
LINE
  8
OUTLINE
  6
CONTINUOUS
 62
     3
 10
-187.97647099999989
 20
217.5
 30
0.0
 11
183.97649199999981
 21
217.5
 31
0.0
  0
LINE
  8
DETAIL
  6
CONTINUOUS
 62
     5
 10
-192.8000339999999
 20
188.6782519999999
 30
0.0
 11
-192.8000339999999
 21
252.5
 31
0.0
  0
LINE
  8
DETAIL
  6
CONTINUOUS
 62
     5
 10
-192.8000339999999
 20
-27.5
 30
0.0
 11
-192.8000339999999
 21
188.6782519999999
 31
0.0
  0
LINE
  8
BASIS
  6
DASHDOT
 62
     6
 10
0.5
 20
171.379109
 30
0.0
 11
0.5
 21
-187.6249521823199
 31
0.0
  0
LINE
  8
BASIS
  6
DASHDOT
 62
     6
 10
-162.66704699999991
 20
3.0
 30
0.0
 11
239.91742455172471
 21
3.0
 31
0.0
  0
LINE
  8
SIZE
  6
CONTINUOUS
 62
    30
 10
-192.0
 20
-176.24119799999991
 30
0.0
 11
-192.0
 21
-351.67087099999998
 31
0.0
  0
LINE
  8
SIZE
  6
CONTINUOUS
 62
    30
 10
0.0
 20
-207.46345061688439
 30
0.0
 11
0.0
 21
-351.67087099999998
 31
0.0
  0
LINE
  8
SIZE
  6
CONTINUOUS
 62
    30
 10
-180.0
 20
-331.67087099999998
 30
0.0
 11
-12.0
 21
-331.67087099999998
 31
0.0
  0
LINE
  8
SIZE
  6
CONTINUOUS
 62
    30
 10
-402.36246000000028
 20
-331.67087099999998
 30
0.0
 11
-192.0
 21
-331.67087099999998
 31
0.0
  0
TEXT
  8
SIZE
  6
CONTINUOUS
 62
    30
 10
-377.3624595714283
 20
-306.67087099999998
 30
0.0
 40
64.0
  1
192
 41
0.9
 72
     1
 11
-308.79103099999969
 21
-306.67087099999998
 31
0.0
  0
CIRCLE
  8
SIZE
  6
CONTINUOUS
 62
    30
 10
-192.0
 20
-331.67087099999998
 30
0.0
 40
6.0
  0
LINE
  8
SIZE
  6
CONTINUOUS
 62
    30
 10
-192.0
 20
-331.67087099999998
 30
0.0
 11
-180.0
 21
-331.67087099999998
 31
0.0
  0
CIRCLE
  8
SIZE
  6
CONTINUOUS
 62
    30
 10
0.0
 20
-331.67087099999998
 30
0.0
 40
6.0
  0
LINE
  8
SIZE
  6
CONTINUOUS
 62
    30
 10
0.0
 20
-331.67087099999998
 30
0.0
 11
-12.0
 21
-331.67087099999998
 31
0.0
  0
LINE
  8
NOTE
  6
CONTINUOUS
 62
     4
 10
-151.99998599999981
 20
193.97058000000001
 30
0.0
 11
-151.99998599999981
 21
241.02941999999999
 31
0.0
  0
LINE
  8
NOTE
  6
CONTINUOUS
 62
     4
 10
-175.52940600000011
 20
217.5
 30
0.0
 11
-128.47056599999999
 21
217.5
 31
0.0
  0
CIRCLE
  8
FIX
  6
CONTINUOUS
 62
    11
 10
-151.99998599999981
 20
217.5
 30
0.0
 40
6.0
  0
CIRCLE
  8
FIX
  6
CONTINUOUS
 62
    11
 10
148.00001400000019
 20
217.5
 30
0.0
 40
6.0
  0
LINE
  8
NOTE
  6
CONTINUOUS
 62
     4
 10
148.00001400000019
 20
193.97058000000001
 30
0.0
 11
148.00001400000019
 21
241.02941999999999
 31
0.0
  0
LINE
  8
NOTE
  6
CONTINUOUS
 62
     4
 10
171.52943400000001
 20
217.5
 30
0.0
 11
124.47059399999991
 21
217.5
 31
0.0
  0
CIRCLE
  8
FIX
  6
CONTINUOUS
 62
    11
 10
148.00001400000019
 20
-162.50001599999999
 30
0.0
 40
6.0
  0
LINE
  8
NOTE
  6
CONTINUOUS
 62
     4
 10
148.00001400000019
 20
-138.970596
 30
0.0
 11
148.00001400000019
 21
-186.029436
 31
0.0
  0
LINE
  8
NOTE
  6
CONTINUOUS
 62
     4
 10
171.52943400000001
 20
-162.50001599999999
 30
0.0
 11
124.47059399999991
 21
-162.50001599999999
 31
0.0
  0
CIRCLE
  8
FIX
  6
CONTINUOUS
 62
    11
 10
-151.99998599999981
 20
-162.50001599999999
 30
0.0
 40
6.0
  0
LINE
  8
NOTE
  6
CONTINUOUS
 62
     4
 10
-151.99998599999981
 20
-138.970596
 30
0.0
 11
-151.99998599999981
 21
-186.029436
 31
0.0
  0
LINE
  8
NOTE
  6
CONTINUOUS
 62
     4
 10
-175.52940600000011
 20
-162.50001599999999
 30
0.0
 11
-128.47056599999999
 21
-162.50001599999999
 31
0.0
  0
LINE
  8
SIZE
  6
CONTINUOUS
 62
    30
 10
-151.99998599999981
 20
-206.02942800000011
 30
0.0
 11
-151.99998599999981
 21
-630.31562700000018
 31
0.0
  0
LINE
  8
SIZE
  6
CONTINUOUS
 62
    30
 10
148.00001400000019
 20
-206.02942800000011
 30
0.0
 11
148.00001400000019
 21
-630.31562700000018
 31
0.0
  0
LINE
  8
SIZE
  6
CONTINUOUS
 62
    30
 10
-139.99998599999981
 20
-610.31562700000018
 30
0.0
 11
136.00001400000019
 21
-610.31562700000018
 31
0.0
  0
CIRCLE
  8
SIZE
  6
CONTINUOUS
 62
    30
 10
-151.99998599999981
 20
-610.31562700000018
 30
0.0
 40
6.0
  0
LINE
  8
SIZE
  6
CONTINUOUS
 62
    30
 10
-151.99998599999981
 20
-610.31562700000018
 30
0.0
 11
-139.99998599999981
 21
-610.31562700000018
 31
0.0
  0
CIRCLE
  8
SIZE
  6
CONTINUOUS
 62
    30
 10
148.00001400000019
 20
-610.31562700000018
 30
0.0
 40
6.0
  0
LINE
  8
SIZE
  6
CONTINUOUS
 62
    30
 10
148.00001400000019
 20
-610.31562700000018
 30
0.0
 11
136.00001400000019
 21
-610.31562700000018
 31
0.0
  0
TEXT
  8
SIZE
  6
CONTINUOUS
 62
    30
 10
-76.057128857142658
 20
-585.31562700000018
 30
0.0
 40
64.0
  1
300
 41
0.9
 72
     1
 11
-1.999985999999808
 21
-585.31562700000018
 31
0.0
  0
LINE
  8
SIZE
  6
CONTINUOUS
 62
    30
 10
188.0000220000002
 20
-176.24119799999991
 30
0.0
 11
188.0000220000002
 21
-745.17153699999983
 31
0.0
  0
LINE
  8
SIZE
  6
CONTINUOUS
 62
    30
 10
-192.0
 20
-176.24119799999991
 30
0.0
 11
-192.0
 21
-745.17153699999983
 31
0.0
  0
LINE
  8
SIZE
  6
CONTINUOUS
 62
    30
 10
176.0000220000002
 20
-725.17153699999983
 30
0.0
 11
-180.0
 21
-725.17153699999983
 31
0.0
  0
TEXT
  8
SIZE
  6
CONTINUOUS
 62
    30
 10
-76.05713185714275
 20
-697.65512100000001
 30
0.0
 40
64.0
  1
380
 41
0.9
 72
     1
 11
-1.9999889999999141
 21
-697.65512100000001
 31
0.0
  0
CIRCLE
  8
SIZE
  6
CONTINUOUS
 62
    30
 10
188.0000220000002
 20
-725.17153699999983
 30
0.0
 40
6.0
  0
LINE
  8
SIZE
  6
CONTINUOUS
 62
    30
 10
188.0000220000002
 20
-725.17153699999983
 30
0.0
 11
176.0000220000002
 21
-725.17153699999983
 31
0.0
  0
CIRCLE
  8
SIZE
  6
CONTINUOUS
 62
    30
 10
-192.0
 20
-725.17153699999983
 30
0.0
 40
6.0
  0
LINE
  8
SIZE
  6
CONTINUOUS
 62
    30
 10
-192.0
 20
-725.17153699999983
 30
0.0
 11
-180.0
 21
-725.17153699999983
 31
0.0
  0
LINE
  8
SIZE
  6
CONTINUOUS
 62
    30
 10
191.52942600000009
 20
217.5
 30
0.0
 11
587.47712559633237
 21
217.5
 31
0.0
  0
LINE
  8
SIZE
  6
CONTINUOUS
 62
    30
 10
261.85232771370278
 20
0.0
 30
0.0
 11
587.47712559633237
 21
0.0
 31
0.0
  0
LINE
  8
SIZE
  6
CONTINUOUS
 62
    30
 10
567.47712559633237
 20
205.5
 30
0.0
 11
567.47712559633237
 21
12.0
 31
0.0
  0
LINE
  8
SIZE
  6
CONTINUOUS
 62
    30
 10
567.47712559633237
 20
501.23539399999981
 30
0.0
 11
567.47712559633237
 21
217.5
 31
0.0
  0
TEXT
  8
SIZE
  6
CONTINUOUS
 62
    30
 10
542.47712559633237
 20
256.80682328571442
 30
0.0
 40
64.0
  1
217.5
 50
90.0
 41
0.9
 72
     1
 11
542.47712559633237
 21
366.52110900000002
 31
0.0
  0
CIRCLE
  8
SIZE
  6
CONTINUOUS
 62
    30
 10
567.47712559633237
 20
217.5
 30
0.0
 40
6.0
  0
LINE
  8
SIZE
  6
CONTINUOUS
 62
    30
 10
567.47712559633237
 20
217.5
 30
0.0
 11
567.47712559633237
 21
205.5
 31
0.0
  0
CIRCLE
  8
SIZE
  6
CONTINUOUS
 62
    30
 10
567.47712559633237
 20
0.0
 30
0.0
 40
6.0
  0
LINE
  8
SIZE
  6
CONTINUOUS
 62
    30
 10
567.47712559633237
 20
0.0
 30
0.0
 11
567.47712559633237
 21
12.0
 31
0.0
  0
LINE
  8
SIZE
  6
CONTINUOUS
 62
    30
 10
203.97649199999981
 20
217.5
 30
0.0
 11
866.27913359633249
 21
217.5
 31
0.0
  0
LINE
  8
SIZE
  6
CONTINUOUS
 62
    30
 10
191.52942600000009
 20
-162.50001599999999
 30
0.0
 11
866.27913359633249
 21
-162.50001599999999
 31
0.0
  0
LINE
  8
SIZE
  6
CONTINUOUS
 62
    30
 10
846.27913359633249
 20
205.5
 30
0.0
 11
846.27913359633249
 21
-150.50001599999999
 31
0.0
  0
TEXT
  8
SIZE
  6
CONTINUOUS
 62
    30
 10
812.55753159633241
 20
-46.557150857142823
 30
0.0
 40
64.0
  1
380
 50
90.0
 41
0.9
 72
     1
 11
812.55753159633241
 21
27.49999200000002
 31
0.0
  0
CIRCLE
  8
SIZE
  6
CONTINUOUS
 62
    30
 10
846.27913359633249
 20
217.5
 30
0.0
 40
6.0
  0
LINE
  8
SIZE
  6
CONTINUOUS
 62
    30
 10
846.27913359633249
 20
217.5
 30
0.0
 11
846.27913359633249
 21
205.5
 31
0.0
  0
CIRCLE
  8
SIZE
  6
CONTINUOUS
 62
    30
 10
846.27913359633249
 20
-162.50001599999999
 30
0.0
 40
6.0
  0
LINE
  8
SIZE
  6
CONTINUOUS
 62
    30
 10
846.27913359633249
 20
-162.50001599999999
 30
0.0
 11
846.27913359633249
 21
-150.50001599999999
 31
0.0
  0
LINE
  8
NOTE
  6
CONTINUOUS
 62
     4
 10
188.0000220000002
 20
153.97057199999989
 30
0.0
 11
188.0000220000002
 21
201.02941200000001
 31
0.0
  0
LINE
  8
NOTE
  6
CONTINUOUS
 62
     4
 10
211.52944199999999
 20
177.49999199999999
 30
0.0
 11
164.4706019999999
 21
177.49999199999999
 31
0.0
  0
CIRCLE
  8
FIX
  6
CONTINUOUS
 62
    11
 10
188.0000220000002
 20
177.49999199999999
 30
0.0
 40
6.0
  0
CIRCLE
  8
FIX
  6
CONTINUOUS
 62
    11
 10
188.0000220000002
 20
-122.50000799999999
 30
0.0
 40
6.0
  0
LINE
  8
NOTE
  6
CONTINUOUS
 62
     4
 10
188.0000220000002
 20
-146.02942800000011
 30
0.0
 11
188.0000220000002
 21
-98.970588000000021
 31
0.0
  0
LINE
  8
NOTE
  6
CONTINUOUS
 62
     4
 10
211.52944199999999
 20
-122.50000799999999
 30
0.0
 11
164.4706019999999
 21
-122.50000799999999
 31
0.0
  0
LINE
  8
SIZE
  6
CONTINUOUS
 62
    30
 10
231.52943400000001
 20
177.49999199999999
 30
0.0
 11
734.37280659633234
 21
177.49999199999999
 31
0.0
  0
LINE
  8
SIZE
  6
CONTINUOUS
 62
    30
 10
231.52943400000001
 20
-122.50000799999999
 30
0.0
 11
734.37280659633234
 21
-122.50000799999999
 31
0.0
  0
LINE
  8
SIZE
  6
CONTINUOUS
 62
    30
 10
714.37280659633234
 20
165.49999199999999
 30
0.0
 11
714.37280659633234
 21
-110.50000799999999
 31
0.0
  0
CIRCLE
  8
SIZE
  6
CONTINUOUS
 62
    30
 10
714.37280659633234
 20
177.49999199999999
 30
0.0
 40
6.0
  0
LINE
  8
SIZE
  6
CONTINUOUS
 62
    30
 10
714.37280659633234
 20
177.49999199999999
 30
0.0
 11
714.37280659633234
 21
165.49999199999999
 31
0.0
  0
CIRCLE
  8
SIZE
  6
CONTINUOUS
 62
    30
 10
714.37280659633234
 20
-122.50000799999999
 30
0.0
 40
6.0
  0
LINE
  8
SIZE
  6
CONTINUOUS
 62
    30
 10
714.37280659633234
 20
-122.50000799999999
 30
0.0
 11
714.37280659633234
 21
-110.50000799999999
 31
0.0
  0
TEXT
  8
SIZE
  6
CONTINUOUS
 62
    30
 10
689.37280659633234
 20
-46.55715085714283
 30
0.0
 40
64.0
  1
300
 50
90.0
 41
0.9
 72
     1
 11
689.37280659633234
 21
27.49999200000002
 31
0.0
  0
LINE
  8
SIZE
  6
CONTINUOUS
 62
    30
 10
-207.97647099999989
 20
217.5
 30
0.0
 11
-441.44872200000009
 21
217.5
 31
0.0
  0
LINE
  8
SIZE
  6
CONTINUOUS
 62
    30
 10
-279.47678900000028
 20
112.5
 30
0.0
 11
-441.44872200000009
 21
112.5
 31
0.0
  0
LINE
  8
SIZE
  6
CONTINUOUS
 62
    30
 10
-421.44872200000009
 20
205.5
 30
0.0
 11
-421.44872200000009
 21
124.5
 31
0.0
  0
TEXT
  8
SIZE
  6
CONTINUOUS
 62
    30
 10
-450.74612699999989
 20
77.455486428571461
 30
0.0
 40
64.0
  1
105
 50
90.0
 41
0.9
 72
     1
 11
-450.74612699999989
 21
146.026915
 31
0.0
  0
CIRCLE
  8
SIZE
  6
CONTINUOUS
 62
    30
 10
-421.44872200000009
 20
217.5
 30
0.0
 40
6.0
  0
LINE
  8
SIZE
  6
CONTINUOUS
 62
    30
 10
-421.44872200000009
 20
217.5
 30
0.0
 11
-421.44872200000009
 21
205.5
 31
0.0
  0
CIRCLE
  8
SIZE
  6
CONTINUOUS
 62
    30
 10
-421.44872200000009
 20
112.5
 30
0.0
 40
6.0
  0
LINE
  8
SIZE
  6
CONTINUOUS
 62
    30
 10
-421.44872200000009
 20
112.5
 30
0.0
 11
-421.44872200000009
 21
124.5
 31
0.0
  0
POINT
  8
ARRANGE
  6
CONTINUOUS
 62
     1
 10
0.0
 20
0.0
 30
0.0
  0
CIRCLE
  8
ARRANGE
  6
CONTINUOUS
 62
     1
 10
0.0
 20
0.0
 30
0.0
 40
40.0
  0
TEXT
  8
NOTE
  6
CONTINUOUS
 62
     4
 10
-63.258993999999802
 20
147.58973499999999
 30
0.0
 40
64.0
  1
入口
 41
0.9
  0
TEXT
  8
NOTE
  6
CONTINUOUS
 62
     4
 10
-365.71113100000002
 20
33.698177999999977
 30
0.0
 40
64.0
  1
出口
 41
0.9
  0
LINE
  8
DETAIL
  6
CONTINUOUS
 62
     5
 10
-192.0
 20
252.5
 30
0.0
 11
-192.8000339999999
 21
252.5
 31
0.0
  0
LINE
  8
DETAIL
  6
CONTINUOUS
 62
     5
 10
-192.0
 20
-27.5
 30
0.0
 11
-192.8000339999999
 21
-27.5
 31
0.0
  0
LINE
  8
SIZE
  6
CONTINUOUS
 62
    30
 10
-214.53333399999971
 20
252.5
 30
0.0
 11
-568.99593899999991
 21
252.5
 31
0.0
  0
LINE
  8
SIZE
  6
CONTINUOUS
 62
    30
 10
-214.53333399999971
 20
-27.5
 30
0.0
 11
-568.99593899999991
 21
-27.5
 31
0.0
  0
LINE
  8
SIZE
  6
CONTINUOUS
 62
    30
 10
-548.99593899999991
 20
240.5
 30
0.0
 11
-548.99593899999991
 21
-15.5
 31
0.0
  0
CIRCLE
  8
SIZE
  6
CONTINUOUS
 62
    30
 10
-548.99593899999991
 20
252.5
 30
0.0
 40
6.0
  0
LINE
  8
SIZE
  6
CONTINUOUS
 62
    30
 10
-548.99593899999991
 20
252.5
 30
0.0
 11
-548.99593899999991
 21
240.5
 31
0.0
  0
CIRCLE
  8
SIZE
  6
CONTINUOUS
 62
    30
 10
-548.99593899999991
 20
-27.5
 30
0.0
 40
6.0
  0
LINE
  8
SIZE
  6
CONTINUOUS
 62
    30
 10
-548.99593899999991
 20
-27.5
 30
0.0
 11
-548.99593899999991
 21
-15.5
 31
0.0
  0
TEXT
  8
SIZE
  6
CONTINUOUS
 62
    30
 10
-573.99593899999991
 20
-1.8771428571428861
 30
0.0
 40
64.0
  1
φ280
 50
90.0
 41
0.9
 72
     1
 11
-573.99593899999991
 21
112.5
 31
0.0
  0
LINE
  8
SIZE
  6
CONTINUOUS
 62
    30
 10
203.97649199999981
 20
217.5
 30
0.0
 11
459.7380685963326
 21
217.5
 31
0.0
  0
LINE
  8
SIZE
  6
CONTINUOUS
 62
    30
 10
259.91742455172471
 20
3.0
 30
0.0
 11
459.7380685963326
 21
3.0
 31
0.0
  0
LINE
  8
SIZE
  6
CONTINUOUS
 62
    30
 10
439.7380685963326
 20
205.5
 30
0.0
 11
439.7380685963326
 21
15.0
 31
0.0
  0
LINE
  8
SIZE
  6
CONTINUOUS
 62
    30
 10
439.7380685963326
 20
509.42167199999989
 30
0.0
 11
439.7380685963326
 21
217.5
 31
0.0
  0
TEXT
  8
SIZE
  6
CONTINUOUS
 62
    30
 10
414.7380685963326
 20
264.99310028571438
 30
0.0
 40
64.0
  1
214.5
 50
90.0
 41
0.9
 72
     1
 11
414.7380685963326
 21
374.70738599999999
 31
0.0
  0
CIRCLE
  8
SIZE
  6
CONTINUOUS
 62
    30
 10
439.7380685963326
 20
217.5
 30
0.0
 40
6.0
  0
LINE
  8
SIZE
  6
CONTINUOUS
 62
    30
 10
439.7380685963326
 20
217.5
 30
0.0
 11
439.7380685963326
 21
205.5
 31
0.0
  0
CIRCLE
  8
SIZE
  6
CONTINUOUS
 62
    30
 10
439.7380685963326
 20
3.0
 30
0.0
 40
6.0
  0
LINE
  8
SIZE
  6
CONTINUOUS
 62
    30
 10
439.7380685963326
 20
3.0
 30
0.0
 11
439.7380685963326
 21
15.0
 31
0.0
  0
LINE
  8
SIZE
  6
CONTINUOUS
 62
    30
 10
-192.0
 20
-176.24119799999991
 30
0.0
 11
-192.0
 21
-497.42178999999999
 31
0.0
  0
LINE
  8
SIZE
  6
CONTINUOUS
 62
    30
 10
0.5
 20
-207.6249521823199
 30
0.0
 11
0.5
 21
-497.42178999999999
 31
0.0
  0
LINE
  8
SIZE
  6
CONTINUOUS
 62
    30
 10
-180.0
 20
-477.42178999999999
 30
0.0
 11
-11.5
 21
-477.42178999999999
 31
0.0
  0
LINE
  8
SIZE
  6
CONTINUOUS
 62
    30
 10
-524.900216
 20
-477.42178999999999
 30
0.0
 11
-192.0
 21
-477.42178999999999
 31
0.0
  0
TEXT
  8
SIZE
  6
CONTINUOUS
 62
    30
 10
-499.90021571428582
 20
-452.42178999999999
 30
0.0
 40
64.0
  1
192.5
 41
0.9
 72
     1
 11
-390.1859300000001
 21
-452.42178999999999
 31
0.0
  0
CIRCLE
  8
SIZE
  6
CONTINUOUS
 62
    30
 10
-192.0
 20
-477.42178999999999
 30
0.0
 40
6.0
  0
LINE
  8
SIZE
  6
CONTINUOUS
 62
    30
 10
-192.0
 20
-477.42178999999999
 30
0.0
 11
-180.0
 21
-477.42178999999999
 31
0.0
  0
CIRCLE
  8
SIZE
  6
CONTINUOUS
 62
    30
 10
0.5
 20
-477.42178999999999
 30
0.0
 40
6.0
  0
LINE
  8
SIZE
  6
CONTINUOUS
 62
    30
 10
0.5
 20
-477.42178999999999
 30
0.0
 11
-11.5
 21
-477.42178999999999
 31
0.0
  0
CIRCLE
  8
DETAIL
  6
CONTINUOUS
 62
     5
 10
0.0
 20
0.0
 30
0.0
 40
107.5
  0
TEXT
  8
ETC
  6
CONTINUOUS
 62
    61
 10
648.73605588504734
 20
453.13636780650631
 30
0.0
 40
64.0
  1
産業扇
 41
0.9
  0
TEXT
  8
ETC
  6
CONTINUOUS
 62
    61
 10
643.90378788504722
 20
564.48099780650637
 30
0.0
 40
64.0
  1
BF-23S5_4
 41
0.9
  0
TEXT
  8
ETC
  6
CONTINUOUS
 62
    61
 10
732.59999799259549
 20
343.28256658014772
 30
0.0
 40
64.0
  1
BF-23S5
 41
0.9
  0
LINE
  8
OUTLINE
  6
CONTINUOUS
 62
     3
 10
-192.8000339999999
 20
-27.5
 30
0.0
 11
-192.8000339999999
 21
252.5
 31
0.0
  0
LINE
  8
OUTLINE
  6
CONTINUOUS
 62
     3
 10
-192.0
 20
252.5
 30
0.0
 11
-192.8000339999999
 21
252.5
 31
0.0
  0
LINE
  8
OUTLINE
  6
CONTINUOUS
 62
     3
 10
-192.0
 20
-27.5
 30
0.0
 11
-192.8000339999999
 21
-27.5
 31
0.0
  0
CIRCLE
  8
SIZE
  6
DASHED
 62
    30
 10
0.5
 20
3.0
 30
0.0
 40
135.0
  0
CIRCLE
  8
FIX
  6
CONTINUOUS
 62
    11
 10
95.959415460183664
 20
98.459415460183891
 30
0.0
 40
1.6000000000000001
  0
LINE
  8
NOTE
  6
CONTINUOUS
 62
     4
 10
85.959415460183664
 20
98.459415460183891
 30
0.0
 11
105.95941546018371
 21
98.459415460183891
 31
0.0
  0
LINE
  8
NOTE
  6
CONTINUOUS
 62
     4
 10
95.959415460183664
 20
108.45941546018391
 30
0.0
 11
95.959415460183664
 21
88.459415460183891
 31
0.0
  0
LINE
  8
NOTE
  6
CONTINUOUS
 62
     4
 10
-94.959415460184118
 20
-92.459415460183891
 30
0.0
 11
-267.03133439966899
 21
-211.6295421203545
 31
0.0
  0
LINE
  8
NOTE
  6
CONTINUOUS
 62
     4
 10
-267.03133439966899
 20
-211.6295421203545
 30
0.0
 11
-599.71693718084362
 21
-211.6295421203545
 31
0.0
  0
LINE
  8
NOTE
  6
CONTINUOUS
 62
     4
 10
-132.72118207638641
 20
-105.652179124331
 30
0.0
 11
-94.959415460184118
 21
-92.459415460183891
 31
0.0
  0
LINE
  8
NOTE
  6
CONTINUOUS
 62
     4
 10
-94.959415460184118
 20
-92.459415460183891
 30
0.0
 11
-121.0656824138878
 21
-122.7655668720612
 31
0.0
  0
TEXT
  8
NOTE
  6
CONTINUOUS
 62
     4
 10
-585.61986769873192
 20
-170.60298812035441
 30
0.0
 40
64.0
  1
4×φ3.2
 41
0.9
  0
CIRCLE
  8
FIX
  6
CONTINUOUS
 62
    11
 10
-94.959415460183664
 20
98.459415460183891
 30
0.0
 40
1.6000000000000001
  0
LINE
  8
NOTE
  6
CONTINUOUS
 62
     4
 10
-94.959415460183664
 20
88.459415460183891
 30
0.0
 11
-94.959415460183664
 21
108.45941546018391
 31
0.0
  0
LINE
  8
NOTE
  6
CONTINUOUS
 62
     4
 10
-104.95941546018371
 20
98.459415460183891
 30
0.0
 11
-84.959415460183664
 21
98.459415460183891
 31
0.0
  0
CIRCLE
  8
FIX
  6
CONTINUOUS
 62
    11
 10
-94.959415460184118
 20
-92.459415460183891
 30
0.0
 40
1.6000000000000001
  0
LINE
  8
NOTE
  6
CONTINUOUS
 62
     4
 10
-84.959415460184118
 20
-92.459415460183891
 30
0.0
 11
-104.9594154601841
 21
-92.459415460183891
 31
0.0
  0
LINE
  8
NOTE
  6
CONTINUOUS
 62
     4
 10
-94.959415460184118
 20
-102.45941546018391
 30
0.0
 11
-94.959415460184118
 21
-82.459415460183891
 31
0.0
  0
CIRCLE
  8
FIX
  6
CONTINUOUS
 62
    11
 10
95.959415460183664
 20
-92.459415460184118
 30
0.0
 40
1.6000000000000001
  0
LINE
  8
NOTE
  6
CONTINUOUS
 62
     4
 10
95.959415460183664
 20
-82.459415460184118
 30
0.0
 11
95.959415460183664
 21
-102.4594154601841
 31
0.0
  0
LINE
  8
NOTE
  6
CONTINUOUS
 62
     4
 10
105.95941546018371
 20
-92.459415460184118
 30
0.0
 11
85.959415460183664
 21
-92.459415460184118
 31
0.0
  0
LINE
  8
SIZE
  6
CONTINUOUS
 62
    30
 10
110.1015510839152
 20
112.6015510839148
 30
0.0
 11
273.56152378216763
 21
276.0615237821678
 31
0.0
  0
LINE
  8
SIZE
  6
CONTINUOUS
 62
    30
 10
0.5
 20
191.379109
 30
0.0
 11
0.5
 21
389.16731029500511
 31
0.0
  0
ARC
  8
SIZE
  6
CONTINUOUS
 62
    30
 10
0.5
 20
3.0
 30
0.0
 40
366.16731029500522
 50
46.877775831743058
 51
88.122224168268772
  0
CIRCLE
  8
SIZE
  6
CONTINUOUS
 62
    30
 10
259.41938815843702
 20
261.91938815843667
 30
0.0
 40
6.0
  0
LINE
  8
SIZE
  6
CONTINUOUS
 62
    30
 10
259.41938815843702
 20
261.91938815843667
 30
0.0
 11
250.79620659327159
 21
270.26449089562328
 31
0.0
  0
CIRCLE
  8
SIZE
  6
CONTINUOUS
 62
    30
 10
0.5
 20
369.16731029500511
 30
0.0
 40
6.0
  0
LINE
  8
SIZE
  6
CONTINUOUS
 62
    30
 10
0.5
 20
369.16731029500511
 30
0.0
 11
12.49838889529383
 21
368.97067887003709
 31
0.0
  0
TEXT
  8
SIZE
  6
CONTINUOUS
 62
    30
 10
94.443718285174555
 20
387.48368345919158
 30
0.0
 40
64.0
  1
45°
 50
337.50000000000011
 41
0.9
 72
     1
 11
150.19324893271281
 21
364.3914717690468
 31
0.0
  0
POINT
  8
DEFPOINTS
  6
CONTINUOUS
 62
    30
 10
183.5836551475027
 20
320.1101927508937
 30
0.0
  0
POINT
  8
DEFPOINTS
  6
CONTINUOUS
 62
    30
 10
0.5
 20
3.0
 30
0.0
  0
POINT
  8
DEFPOINTS
  6
CONTINUOUS
 62
    30
 10
0.5
 20
171.379109
 30
0.0
  0
POINT
  8
DEFPOINTS
  6
CONTINUOUS
 62
    30
 10
0.5
 20
-187.6249521823199
 30
0.0
  0
POINT
  8
DEFPOINTS
  6
CONTINUOUS
 62
    30
 10
95.959415460183664
 20
98.459415460183891
 30
0.0
  0
LINE
  8
SIZE
  6
CONTINUOUS
 62
    30
 10
0.5
 20
191.379109
 30
0.0
 11
0.5
 21
389.16731029500488
 31
0.0
  0
LINE
  8
SIZE
  6
CONTINUOUS
 62
    30
 10
-109.1015510839152
 20
112.6015510839148
 30
0.0
 11
-272.56152378216763
 21
276.06152378216768
 31
0.0
  0
ARC
  8
SIZE
  6
CONTINUOUS
 62
    30
 10
0.5
 20
3.0
 30
0.0
 40
366.16731029500488
 50
91.877775831731228
 51
133.12222416825691
  0
CIRCLE
  8
SIZE
  6
CONTINUOUS
 62
    30
 10
0.5
 20
369.16731029500488
 30
0.0
 40
6.0
  0
LINE
  8
SIZE
  6
CONTINUOUS
 62
    30
 10
0.5
 20
369.16731029500488
 30
0.0
 11
-11.49838889529383
 21
368.97067887003692
 31
0.0
  0
CIRCLE
  8
SIZE
  6
CONTINUOUS
 62
    30
 10
-258.4193881584365
 20
261.91938815843667
 30
0.0
 40
6.0
  0
LINE
  8
SIZE
  6
CONTINUOUS
 62
    30
 10
-258.4193881584365
 20
261.91938815843667
 30
0.0
 11
-249.79620659327159
 21
270.26449089562323
 31
0.0
  0
TEXT
  8
SIZE
  6
CONTINUOUS
 62
    30
 10
-204.942779580251
 20
341.29926007890168
 30
0.0
 40
64.0
  1
45°
 50
22.5
 41
0.9
 72
     1
 11
-149.19324893271281
 21
364.39147176904657
 31
0.0
  0
POINT
  8
DEFPOINTS
  6
CONTINUOUS
 62
    30
 10
-94.271073598311432
 20
356.69046175674839
 30
0.0
  0
POINT
  8
DEFPOINTS
  6
CONTINUOUS
 62
    30
 10
0.5
 20
3.0
 30
0.0
  0
POINT
  8
DEFPOINTS
  6
CONTINUOUS
 62
    30
 10
0.5
 20
171.379109
 30
0.0
  0
POINT
  8
DEFPOINTS
  6
CONTINUOUS
 62
    30
 10
0.5
 20
-187.6249521823199
 30
0.0
  0
POINT
  8
DEFPOINTS
  6
CONTINUOUS
 62
    30
 10
-94.959415460183664
 20
98.459415460183891
 30
0.0
  0
LINE
  8
SIZE
  6
CONTINUOUS
 62
    30
 10
-134.5
 20
23.0
 30
0.0
 11
-134.5
 21
511.87384628651762
 31
0.0
  0
LINE
  8
SIZE
  6
CONTINUOUS
 62
    30
 10
135.5
 20
23.0
 30
0.0
 11
135.5
 21
511.87384628651762
 31
0.0
  0
LINE
  8
SIZE
  6
CONTINUOUS
 62
    30
 10
-122.5
 20
491.87384628651762
 30
0.0
 11
123.5
 21
491.87384628651762
 31
0.0
  0
CIRCLE
  8
SIZE
  6
CONTINUOUS
 62
    30
 10
-134.5
 20
491.87384628651762
 30
0.0
 40
6.0
  0
LINE
  8
SIZE
  6
CONTINUOUS
 62
    30
 10
-134.5
 20
491.87384628651762
 30
0.0
 11
-122.5
 21
491.87384628651762
 31
0.0
  0
CIRCLE
  8
SIZE
  6
CONTINUOUS
 62
    30
 10
135.5
 20
491.87384628651762
 30
0.0
 40
6.0
  0
LINE
  8
SIZE
  6
CONTINUOUS
 62
    30
 10
135.5
 20
491.87384628651762
 30
0.0
 11
123.5
 21
491.87384628651762
 31
0.0
  0
TEXT
  8
SIZE
  6
CONTINUOUS
 62
    30
 10
-113.8771428571429
 20
527.54051295318413
 30
0.0
 40
64.0
  1
φ270
 41
0.9
 72
     1
 11
0.5
 21
527.54051295318413
 31
0.0
  0
POINT
  8
DEFPOINTS
  6
CONTINUOUS
 62
    30
 10
-134.5
 20
3.0
 30
0.0
  0
POINT
  8
DEFPOINTS
  6
CONTINUOUS
 62
    30
 10
135.5
 20
3.0
 30
0.0
  0
POINT
  8
DEFPOINTS
  6
CONTINUOUS
 62
    30
 10
135.5
 20
491.87384628651762
 30
0.0
  0
ENDSEC
  0
EOF
