  0
SECTION
  2
HEADER
  9
$ACADVER
  1
AC1009
  9
$INSBASE
 10
0.0
 20
0.0
 30
0.0
  9
$EXTMIN
 10
-957.70128699999987
 20
-659.88459799999998
 30
0.0
  9
$EXTMAX
 10
905.40738748538774
 20
755.86745212257131
 30
0.0
  9
$LIMMIN
 10
-2970.0
 20
-2100.0
  9
$LIMMAX
 10
2970.0
 20
2100.0
  9
$ORTHOMODE
 70
     1
  9
$REGENMODE
 70
     0
  9
$FILLMODE
 70
     1
  9
$QTEXTMODE
 70
     0
  9
$MIRRTEXT
 70
     0
  9
$DRAGMODE
 70
     2
  9
$LTSCALE
 40
20.0
  9
$OSMODE
 70
    37
  9
$ATTMODE
 70
     1
  9
$TEXTSIZE
 40
64.0
  9
$TRACEWID
 40
0.05
  9
$TEXTSTYLE
  7
STANDARD
  9
$CLAYER
  8
SIZE
  9
$CELTYPE
  6
CONTINUOUS
  9
$CECOLOR
 62
    30
  9
$DIMSCALE
 40
1.0
  9
$DIMASZ
 40
12.0
  9
$DIMEXO
 40
20.0
  9
$DIMDLI
 40
200.0
  9
$DIMRND
 40
0.0
  9
$DIMDLE
 40
0.0
  9
$DIMEXE
 40
20.0
  9
$DIMTP
 40
0.0
  9
$DIMTM
 40
0.0
  9
$DIMTXT
 40
64.0
  9
$DIMCEN
 40
0.09
  9
$DIMTSZ
 40
0.0
  9
$DIMTOL
 70
     0
  9
$DIMLIM
 70
     0
  9
$DIMTIH
 70
     0
  9
$DIMTOH
 70
     0
  9
$DIMSE1
 70
     0
  9
$DIMSE2
 70
     0
  9
$DIMTAD
 70
     1
  9
$DIMZIN
 70
     8
  9
$DIMBLK
  1
DOT1
  9
$DIMASO
 70
     1
  9
$DIMSHO
 70
     0
  9
$DIMPOST
  1

  9
$DIMAPOST
  1

  9
$DIMALT
 70
     0
  9
$DIMALTD
 70
     2
  9
$DIMALTF
 40
25.399999999999999
  9
$DIMLFAC
 40
1.0
  9
$DIMTOFL
 70
     1
  9
$DIMTVP
 40
0.0
  9
$DIMTIX
 70
     1
  9
$DIMSOXD
 70
     0
  9
$DIMSAH
 70
     1
  9
$DIMBLK1
  1
ORIGIN
  9
$DIMBLK2
  1
ORIGIN
  9
$DIMSTYLE
  2
STANDARD
  9
$DIMCLRD
 70
     0
  9
$DIMCLRE
 70
     0
  9
$DIMCLRT
 70
     0
  9
$DIMTFAC
 40
1.0
  9
$DIMGAP
 40
0.09
  9
$LUNITS
 70
     2
  9
$LUPREC
 70
     4
  9
$SKETCHINC
 40
0.1
  9
$FILLETRAD
 40
4.0
  9
$AUNITS
 70
     1
  9
$AUPREC
 70
     3
  9
$MENU
  1
ACAD
  9
$ELEVATION
 40
0.0
  9
$PELEVATION
 40
0.0
  9
$THICKNESS
 40
50.0
  9
$LIMCHECK
 70
     0
  9
$BLIPMODE
 70
     0
  9
$CHAMFERA
 40
0.0
  9
$CHAMFERB
 40
0.0
  9
$SKPOLY
 70
     0
  9
$TDCREATE
 40
2452321.3961996529
  9
$TDUPDATE
 40
2454924.6098415158
  9
$TDINDWG
 40
0.1589489931
  9
$TDUSRTIMER
 40
0.1589488079
  9
$USRTIMER
 70
     1
  9
$ANGBASE
 50
0.0
  9
$ANGDIR
 70
     0
  9
$PDMODE
 70
     3
  9
$PDSIZE
 40
-2.0
  9
$PLINEWID
 40
0.0
  9
$COORDS
 70
     0
  9
$SPLFRAME
 70
     0
  9
$SPLINETYPE
 70
     6
  9
$SPLINESEGS
 70
     8
  9
$ATTDIA
 70
     0
  9
$ATTREQ
 70
     1
  9
$HANDLING
 70
     1
  9
$HANDSEED
  5
1F4
  9
$SURFTAB1
 70
     6
  9
$SURFTAB2
 70
     6
  9
$SURFTYPE
 70
     6
  9
$SURFU
 70
     6
  9
$SURFV
 70
     6
  9
$UCSNAME
  2

  9
$UCSORG
 10
0.0
 20
0.0
 30
0.0
  9
$UCSXDIR
 10
1.0
 20
0.0
 30
0.0
  9
$UCSYDIR
 10
0.0
 20
1.0
 30
0.0
  9
$PUCSNAME
  2

  9
$PUCSORG
 10
0.0
 20
0.0
 30
0.0
  9
$PUCSXDIR
 10
1.0
 20
0.0
 30
0.0
  9
$PUCSYDIR
 10
0.0
 20
1.0
 30
0.0
  9
$USERI1
 70
     0
  9
$USERI2
 70
     0
  9
$USERI3
 70
     0
  9
$USERI4
 70
     0
  9
$USERI5
 70
     0
  9
$USERR1
 40
20.0
  9
$USERR2
 40
0.0
  9
$USERR3
 40
0.0
  9
$USERR4
 40
0.0
  9
$USERR5
 40
0.0
  9
$WORLDVIEW
 70
     1
  9
$SHADEDGE
 70
     3
  9
$SHADEDIF
 70
    70
  9
$TILEMODE
 70
     1
  9
$MAXACTVP
 70
    64
  9
$PLIMCHECK
 70
     0
  9
$PEXTMIN
 10
1.0000000000000000E+020
 20
1.0000000000000000E+020
 30
1.0000000000000000E+020
  9
$PEXTMAX
 10
-1.0000000000000000E+020
 20
-1.0000000000000000E+020
 30
-1.0000000000000000E+020
  9
$PLIMMIN
 10
0.0
 20
0.0
  9
$PLIMMAX
 10
12.0
 20
9.0
  9
$UNITMODE
 70
     0
  9
$VISRETAIN
 70
     1
  9
$PLINEGEN
 70
     0
  9
$PSLTSCALE
 70
     1
  0
ENDSEC
  0
SECTION
  2
TABLES
  0
TABLE
  2
VPORT
 70
     1
  0
VPORT
  2
*ACTIVE
 70
     0
 10
0.0
 20
0.0
 11
1.0
 21
1.0
 12
228.4773646929643
 22
214.6503963685509
 13
0.0
 23
0.0
 14
1.0
 24
1.0
 15
0.0
 25
0.0
 16
0.0
 26
0.0
 36
1.0
 17
0.0
 27
0.0
 37
0.0
 40
1982.9714645336639
 41
1.3098995695839311
 42
50.0
 43
0.0
 44
0.0
 50
0.0
 51
0.0
 71
     0
 72
   100
 73
     1
 74
     0
 75
     0
 76
     0
 77
     0
 78
     0
  0
ENDTAB
  0
TABLE
  2
LTYPE
 70
     3
  0
LTYPE
  2
CONTINUOUS
 70
     0
  3
実線
 72
    65
 73
     0
 40
0.0
  0
LTYPE
  2
DASHDOT
 70
     0
  3
____ _ ____ _ ____ _ ____ _ ____ _ ____ _ ____
 72
    65
 73
     4
 40
5.5
 49
4.0
 49
-0.6
 49
0.3
 49
-0.6
  0
ENDTAB
  0
TABLE
  2
LAYER
 70
    12
  0
LAYER
  2
0
 70
     0
 62
     7
  6
CONTINUOUS
  0
LAYER
  2
SIZE
 70
     0
 62
     4
  6
CONTINUOUS
  0
LAYER
  2
BASIS
 70
     0
 62
     6
  6
DASHDOT
  0
LAYER
  2
OUTLINE
 70
     0
 62
     3
  6
CONTINUOUS
  0
LAYER
  2
DETAIL
 70
     0
 62
     5
  6
CONTINUOUS
  0
LAYER
  2
ARRANGE
 70
     0
 62
     1
  6
CONTINUOUS
  0
LAYER
  2
DEFPOINTS
 70
     0
 62
     7
  6
CONTINUOUS
  0
LAYER
  2
ETC
 70
     0
 62
    61
  6
CONTINUOUS
  0
LAYER
  2
FIX
 70
     0
 62
     7
  6
CONTINUOUS
  0
LAYER
  2
NOTE
 70
     0
 62
     4
  6
CONTINUOUS
  0
LAYER
  2
SERVICESPACE
 70
     0
 62
     2
  6
DASHDOT
  0
LAYER
  2
SYMBOLLINE
 70
     0
 62
    15
  6
CONTINUOUS
  0
ENDTAB
  0
TABLE
  2
STYLE
 70
     2
  0
STYLE
  2
STANDARD
 70
     0
 40
64.0
 41
0.9
 50
0.0
 71
     0
 42
64.0
  3
SIMPLEX.shx
  4
BIGFONT.shx
  0
STYLE
  2
ANNOTATIVE
 70
     0
 40
0.0
 41
1.0
 50
0.0
 71
     0
 42
0.2
  3
txt
  4

  0
ENDTAB
  0
TABLE
  2
VIEW
 70
     1
  0
VIEW
  2
ALL
 70
     0
 40
4282.6198079999986
 10
0.0
 20
41.309903999999989
 41
5940.0
 11
0.0
 21
0.0
 31
1.0
 12
0.0
 22
0.0
 32
0.0
 42
50.0
 43
0.0
 44
0.0
 50
0.0
 71
     0
  0
ENDTAB
  0
TABLE
  2
UCS
 70
     0
  0
ENDTAB
  0
TABLE
  2
APPID
 70
     5
  0
APPID
  2
ACAD
 70
     0
  0
APPID
  2
ACADANNOTATIVE
 70
     0
  0
APPID
  2
ACAD_MLEADERVER
 70
     0
  0
APPID
  2
ACAD_EXEMPT_FROM_CAD_STANDARDS
 70
     0
  0
APPID
  2
ACAD_PSEXT
 70
     0
  0
ENDTAB
  0
TABLE
  2
DIMSTYLE
 70
     2
  0
DIMSTYLE
  2
STANDARD
 70
     0
  3

  4

  5

  6

  7

 40
1.0
 41
0.18
 42
0.0625
 43
0.38
 44
0.18
 45
0.0
 46
0.0
 47
0.0
 48
0.0
140
0.18
141
0.09
142
0.0
143
25.399999999999999
144
1.0
145
0.0
146
1.0
147
0.09
 71
     0
 72
     0
 73
     1
 74
     1
 75
     0
 76
     0
 77
     0
 78
     0
170
     0
171
     2
172
     0
173
     0
174
     0
175
     0
176
     0
177
     0
178
     0
  0
DIMSTYLE
  2
ANNOTATIVE
 70
     0
  3

  4

  5

  6

  7

 40
1.0
 41
0.18
 42
0.0625
 43
0.38
 44
0.18
 45
0.0
 46
0.0
 47
0.0
 48
0.0
140
0.18
141
0.09
142
0.0
143
25.399999999999999
144
1.0
145
0.0
146
1.0
147
0.09
 71
     0
 72
     0
 73
     1
 74
     1
 75
     0
 76
     0
 77
     0
 78
     0
170
     0
171
     2
172
     0
173
     0
174
     0
175
     0
176
     0
177
     0
178
     0
  0
ENDTAB
  0
ENDSEC
  0
SECTION
  2
BLOCKS
  0
BLOCK
  8
0
  2
$MODEL_SPACE
 70
     0
 10
0.0
 20
0.0
 30
0.0
  3
$MODEL_SPACE
  1

  0
ENDBLK
  5
76
  8
0
  0
BLOCK
 67
     1
  8
0
  2
$PAPER_SPACE
 70
     0
 10
0.0
 20
0.0
 30
0.0
  3
$PAPER_SPACE
  1

  0
ENDBLK
  5
72
 67
     1
  8
0
  0
BLOCK
  8
0
  2
DOT1
 70
     0
 10
0.0
 20
0.0
 30
0.0
  3
DOT1
  1

  0
CIRCLE
  5
8B
  8
SIZE
  6
CONTINUOUS
 62
     7
 10
0.0
 20
0.0
 30
0.0
 40
3.0
  0
ENDBLK
  5
8C
  8
0
  0
BLOCK
  8
0
  2
_ORIGIN
 70
     0
 10
0.0
 20
0.0
 30
0.0
  3
_ORIGIN
  1

  0
CIRCLE
  5
8F
  8
0
  6
CONTINUOUS
 62
     7
 10
0.0
 20
0.0
 30
0.0
 40
0.5
  0
LINE
  5
90
  8
0
  6
CONTINUOUS
 62
     7
 10
0.0
 20
0.0
 30
0.0
 11
-1.0
 21
0.0
 31
0.0
  0
ENDBLK
  5
91
  8
0
  0
ENDSEC
  0
SECTION
  2
ENTITIES
  0
TEXT
  5
92
  8
NOTE
  6
CONTINUOUS
 62
     4
 10
-935.21028000000001
 20
427.14809400000001
 30
0.0
 40
64.0
  1
AH 12-φ12×20
 41
0.9
  0
LINE
  5
93
  8
NOTE
  6
CONTINUOUS
 62
     4
 10
-275.35613799999999
 20
391.40389500000009
 30
0.0
 11
-957.70128699999987
 21
391.40389500000009
 31
0.0
  0
LINE
  5
96
  8
DETAIL
  6
CONTINUOUS
 62
     5
 10
0.0
 20
190.0
 30
0.0
 11
112.5
 21
190.0
 31
0.0
  0
LINE
  5
97
  8
DETAIL
  6
CONTINUOUS
 62
     5
 10
87.5
 20
-186.110929
 30
0.0
 11
-87.499999000000003
 21
-186.110929
 31
0.0
  0
LINE
  5
98
  8
DETAIL
  6
CONTINUOUS
 62
     5
 10
-112.499999
 20
1.670833
 30
0.0
 11
-112.499999
 21
-190.0
 31
0.0
  0
LINE
  5
99
  8
DETAIL
  6
CONTINUOUS
 62
     5
 10
-112.499999
 20
189.0
 30
0.0
 11
-112.499999
 21
188.19999999999999
 31
0.0
  0
LINE
  5
9A
  8
DETAIL
  6
CONTINUOUS
 62
     5
 10
-112.499999
 20
-188.19999999999999
 30
0.0
 11
-112.499999
 21
-189.0
 31
0.0
  0
LINE
  5
9B
  8
DETAIL
  6
CONTINUOUS
 62
     5
 10
-87.499999000000003
 20
-190.0
 30
0.0
 11
-112.499999
 21
-190.0
 31
0.0
  0
LINE
  5
9C
  8
DETAIL
  6
CONTINUOUS
 62
     5
 10
112.5
 20
168.42813100000001
 30
0.0
 11
112.5
 21
-61.620902000000001
 31
0.0
  0
LINE
  5
9D
  8
DETAIL
  6
CONTINUOUS
 62
     5
 10
112.5
 20
190.0
 30
0.0
 11
112.5
 21
168.32916700000001
 31
0.0
  0
LINE
  5
9E
  8
DETAIL
  6
CONTINUOUS
 62
     5
 10
87.5
 20
-190.0
 30
0.0
 11
112.5
 21
-190.0
 31
0.0
  0
LINE
  5
9F
  8
DETAIL
  6
CONTINUOUS
 62
     5
 10
112.5
 20
-61.620902000000001
 30
0.0
 11
112.5
 21
-190.0
 31
0.0
  0
LINE
  5
A0
  8
DETAIL
  6
CONTINUOUS
 62
     5
 10
-112.499999
 20
173.32825199999999
 30
0.0
 11
-112.499999
 21
185.19999999999999
 31
0.0
  0
LINE
  5
A1
  8
BASIS
  6
DASHDOT
 62
     6
 10
0.0
 20
253.72692599999999
 30
0.0
 11
0.0
 21
-227.03272699999999
 31
0.0
  0
LINE
  5
A2
  8
DETAIL
  6
CONTINUOUS
 62
     5
 10
177.46313000000001
 20
120.261656
 30
0.0
 11
177.46313000000001
 21
97.761655000000005
 31
0.0
  0
ARC
  5
A3
  8
DETAIL
  6
CONTINUOUS
 62
     5
 10
172.46313000000001
 20
120.261656
 30
0.0
 40
5.0
 50
0.0
 51
90.0
  0
LINE
  5
A4
  8
DETAIL
  6
CONTINUOUS
 62
     5
 10
172.46313000000001
 20
125.261656
 30
0.0
 11
141.97712999999999
 21
125.261656
 31
0.0
  0
ARC
  5
A5
  8
DETAIL
  6
CONTINUOUS
 62
     5
 10
172.46313000000001
 20
97.761655000000005
 30
0.0
 40
5.0
 50
270.0
 51
0.0
  0
LINE
  5
A6
  8
DETAIL
  6
CONTINUOUS
 62
     5
 10
172.46313000000001
 20
92.761655000000005
 30
0.0
 11
141.97712999999999
 21
92.761655000000005
 31
0.0
  0
LINE
  5
A7
  8
BASIS
  6
DASHDOT
 62
     6
 10
249.21107599999999
 20
0.0
 30
0.0
 11
-171.15260499999999
 21
0.0
 31
0.0
  0
LINE
  5
A8
  8
NOTE
  6
CONTINUOUS
 62
     4
 10
-102.5
 20
190.0
 30
0.0
 11
-275.35613799999999
 21
391.40389500000009
 31
0.0
  0
LINE
  5
A9
  8
NOTE
  6
CONTINUOUS
 62
     4
 10
-135.504198
 20
212.59917999999999
 30
0.0
 11
-102.5
 21
190.0
 31
0.0
  0
LINE
  5
AA
  8
NOTE
  6
CONTINUOUS
 62
     4
 10
-102.5
 20
190.0
 30
0.0
 11
-119.782883
 21
226.07356300000001
 31
0.0
  0
LINE
  5
AB
  8
DETAIL
  6
CONTINUOUS
 62
     5
 10
136.97712999999999
 20
135.42813100000001
 30
0.0
 11
136.97712999999999
 21
88.935547000000014
 31
0.0
  0
LINE
  5
AC
  8
DETAIL
  6
CONTINUOUS
 62
     5
 10
128.97712999999999
 20
143.42813100000001
 30
0.0
 11
112.5
 21
143.42813100000001
 31
0.0
  0
LINE
  5
AD
  8
DETAIL
  6
CONTINUOUS
 62
     5
 10
128.97712999999999
 20
-156.57186899999999
 30
0.0
 11
112.5
 21
-156.57186899999999
 31
0.0
  0
LINE
  5
AE
  8
DETAIL
  6
CONTINUOUS
 62
     5
 10
141.97712999999999
 20
131.26165599999999
 30
0.0
 11
141.97712999999999
 21
87.261655000000005
 31
0.0
  0
ARC
  5
AF
  8
DETAIL
  6
CONTINUOUS
 62
     5
 10
128.97712999999999
 20
-148.57186899999999
 30
0.0
 40
8.0
 50
270.0
 51
0.0
  0
ARC
  5
B0
  8
DETAIL
  6
CONTINUOUS
 62
     5
 10
128.97712999999999
 20
135.42813100000001
 30
0.0
 40
8.0
 50
0.0
 51
90.0
  0
LINE
  5
B1
  8
DETAIL
  6
CONTINUOUS
 62
     5
 10
141.97712999999999
 20
87.261655000000005
 30
0.0
 11
136.97712999999999
 21
87.261655000000005
 31
0.0
  0
LINE
  5
B2
  8
DETAIL
  6
CONTINUOUS
 62
     5
 10
141.97712999999999
 20
131.26165599999999
 30
0.0
 11
136.97712999999999
 21
131.26165599999999
 31
0.0
  0
LINE
  5
B3
  8
DETAIL
  6
CONTINUOUS
 62
     5
 10
87.5
 20
190.0
 30
0.0
 11
87.5
 21
-190.0
 31
0.0
  0
LINE
  5
B4
  8
DETAIL
  6
CONTINUOUS
 62
     5
 10
-87.499999000000003
 20
190.0
 30
0.0
 11
-87.499999000000003
 21
-190.0
 31
0.0
  0
LINE
  5
B5
  8
NOTE
  6
CONTINUOUS
 62
     4
 10
-102.5
 20
-210.0
 30
0.0
 11
-102.5
 21
-170.0
 31
0.0
  0
LINE
  5
B6
  8
NOTE
  6
CONTINUOUS
 62
     4
 10
-82.5
 20
-190.0
 30
0.0
 11
-122.5
 21
-190.0
 31
0.0
  0
LINE
  5
B7
  8
NOTE
  6
CONTINUOUS
 62
     4
 10
102.5
 20
-210.0
 30
0.0
 11
102.5
 21
-170.0
 31
0.0
  0
LINE
  5
B8
  8
NOTE
  6
CONTINUOUS
 62
     4
 10
122.5
 20
-190.0
 30
0.0
 11
82.5
 21
-190.0
 31
0.0
  0
LINE
  5
B9
  8
NOTE
  6
CONTINUOUS
 62
     4
 10
102.5
 20
210.0
 30
0.0
 11
102.5
 21
170.0
 31
0.0
  0
LINE
  5
BA
  8
NOTE
  6
CONTINUOUS
 62
     4
 10
122.5
 20
190.0
 30
0.0
 11
82.5
 21
190.0
 31
0.0
  0
LINE
  5
BB
  8
NOTE
  6
CONTINUOUS
 62
     4
 10
-102.5
 20
210.0
 30
0.0
 11
-102.5
 21
170.0
 31
0.0
  0
LINE
  5
BC
  8
NOTE
  6
CONTINUOUS
 62
     4
 10
-82.5
 20
190.0
 30
0.0
 11
-122.5
 21
190.0
 31
0.0
  0
CIRCLE
  5
BD
  8
FIX
  6
CONTINUOUS
 62
    11
 10
-102.5
 20
190.0
 30
0.0
 40
6.0
  0
CIRCLE
  5
BE
  8
FIX
  6
CONTINUOUS
 62
    11
 10
102.5
 20
190.0
 30
0.0
 40
6.0
  0
CIRCLE
  5
BF
  8
FIX
  6
CONTINUOUS
 62
    11
 10
-102.5
 20
-190.0
 30
0.0
 40
6.0
  0
CIRCLE
  5
C0
  8
FIX
  6
CONTINUOUS
 62
    11
 10
102.5
 20
-190.0
 30
0.0
 40
6.0
  0
LINE
  5
C1
  8
DETAIL
  6
CONTINUOUS
 62
     5
 10
94.677978999999993
 20
-190.0
 30
0.0
 11
112.5
 21
-190.0
 31
0.0
  0
LINE
  5
C2
  8
BASIS
  6
DASHDOT
 62
     6
 10
-99.78998
 20
-24.5
 30
0.0
 11
-132.58262099999999
 21
-24.5
 31
0.0
  0
LINE
  5
C3
  8
DETAIL
  6
CONTINUOUS
 62
     5
 10
0.0
 20
190.0
 30
0.0
 11
-112.5
 21
190.0
 31
0.0
  0
LINE
  5
C4
  8
DETAIL
  6
CONTINUOUS
 62
     5
 10
-112.5
 20
190.0
 30
0.0
 11
-112.5
 21
1.670833
 31
0.0
  0
LINE
  5
C5
  8
DETAIL
  6
CONTINUOUS
 62
     5
 10
136.97712999999999
 20
113.935547
 30
0.0
 11
136.97712999999999
 21
-148.57186899999999
 31
0.0
  0
LINE
  5
C6
  8
SIZE
  6
CONTINUOUS
 62
    30
 10
-87.499999000000003
 20
-210.0
 30
0.0
 11
-87.499999000000003
 21
-378.68254400000001
 31
0.0
  0
LINE
  5
C7
  8
SIZE
  6
CONTINUOUS
 62
    30
 10
-112.499999
 20
-208.19999999999999
 30
0.0
 11
-112.499999
 21
-378.68254400000001
 31
0.0
  0
LINE
  5
C8
  8
SIZE
  6
CONTINUOUS
 62
    30
 10
-75.499999000000003
 20
-358.68254400000001
 30
0.0
 11
-63.499999000000003
 21
-358.68254400000001
 31
0.0
  0
LINE
  5
C9
  8
SIZE
  6
CONTINUOUS
 62
    30
 10
-124.499999
 20
-358.68254400000001
 30
0.0
 11
-136.499999
 21
-358.68254400000001
 31
0.0
  0
TEXT
  5
CA
  8
SIZE
  6
CONTINUOUS
 62
    30
 10
-246.26569542857141
 20
-336.242704
 30
0.0
 40
64.0
  1
25
 41
0.9
 72
     1
 11
-199.637124
 21
-336.242704
 31
0.0
  0
LINE
  5
CB
  8
SIZE
  6
CONTINUOUS
 62
    30
 10
-87.499999000000003
 20
-358.68254400000001
 30
0.0
 11
-112.499999
 21
-358.68254400000001
 31
0.0
  0
LINE
  5
CC
  8
SIZE
  6
CONTINUOUS
 62
    30
 10
-87.499999000000003
 20
-358.68254400000001
 30
0.0
 11
-112.499999
 21
-358.68254400000001
 31
0.0
  0
CIRCLE
  5
CD
  8
SIZE
  6
CONTINUOUS
 62
    30
 10
-87.499999000000003
 20
-358.68254400000001
 30
0.0
 40
6.0
  0
LINE
  5
CE
  8
SIZE
  6
CONTINUOUS
 62
    30
 10
-87.499999000000003
 20
-358.68254400000001
 30
0.0
 11
-75.499999000000003
 21
-358.68254400000001
 31
0.0
  0
CIRCLE
  5
CF
  8
SIZE
  6
CONTINUOUS
 62
    30
 10
-112.499999
 20
-358.68254400000001
 30
0.0
 40
6.0
  0
LINE
  5
D0
  8
SIZE
  6
CONTINUOUS
 62
    30
 10
-112.499999
 20
-358.68254400000001
 30
0.0
 11
-124.499999
 21
-358.68254400000001
 31
0.0
  0
POINT
  5
D1
  8
DEFPOINTS
  6
CONTINUOUS
 62
    30
 10
-87.499999000000003
 20
-190.0
 30
0.0
  0
POINT
  5
D2
  8
DEFPOINTS
  6
CONTINUOUS
 62
    30
 10
-112.499999
 20
-188.19999999999999
 30
0.0
  0
POINT
  5
D3
  8
DEFPOINTS
  6
CONTINUOUS
 62
    30
 10
-112.499999
 20
-358.68254400000001
 30
0.0
  0
LINE
  5
D4
  8
SIZE
  6
CONTINUOUS
 62
    30
 10
87.5
 20
-210.0
 30
0.0
 11
87.5
 21
-378.68254400000001
 31
0.0
  0
LINE
  5
D5
  8
SIZE
  6
CONTINUOUS
 62
    30
 10
112.5
 20
-210.0
 30
0.0
 11
112.5
 21
-378.68254400000001
 31
0.0
  0
LINE
  5
D6
  8
SIZE
  6
CONTINUOUS
 62
    30
 10
75.5
 20
-358.68254400000001
 30
0.0
 11
63.5
 21
-358.68254400000001
 31
0.0
  0
LINE
  5
D7
  8
SIZE
  6
CONTINUOUS
 62
    30
 10
124.5
 20
-358.68254400000001
 30
0.0
 11
136.5
 21
-358.68254400000001
 31
0.0
  0
LINE
  5
D8
  8
SIZE
  6
CONTINUOUS
 62
    30
 10
340.36886299999998
 20
-358.68254400000001
 30
0.0
 11
112.5
 21
-358.68254400000001
 31
0.0
  0
TEXT
  5
D9
  8
SIZE
  6
CONTINUOUS
 62
    30
 10
222.11172057142861
 20
-333.68254400000001
 30
0.0
 40
64.0
  1
25
 41
0.9
 72
     1
 11
268.74029200000001
 21
-333.68254400000001
 31
0.0
  0
LINE
  5
DA
  8
SIZE
  6
CONTINUOUS
 62
    30
 10
87.5
 20
-358.68254400000001
 30
0.0
 11
112.5
 21
-358.68254400000001
 31
0.0
  0
LINE
  5
DB
  8
SIZE
  6
CONTINUOUS
 62
    30
 10
87.5
 20
-358.68254400000001
 30
0.0
 11
112.5
 21
-358.68254400000001
 31
0.0
  0
CIRCLE
  5
DC
  8
SIZE
  6
CONTINUOUS
 62
    30
 10
87.5
 20
-358.68254400000001
 30
0.0
 40
6.0
  0
LINE
  5
DD
  8
SIZE
  6
CONTINUOUS
 62
    30
 10
87.5
 20
-358.68254400000001
 30
0.0
 11
75.5
 21
-358.68254400000001
 31
0.0
  0
CIRCLE
  5
DE
  8
SIZE
  6
CONTINUOUS
 62
    30
 10
112.5
 20
-358.68254400000001
 30
0.0
 40
6.0
  0
LINE
  5
DF
  8
SIZE
  6
CONTINUOUS
 62
    30
 10
112.5
 20
-358.68254400000001
 30
0.0
 11
124.5
 21
-358.68254400000001
 31
0.0
  0
POINT
  5
E0
  8
DEFPOINTS
  6
CONTINUOUS
 62
    30
 10
87.5
 20
-190.0
 30
0.0
  0
POINT
  5
E1
  8
DEFPOINTS
  6
CONTINUOUS
 62
    30
 10
112.5
 20
-190.0
 30
0.0
  0
POINT
  5
E2
  8
DEFPOINTS
  6
CONTINUOUS
 62
    30
 10
112.5
 20
-358.68254400000001
 30
0.0
  0
LINE
  5
E3
  8
SIZE
  6
CONTINUOUS
 62
    30
 10
102.5
 20
-230.0
 30
0.0
 11
102.5
 21
-516.51512200000002
 31
0.0
  0
LINE
  5
E4
  8
SIZE
  6
CONTINUOUS
 62
    30
 10
-102.5
 20
-230.0
 30
0.0
 11
-102.5
 21
-516.51512200000002
 31
0.0
  0
LINE
  5
E5
  8
SIZE
  6
CONTINUOUS
 62
    30
 10
90.5
 20
-496.51512200000002
 30
0.0
 11
-90.5
 21
-496.51512200000002
 31
0.0
  0
TEXT
  5
E6
  8
SIZE
  6
CONTINUOUS
 62
    30
 10
-74.05714285714285
 20
-475.12030099999998
 30
0.0
 40
64.0
  1
205
 41
0.9
 72
     1
 11
0.0
 21
-475.12030099999998
 31
0.0
  0
CIRCLE
  5
E7
  8
SIZE
  6
CONTINUOUS
 62
    30
 10
102.5
 20
-496.51512200000002
 30
0.0
 40
6.0
  0
LINE
  5
E8
  8
SIZE
  6
CONTINUOUS
 62
    30
 10
102.5
 20
-496.51512200000002
 30
0.0
 11
90.5
 21
-496.51512200000002
 31
0.0
  0
CIRCLE
  5
E9
  8
SIZE
  6
CONTINUOUS
 62
    30
 10
-102.5
 20
-496.51512200000002
 30
0.0
 40
6.0
  0
LINE
  5
EA
  8
SIZE
  6
CONTINUOUS
 62
    30
 10
-102.5
 20
-496.51512200000002
 30
0.0
 11
-90.5
 21
-496.51512200000002
 31
0.0
  0
POINT
  5
EB
  8
DEFPOINTS
  6
CONTINUOUS
 62
    30
 10
102.5
 20
-210.0
 30
0.0
  0
POINT
  5
EC
  8
DEFPOINTS
  6
CONTINUOUS
 62
    30
 10
-102.5
 20
-210.0
 30
0.0
  0
POINT
  5
ED
  8
DEFPOINTS
  6
CONTINUOUS
 62
    30
 10
-102.5
 20
-496.51512200000002
 30
0.0
  0
LINE
  5
EE
  8
SIZE
  6
CONTINUOUS
 62
    30
 10
-114.499999
 20
-358.68254400000001
 30
0.0
 11
-262.917036
 21
-358.68254400000001
 31
0.0
  0
LINE
  5
EF
  8
SIZE
  6
CONTINUOUS
 62
    30
 10
112.5
 20
-358.68254400000001
 30
0.0
 11
325.26341000000002
 21
-358.68254400000001
 31
0.0
  0
LINE
  5
F0
  8
SIZE
  6
CONTINUOUS
 62
    30
 10
102.5
 20
230.0
 30
0.0
 11
102.5
 21
348.31085400000001
 31
0.0
  0
LINE
  5
F1
  8
SIZE
  6
CONTINUOUS
 62
    30
 10
-102.5
 20
230.0
 30
0.0
 11
-102.5
 21
348.31085400000001
 31
0.0
  0
LINE
  5
F2
  8
SIZE
  6
CONTINUOUS
 62
    30
 10
90.5
 20
328.31085400000001
 30
0.0
 11
-90.5
 21
328.31085400000001
 31
0.0
  0
TEXT
  5
F3
  8
SIZE
  6
CONTINUOUS
 62
    30
 10
-74.05714285714285
 20
350.167079
 30
0.0
 40
64.0
  1
205
 41
0.9
 72
     1
 11
0.0
 21
350.167079
 31
0.0
  0
CIRCLE
  5
F4
  8
SIZE
  6
CONTINUOUS
 62
    30
 10
102.5
 20
328.31085400000001
 30
0.0
 40
6.0
  0
LINE
  5
F5
  8
SIZE
  6
CONTINUOUS
 62
    30
 10
102.5
 20
328.31085400000001
 30
0.0
 11
90.5
 21
328.31085400000001
 31
0.0
  0
CIRCLE
  5
F6
  8
SIZE
  6
CONTINUOUS
 62
    30
 10
-102.5
 20
328.31085400000001
 30
0.0
 40
6.0
  0
LINE
  5
F7
  8
SIZE
  6
CONTINUOUS
 62
    30
 10
-102.5
 20
328.31085400000001
 30
0.0
 11
-90.5
 21
328.31085400000001
 31
0.0
  0
POINT
  5
F8
  8
DEFPOINTS
  6
CONTINUOUS
 62
    30
 10
102.5
 20
210.0
 30
0.0
  0
POINT
  5
F9
  8
DEFPOINTS
  6
CONTINUOUS
 62
    30
 10
-102.5
 20
210.0
 30
0.0
  0
POINT
  5
FA
  8
DEFPOINTS
  6
CONTINUOUS
 62
    30
 10
-102.5
 20
328.31085400000001
 30
0.0
  0
LINE
  5
FB
  8
SIZE
  6
CONTINUOUS
 62
    30
 10
-112.499999
 20
208.19999999999999
 30
0.0
 11
-112.499999
 21
471.07567299999999
 31
0.0
  0
LINE
  5
FC
  8
SIZE
  6
CONTINUOUS
 62
    30
 10
112.5
 20
210.0
 30
0.0
 11
112.5
 21
471.07567299999999
 31
0.0
  0
LINE
  5
FD
  8
SIZE
  6
CONTINUOUS
 62
    30
 10
-100.499999
 20
451.07567299999999
 30
0.0
 11
100.5
 21
451.07567299999999
 31
0.0
  0
TEXT
  5
FE
  8
SIZE
  6
CONTINUOUS
 62
    30
 10
-74.05714285714285
 20
477.84260599999988
 30
0.0
 40
64.0
  1
225
 41
0.9
 72
     1
 11
0.0
 21
477.84260599999988
 31
0.0
  0
CIRCLE
  5
FF
  8
SIZE
  6
CONTINUOUS
 62
    30
 10
-112.499999
 20
451.07567299999999
 30
0.0
 40
6.0
  0
LINE
  5
100
  8
SIZE
  6
CONTINUOUS
 62
    30
 10
-112.499999
 20
451.07567299999999
 30
0.0
 11
-100.499999
 21
451.07567299999999
 31
0.0
  0
CIRCLE
  5
101
  8
SIZE
  6
CONTINUOUS
 62
    30
 10
112.5
 20
451.07567299999999
 30
0.0
 40
6.0
  0
LINE
  5
102
  8
SIZE
  6
CONTINUOUS
 62
    30
 10
112.5
 20
451.07567299999999
 30
0.0
 11
100.5
 21
451.07567299999999
 31
0.0
  0
POINT
  5
103
  8
DEFPOINTS
  6
CONTINUOUS
 62
    30
 10
-112.499999
 20
188.19999999999999
 30
0.0
  0
POINT
  5
104
  8
DEFPOINTS
  6
CONTINUOUS
 62
    30
 10
112.5
 20
190.0
 30
0.0
  0
POINT
  5
105
  8
DEFPOINTS
  6
CONTINUOUS
 62
    30
 10
112.5
 20
451.07567299999999
 30
0.0
  0
LINE
  5
106
  8
SIZE
  6
CONTINUOUS
 62
    30
 10
-132.5
 20
190.0
 30
0.0
 11
-456.40291300000001
 21
190.0
 31
0.0
  0
LINE
  5
107
  8
SIZE
  6
CONTINUOUS
 62
    30
 10
-132.499999
 20
-190.0
 30
0.0
 11
-456.40291300000001
 21
-190.0
 31
0.0
  0
LINE
  5
108
  8
SIZE
  6
CONTINUOUS
 62
    30
 10
-436.40291300000001
 20
178.0
 30
0.0
 11
-436.40291300000001
 21
-178.0
 31
0.0
  0
TEXT
  5
109
  8
SIZE
  6
CONTINUOUS
 62
    30
 10
-459.06907199999989
 20
-74.057142857142836
 30
0.0
 40
64.0
  1
380
 50
90.0
 41
0.9
 72
     1
 11
-459.06907199999989
 21
0.0
 31
0.0
  0
CIRCLE
  5
10A
  8
SIZE
  6
CONTINUOUS
 62
    30
 10
-436.40291300000001
 20
190.0
 30
0.0
 40
6.0
  0
LINE
  5
10B
  8
SIZE
  6
CONTINUOUS
 62
    30
 10
-436.40291300000001
 20
190.0
 30
0.0
 11
-436.40291300000001
 21
178.0
 31
0.0
  0
CIRCLE
  5
10C
  8
SIZE
  6
CONTINUOUS
 62
    30
 10
-436.40291300000001
 20
-190.0
 30
0.0
 40
6.0
  0
LINE
  5
10D
  8
SIZE
  6
CONTINUOUS
 62
    30
 10
-436.40291300000001
 20
-190.0
 30
0.0
 11
-436.40291300000001
 21
-178.0
 31
0.0
  0
POINT
  5
10E
  8
DEFPOINTS
  6
CONTINUOUS
 62
    30
 10
-112.5
 20
190.0
 30
0.0
  0
POINT
  5
10F
  8
DEFPOINTS
  6
CONTINUOUS
 62
    30
 10
-112.499999
 20
-190.0
 30
0.0
  0
POINT
  5
110
  8
DEFPOINTS
  6
CONTINUOUS
 62
    30
 10
-436.40291300000001
 20
-190.0
 30
0.0
  0
POINT
  5
111
  8
ARRANGE
  6
CONTINUOUS
 62
     1
 10
0.0
 20
0.0
 30
0.0
  0
CIRCLE
  5
112
  8
ARRANGE
  6
CONTINUOUS
 62
     1
 10
0.0
 20
0.0
 30
0.0
 40
40.0
  0
CIRCLE
  5
113
  8
FIX
  6
CONTINUOUS
 62
    11
 10
-102.5
 20
150.0
 30
0.0
 40
6.0
  0
ARC
  5
114
  8
DETAIL
  6
CONTINUOUS
 62
     5
 10
-102.5
 20
150.0
 30
0.0
 40
10.0
 50
53.130102000000001
 51
126.86989800000001
  0
ARC
  5
115
  8
DETAIL
  6
CONTINUOUS
 62
     5
 10
-102.5
 20
150.0
 30
0.0
 40
10.0
 50
233.13010199999999
 51
306.86989799999998
  0
LINE
  5
116
  8
DETAIL
  6
CONTINUOUS
 62
     5
 10
-108.5
 20
158.0
 30
0.0
 11
-108.5
 21
142.0
 31
0.0
  0
LINE
  5
117
  8
DETAIL
  6
CONTINUOUS
 62
     5
 10
-96.5
 20
158.0
 30
0.0
 11
-96.5
 21
142.0
 31
0.0
  0
LINE
  5
118
  8
NOTE
  6
CONTINUOUS
 62
     4
 10
-102.5
 20
170.0
 30
0.0
 11
-102.5
 21
130.0
 31
0.0
  0
LINE
  5
119
  8
NOTE
  6
CONTINUOUS
 62
     4
 10
-82.5
 20
150.0
 30
0.0
 11
-122.5
 21
150.0
 31
0.0
  0
LINE
  5
11A
  8
DETAIL
  6
CONTINUOUS
 62
     5
 10
108.5
 20
158.0
 30
0.0
 11
108.5
 21
142.0
 31
0.0
  0
LINE
  5
11B
  8
DETAIL
  6
CONTINUOUS
 62
     5
 10
96.5
 20
158.0
 30
0.0
 11
96.5
 21
142.0
 31
0.0
  0
ARC
  5
11C
  8
DETAIL
  6
CONTINUOUS
 62
     5
 10
102.5
 20
150.0
 30
0.0
 40
10.0
 50
233.13010199999999
 51
306.86989799999998
  0
ARC
  5
11D
  8
DETAIL
  6
CONTINUOUS
 62
     5
 10
102.5
 20
150.0
 30
0.0
 40
10.0
 50
53.130102000000001
 51
126.86989800000001
  0
CIRCLE
  5
11E
  8
FIX
  6
CONTINUOUS
 62
    11
 10
102.5
 20
150.0
 30
0.0
 40
6.0
  0
LINE
  5
11F
  8
NOTE
  6
CONTINUOUS
 62
     4
 10
102.5
 20
170.0
 30
0.0
 11
102.5
 21
130.0
 31
0.0
  0
LINE
  5
120
  8
NOTE
  6
CONTINUOUS
 62
     4
 10
122.5
 20
150.0
 30
0.0
 11
82.5
 21
150.0
 31
0.0
  0
LINE
  5
121
  8
DETAIL
  6
CONTINUOUS
 62
     5
 10
-96.5
 20
-158.0
 30
0.0
 11
-96.5
 21
-142.0
 31
0.0
  0
LINE
  5
122
  8
DETAIL
  6
CONTINUOUS
 62
     5
 10
-108.5
 20
-158.0
 30
0.0
 11
-108.5
 21
-142.0
 31
0.0
  0
ARC
  5
123
  8
DETAIL
  6
CONTINUOUS
 62
     5
 10
-102.5
 20
-150.0
 30
0.0
 40
10.0
 50
53.130102000000001
 51
126.86989800000001
  0
ARC
  5
124
  8
DETAIL
  6
CONTINUOUS
 62
     5
 10
-102.5
 20
-150.0
 30
0.0
 40
10.0
 50
233.13010199999999
 51
306.86989799999998
  0
CIRCLE
  5
125
  8
FIX
  6
CONTINUOUS
 62
    11
 10
-102.5
 20
-150.0
 30
0.0
 40
6.0
  0
LINE
  5
126
  8
NOTE
  6
CONTINUOUS
 62
     4
 10
-102.5
 20
-170.0
 30
0.0
 11
-102.5
 21
-130.0
 31
0.0
  0
LINE
  5
127
  8
NOTE
  6
CONTINUOUS
 62
     4
 10
-82.5
 20
-150.0
 30
0.0
 11
-122.5
 21
-150.0
 31
0.0
  0
CIRCLE
  5
128
  8
FIX
  6
CONTINUOUS
 62
    11
 10
102.5
 20
-150.0
 30
0.0
 40
6.0
  0
ARC
  5
129
  8
DETAIL
  6
CONTINUOUS
 62
     5
 10
102.5
 20
-150.0
 30
0.0
 40
10.0
 50
233.13010199999999
 51
306.86989799999998
  0
ARC
  5
12A
  8
DETAIL
  6
CONTINUOUS
 62
     5
 10
102.5
 20
-150.0
 30
0.0
 40
10.0
 50
53.130102000000001
 51
126.86989800000001
  0
LINE
  5
12B
  8
DETAIL
  6
CONTINUOUS
 62
     5
 10
96.5
 20
-158.0
 30
0.0
 11
96.5
 21
-142.0
 31
0.0
  0
LINE
  5
12C
  8
DETAIL
  6
CONTINUOUS
 62
     5
 10
108.5
 20
-158.0
 30
0.0
 11
108.5
 21
-142.0
 31
0.0
  0
LINE
  5
12D
  8
NOTE
  6
CONTINUOUS
 62
     4
 10
102.5
 20
-170.0
 30
0.0
 11
102.5
 21
-130.0
 31
0.0
  0
LINE
  5
12E
  8
NOTE
  6
CONTINUOUS
 62
     4
 10
122.5
 20
-150.0
 30
0.0
 11
82.5
 21
-150.0
 31
0.0
  0
LINE
  5
12F
  8
SIZE
  6
CONTINUOUS
 62
    30
 10
-142.5
 20
150.0
 30
0.0
 11
-336.08939700000002
 21
150.0
 31
0.0
  0
LINE
  5
130
  8
SIZE
  6
CONTINUOUS
 62
    30
 10
-142.5
 20
-150.0
 30
0.0
 11
-336.08939700000002
 21
-150.0
 31
0.0
  0
LINE
  5
131
  8
SIZE
  6
CONTINUOUS
 62
    30
 10
-316.08939700000002
 20
138.0
 30
0.0
 11
-316.08939700000002
 21
-138.0
 31
0.0
  0
TEXT
  5
132
  8
SIZE
  6
CONTINUOUS
 62
    30
 10
-335.05349100000001
 20
-74.05714285714285
 30
0.0
 40
64.0
  1
300
 50
90.0
 41
0.9
 72
     1
 11
-335.05349100000001
 21
0.0
 31
0.0
  0
CIRCLE
  5
133
  8
SIZE
  6
CONTINUOUS
 62
    30
 10
-316.08939700000002
 20
150.0
 30
0.0
 40
6.0
  0
LINE
  5
134
  8
SIZE
  6
CONTINUOUS
 62
    30
 10
-316.08939700000002
 20
150.0
 30
0.0
 11
-316.08939700000002
 21
138.0
 31
0.0
  0
CIRCLE
  5
135
  8
SIZE
  6
CONTINUOUS
 62
    30
 10
-316.08939700000002
 20
-150.0
 30
0.0
 40
6.0
  0
LINE
  5
136
  8
SIZE
  6
CONTINUOUS
 62
    30
 10
-316.08939700000002
 20
-150.0
 30
0.0
 11
-316.08939700000002
 21
-138.0
 31
0.0
  0
POINT
  5
137
  8
DEFPOINTS
  6
CONTINUOUS
 62
    30
 10
-122.5
 20
150.0
 30
0.0
  0
POINT
  5
138
  8
DEFPOINTS
  6
CONTINUOUS
 62
    30
 10
-122.5
 20
-150.0
 30
0.0
  0
POINT
  5
139
  8
DEFPOINTS
  6
CONTINUOUS
 62
    30
 10
-316.08939700000002
 20
-150.0
 30
0.0
  0
LINE
  5
13A
  8
SIZE
  6
CONTINUOUS
 62
    30
 10
132.5
 20
190.0
 30
0.0
 11
730.90115000000003
 21
190.0
 31
0.0
  0
LINE
  5
13B
  8
SIZE
  6
CONTINUOUS
 62
    30
 10
245.618866
 20
-27.5
 30
0.0
 11
730.90115000000003
 21
-27.5
 31
0.0
  0
LINE
  5
13C
  8
SIZE
  6
CONTINUOUS
 62
    30
 10
710.90115000000003
 20
178.0
 30
0.0
 11
710.90115000000003
 21
-15.5
 31
0.0
  0
TEXT
  5
13D
  8
SIZE
  6
CONTINUOUS
 62
    30
 10
684.55164699999989
 20
-270.5213667142857
 30
0.0
 40
64.0
  1
217.5
 50
90.0
 41
0.9
 72
     1
 11
684.55164699999989
 21
-160.80708100000001
 31
0.0
  0
CIRCLE
  5
13E
  8
SIZE
  6
CONTINUOUS
 62
    30
 10
710.90115000000003
 20
190.0
 30
0.0
 40
6.0
  0
LINE
  5
13F
  8
SIZE
  6
CONTINUOUS
 62
    30
 10
710.90115000000003
 20
190.0
 30
0.0
 11
710.90115000000003
 21
178.0
 31
0.0
  0
CIRCLE
  5
140
  8
SIZE
  6
CONTINUOUS
 62
    30
 10
710.90115000000003
 20
-27.5
 30
0.0
 40
6.0
  0
LINE
  5
141
  8
SIZE
  6
CONTINUOUS
 62
    30
 10
710.90115000000003
 20
-27.5
 30
0.0
 11
710.90115000000003
 21
-15.5
 31
0.0
  0
POINT
  5
142
  8
DEFPOINTS
  6
CONTINUOUS
 62
    30
 10
112.5
 20
190.0
 30
0.0
  0
POINT
  5
143
  8
DEFPOINTS
  6
CONTINUOUS
 62
    30
 10
225.618866
 20
-27.5
 30
0.0
  0
POINT
  5
144
  8
DEFPOINTS
  6
CONTINUOUS
 62
    30
 10
710.90115000000003
 20
-27.5
 30
0.0
  0
LINE
  5
145
  8
SIZE
  6
CONTINUOUS
 62
    30
 10
710.90115000000003
 20
-25.600000000000001
 30
0.0
 11
710.90115000000003
 21
-279.71257500000002
 31
0.0
  0
LINE
  5
146
  8
OUTLINE
  6
CONTINUOUS
 62
     3
 10
136.97712999999999
 20
113.935547
 30
0.0
 11
136.97712999999999
 21
-148.57186899999999
 31
0.0
  0
LINE
  5
147
  8
OUTLINE
  6
CONTINUOUS
 62
     3
 10
-112.5
 20
190.0
 30
0.0
 11
-112.5
 21
1.670833
 31
0.0
  0
LINE
  5
148
  8
OUTLINE
  6
CONTINUOUS
 62
     3
 10
0.0
 20
190.0
 30
0.0
 11
-112.5
 21
190.0
 31
0.0
  0
LINE
  5
149
  8
OUTLINE
  6
CONTINUOUS
 62
     3
 10
94.677978999999993
 20
-190.0
 30
0.0
 11
112.5
 21
-190.0
 31
0.0
  0
LINE
  5
14A
  8
OUTLINE
  6
CONTINUOUS
 62
     3
 10
-87.499999000000003
 20
190.0
 30
0.0
 11
-87.499999000000003
 21
-190.0
 31
0.0
  0
LINE
  5
14B
  8
OUTLINE
  6
CONTINUOUS
 62
     3
 10
87.5
 20
190.0
 30
0.0
 11
87.5
 21
-190.0
 31
0.0
  0
LINE
  5
14C
  8
OUTLINE
  6
CONTINUOUS
 62
     3
 10
141.97712999999999
 20
131.26165599999999
 30
0.0
 11
136.97712999999999
 21
131.26165599999999
 31
0.0
  0
LINE
  5
14D
  8
OUTLINE
  6
CONTINUOUS
 62
     3
 10
141.97712999999999
 20
87.261655000000005
 30
0.0
 11
136.97712999999999
 21
87.261655000000005
 31
0.0
  0
ARC
  5
14E
  8
OUTLINE
  6
CONTINUOUS
 62
     3
 10
128.97712999999999
 20
135.42813100000001
 30
0.0
 40
8.0
 50
0.0
 51
90.0
  0
ARC
  5
14F
  8
OUTLINE
  6
CONTINUOUS
 62
     3
 10
128.97712999999999
 20
-148.57186899999999
 30
0.0
 40
8.0
 50
270.0
 51
0.0
  0
LINE
  5
150
  8
OUTLINE
  6
CONTINUOUS
 62
     3
 10
141.97712999999999
 20
131.26165599999999
 30
0.0
 11
141.97712999999999
 21
87.261655000000005
 31
0.0
  0
LINE
  5
151
  8
OUTLINE
  6
CONTINUOUS
 62
     3
 10
128.97712999999999
 20
-156.57186899999999
 30
0.0
 11
112.5
 21
-156.57186899999999
 31
0.0
  0
LINE
  5
152
  8
OUTLINE
  6
CONTINUOUS
 62
     3
 10
128.97712999999999
 20
143.42813100000001
 30
0.0
 11
112.5
 21
143.42813100000001
 31
0.0
  0
LINE
  5
153
  8
OUTLINE
  6
CONTINUOUS
 62
     3
 10
136.97712999999999
 20
135.42813100000001
 30
0.0
 11
136.97712999999999
 21
88.935547000000014
 31
0.0
  0
LINE
  5
154
  8
OUTLINE
  6
CONTINUOUS
 62
     3
 10
172.46313000000001
 20
92.761655000000005
 30
0.0
 11
141.97712999999999
 21
92.761655000000005
 31
0.0
  0
ARC
  5
155
  8
OUTLINE
  6
CONTINUOUS
 62
     3
 10
172.46313000000001
 20
97.761655000000005
 30
0.0
 40
5.0
 50
270.0
 51
0.0
  0
LINE
  5
156
  8
OUTLINE
  6
CONTINUOUS
 62
     3
 10
172.46313000000001
 20
125.261656
 30
0.0
 11
141.97712999999999
 21
125.261656
 31
0.0
  0
ARC
  5
157
  8
OUTLINE
  6
CONTINUOUS
 62
     3
 10
172.46313000000001
 20
120.261656
 30
0.0
 40
5.0
 50
0.0
 51
90.0
  0
LINE
  5
158
  8
OUTLINE
  6
CONTINUOUS
 62
     3
 10
177.46313000000001
 20
120.261656
 30
0.0
 11
177.46313000000001
 21
97.761655000000005
 31
0.0
  0
LINE
  5
159
  8
OUTLINE
  6
CONTINUOUS
 62
     3
 10
-112.499999
 20
173.32825199999999
 30
0.0
 11
-112.499999
 21
185.19999999999999
 31
0.0
  0
LINE
  5
15A
  8
OUTLINE
  6
CONTINUOUS
 62
     3
 10
112.5
 20
-61.620902000000001
 30
0.0
 11
112.5
 21
-190.0
 31
0.0
  0
LINE
  5
15B
  8
OUTLINE
  6
CONTINUOUS
 62
     3
 10
87.5
 20
-190.0
 30
0.0
 11
112.5
 21
-190.0
 31
0.0
  0
LINE
  5
15C
  8
OUTLINE
  6
CONTINUOUS
 62
     3
 10
112.5
 20
190.0
 30
0.0
 11
112.5
 21
168.32916700000001
 31
0.0
  0
LINE
  5
15D
  8
OUTLINE
  6
CONTINUOUS
 62
     3
 10
112.5
 20
168.42813100000001
 30
0.0
 11
112.5
 21
-61.620902000000001
 31
0.0
  0
LINE
  5
15E
  8
OUTLINE
  6
CONTINUOUS
 62
     3
 10
-87.499999000000003
 20
-190.0
 30
0.0
 11
-112.499999
 21
-190.0
 31
0.0
  0
LINE
  5
15F
  8
OUTLINE
  6
CONTINUOUS
 62
     3
 10
-112.499999
 20
-188.19999999999999
 30
0.0
 11
-112.499999
 21
-189.0
 31
0.0
  0
LINE
  5
160
  8
OUTLINE
  6
CONTINUOUS
 62
     3
 10
-112.499999
 20
189.0
 30
0.0
 11
-112.499999
 21
188.19999999999999
 31
0.0
  0
LINE
  5
161
  8
OUTLINE
  6
CONTINUOUS
 62
     3
 10
-112.499999
 20
1.670833
 30
0.0
 11
-112.499999
 21
-190.0
 31
0.0
  0
LINE
  5
162
  8
OUTLINE
  6
CONTINUOUS
 62
     3
 10
87.5
 20
-186.110929
 30
0.0
 11
-87.499999000000003
 21
-186.110929
 31
0.0
  0
LINE
  5
163
  8
OUTLINE
  6
CONTINUOUS
 62
     3
 10
0.0
 20
190.0
 30
0.0
 11
112.5
 21
190.0
 31
0.0
  0
TEXT
  5
164
  8
NOTE
  6
CONTINUOUS
 62
     4
 10
-259.59854300000001
 20
-95.296603000000005
 30
0.0
 40
64.0
  1
入口
 41
0.9
  0
LINE
  5
165
  8
SIZE
  6
CONTINUOUS
 62
    30
 10
-112.499999
 20
-208.19999999999999
 30
0.0
 11
-112.499999
 21
-659.88459799999998
 31
0.0
  0
LINE
  5
166
  8
SIZE
  6
CONTINUOUS
 62
    30
 10
196.500001
 20
-110.34999999999999
 30
0.0
 11
196.500001
 21
-659.88459799999998
 31
0.0
  0
LINE
  5
167
  8
SIZE
  6
CONTINUOUS
 62
    30
 10
-100.499999
 20
-639.88459799999998
 30
0.0
 11
184.500001
 21
-639.88459799999998
 31
0.0
  0
CIRCLE
  5
168
  8
SIZE
  6
CONTINUOUS
 62
    30
 10
-112.499999
 20
-639.88459799999998
 30
0.0
 40
6.0
  0
LINE
  5
169
  8
SIZE
  6
CONTINUOUS
 62
    30
 10
-112.499999
 20
-639.88459799999998
 30
0.0
 11
-100.499999
 21
-639.88459799999998
 31
0.0
  0
CIRCLE
  5
16A
  8
SIZE
  6
CONTINUOUS
 62
    30
 10
196.500001
 20
-639.88459799999998
 30
0.0
 40
6.0
  0
LINE
  5
16B
  8
SIZE
  6
CONTINUOUS
 62
    30
 10
196.500001
 20
-639.88459799999998
 30
0.0
 11
184.500001
 21
-639.88459799999998
 31
0.0
  0
TEXT
  5
16C
  8
SIZE
  6
CONTINUOUS
 62
    30
 10
-30.685713285714289
 20
-614.88459799999998
 30
0.0
 40
64.0
  1
309
 41
0.9
 72
     1
 11
42.00000099999999
 21
-614.88459799999998
 31
0.0
  0
POINT
  5
16D
  8
DEFPOINTS
  6
CONTINUOUS
 62
    30
 10
-112.499999
 20
-188.19999999999999
 30
0.0
  0
POINT
  5
16E
  8
DEFPOINTS
  6
CONTINUOUS
 62
    30
 10
196.500001
 20
-90.349999999999994
 30
0.0
  0
POINT
  5
16F
  8
DEFPOINTS
  6
CONTINUOUS
 62
    30
 10
196.500001
 20
-639.88459799999998
 30
0.0
  0
LINE
  5
170
  8
SIZE
  6
CONTINUOUS
 62
    30
 10
214.000001
 20
37.75
 30
0.0
 11
580.56681700000001
 21
37.75
 31
0.0
  0
LINE
  5
171
  8
SIZE
  6
CONTINUOUS
 62
    30
 10
214.000001
 20
-92.75
 30
0.0
 11
580.56681700000001
 21
-92.75
 31
0.0
  0
LINE
  5
172
  8
SIZE
  6
CONTINUOUS
 62
    30
 10
560.56681700000001
 20
25.75
 30
0.0
 11
560.56681700000001
 21
-80.750000000000014
 31
0.0
  0
LINE
  5
173
  8
SIZE
  6
CONTINUOUS
 62
    30
 10
560.56681700000001
 20
-435.36797999999999
 30
0.0
 11
560.56681700000001
 21
-92.75
 31
0.0
  0
TEXT
  5
174
  8
SIZE
  6
CONTINUOUS
 62
    30
 10
535.56681700000001
 20
-424.63083671428558
 30
0.0
 40
64.0
  1
φ130.5
 50
90.0
 41
0.9
 72
     1
 11
535.56681700000001
 21
-274.59655099999998
 31
0.0
  0
CIRCLE
  5
175
  8
SIZE
  6
CONTINUOUS
 62
    30
 10
560.56681700000001
 20
37.75
 30
0.0
 40
6.0
  0
LINE
  5
176
  8
SIZE
  6
CONTINUOUS
 62
    30
 10
560.56681700000001
 20
37.75
 30
0.0
 11
560.56681700000001
 21
25.75
 31
0.0
  0
CIRCLE
  5
177
  8
SIZE
  6
CONTINUOUS
 62
    30
 10
560.56681700000001
 20
-92.75
 30
0.0
 40
6.0
  0
LINE
  5
178
  8
SIZE
  6
CONTINUOUS
 62
    30
 10
560.56681700000001
 20
-92.75
 30
0.0
 11
560.56681700000001
 21
-80.750000000000014
 31
0.0
  0
POINT
  5
179
  8
DEFPOINTS
  6
CONTINUOUS
 62
    30
 10
194.000001
 20
37.75
 30
0.0
  0
POINT
  5
17A
  8
DEFPOINTS
  6
CONTINUOUS
 62
    30
 10
194.000001
 20
-92.75
 30
0.0
  0
POINT
  5
17B
  8
DEFPOINTS
  6
CONTINUOUS
 62
    30
 10
560.56681700000001
 20
-92.75
 30
0.0
  0
LINE
  5
17C
  8
DETAIL
  6
CONTINUOUS
 62
     5
 10
172.69999999999999
 20
-179.647166
 30
0.0
 11
172.69999999999999
 21
-92.849999999999994
 31
0.0
  0
LINE
  5
17D
  8
DETAIL
  6
CONTINUOUS
 62
     5
 10
182.30000000000001
 20
-179.647166
 30
0.0
 11
182.30000000000001
 21
-92.849999999999994
 31
0.0
  0
LINE
  5
17E
  8
DETAIL
  6
CONTINUOUS
 62
     5
 10
172.69999999999999
 20
-179.647166
 30
0.0
 11
182.30000000000001
 21
-179.647166
 31
0.0
  0
ARC
  5
17F
  8
DETAIL
  6
CONTINUOUS
 62
     5
 10
0.0
 20
85.0
 30
0.0
 40
140.0
 50
348.07199300000002
 51
0.9256350000000001
  0
ARC
  5
180
  8
OUTLINE
  6
CONTINUOUS
 62
     3
 10
0.0
 20
85.0
 30
0.0
 40
140.0
 50
348.07199300000002
 51
0.9256350000000001
  0
ARC
  5
181
  8
DETAIL
  6
CONTINUOUS
 62
     5
 10
0.0
 20
85.0
 30
0.0
 40
140.0
 50
143.47251499999999
 51
216.52748500000001
  0
ARC
  5
182
  8
DETAIL
  6
CONTINUOUS
 62
     5
 10
0.0
 20
85.0
 30
0.0
 40
140.0
 50
48.590378000000001
 51
131.40962200000001
  0
ARC
  5
183
  8
DETAIL
  6
CONTINUOUS
 62
     5
 10
0.0
 20
85.0
 30
0.0
 40
140.0
 50
24.667003000000001
 51
36.527484999999999
  0
ARC
  5
184
  8
OUTLINE
  6
CONTINUOUS
 62
     3
 10
0.0
 20
85.0
 30
0.0
 40
140.0
 50
143.47251499999999
 51
216.52748500000001
  0
ARC
  5
185
  8
OUTLINE
  6
CONTINUOUS
 62
     3
 10
0.0
 20
85.0
 30
0.0
 40
140.0
 50
48.590378000000001
 51
131.40962200000001
  0
ARC
  5
186
  8
OUTLINE
  6
CONTINUOUS
 62
     3
 10
0.0
 20
85.0
 30
0.0
 40
140.0
 50
24.667003000000001
 51
36.527484999999999
  0
LINE
  5
187
  8
DETAIL
  6
CONTINUOUS
 62
     5
 10
196.500001
 20
35.25
 30
0.0
 11
196.500001
 21
-27.535710000000002
 31
0.0
  0
LINE
  5
188
  8
OUTLINE
  6
CONTINUOUS
 62
     3
 10
196.500001
 20
35.25
 30
0.0
 11
196.500001
 21
-27.535710000000002
 31
0.0
  0
LINE
  5
189
  8
DETAIL
  6
CONTINUOUS
 62
     5
 10
150.61881699999989
 20
38.25
 30
0.0
 11
150.61881699999989
 21
-27.464305
 31
0.0
  0
LINE
  5
18A
  8
DETAIL
  6
CONTINUOUS
 62
     5
 10
150.61881699999989
 20
13.74006
 30
0.0
 11
150.61881699999989
 21
-27.535724999999999
 31
0.0
  0
LINE
  5
18B
  8
OUTLINE
  6
CONTINUOUS
 62
     3
 10
150.61881699999989
 20
38.25
 30
0.0
 11
150.61881699999989
 21
-27.464305
 31
0.0
  0
LINE
  5
18C
  8
OUTLINE
  6
CONTINUOUS
 62
     3
 10
150.61881699999989
 20
13.74006
 30
0.0
 11
150.61881699999989
 21
-27.535724999999999
 31
0.0
  0
LINE
  5
18D
  8
DETAIL
  6
CONTINUOUS
 62
     5
 10
150.61881699999989
 20
-92.75
 30
0.0
 11
194.000001
 21
-92.75
 31
0.0
  0
LINE
  5
18E
  8
OUTLINE
  6
CONTINUOUS
 62
     3
 10
150.61881699999989
 20
-92.75
 30
0.0
 11
194.000001
 21
-92.75
 31
0.0
  0
LINE
  5
18F
  8
DETAIL
  6
CONTINUOUS
 62
     5
 10
150.61881699999989
 20
-92.75
 30
0.0
 11
150.61881699999989
 21
-27.535695
 31
0.0
  0
LINE
  5
190
  8
OUTLINE
  6
CONTINUOUS
 62
     3
 10
150.61881699999989
 20
-92.75
 30
0.0
 11
150.61881699999989
 21
-27.535695
 31
0.0
  0
LINE
  5
191
  8
DETAIL
  6
CONTINUOUS
 62
     5
 10
136.97712999999999
 20
-93.250000000000014
 30
0.0
 11
150.61881699999989
 21
-93.250000000000014
 31
0.0
  0
LINE
  5
192
  8
DETAIL
  6
CONTINUOUS
 62
     5
 10
150.61881699999989
 20
-93.250000000000014
 30
0.0
 11
150.61881699999989
 21
-92.75
 31
0.0
  0
LINE
  5
193
  8
OUTLINE
  6
CONTINUOUS
 62
     3
 10
136.97712999999999
 20
-93.250000000000014
 30
0.0
 11
150.61881699999989
 21
-93.250000000000014
 31
0.0
  0
LINE
  5
194
  8
OUTLINE
  6
CONTINUOUS
 62
     3
 10
150.61881699999989
 20
-93.250000000000014
 30
0.0
 11
150.61881699999989
 21
-92.75
 31
0.0
  0
LINE
  5
195
  8
DETAIL
  6
CONTINUOUS
 62
     5
 10
196.500001
 20
-90.25
 30
0.0
 11
196.500001
 21
-27.535710000000002
 31
0.0
  0
LINE
  5
196
  8
OUTLINE
  6
CONTINUOUS
 62
     3
 10
196.500001
 20
-90.25
 30
0.0
 11
196.500001
 21
-27.535710000000002
 31
0.0
  0
ARC
  5
197
  8
DETAIL
  6
CONTINUOUS
 62
     5
 10
194.000001
 20
-90.25
 30
0.0
 40
2.5
 50
270.0
 51
0.0
  0
ARC
  5
198
  8
OUTLINE
  6
CONTINUOUS
 62
     3
 10
194.000001
 20
-90.25
 30
0.0
 40
2.5
 50
270.0
 51
0.0
  0
LINE
  5
199
  8
DETAIL
  6
CONTINUOUS
 62
     5
 10
150.61881699999989
 20
37.75
 30
0.0
 11
194.000001
 21
37.75
 31
0.0
  0
LINE
  5
19A
  8
OUTLINE
  6
CONTINUOUS
 62
     3
 10
150.61881699999989
 20
37.75
 30
0.0
 11
194.000001
 21
37.75
 31
0.0
  0
LINE
  5
19B
  8
DETAIL
  6
CONTINUOUS
 62
     5
 10
136.97712999999999
 20
38.25
 30
0.0
 11
150.61881699999989
 21
38.25
 31
0.0
  0
LINE
  5
19C
  8
OUTLINE
  6
CONTINUOUS
 62
     3
 10
136.97712999999999
 20
38.25
 30
0.0
 11
150.61881699999989
 21
38.25
 31
0.0
  0
ARC
  5
19D
  8
DETAIL
  6
CONTINUOUS
 62
     5
 10
194.000001
 20
35.25
 30
0.0
 40
2.5
 50
0.0
 51
90.0
  0
ARC
  5
19E
  8
OUTLINE
  6
CONTINUOUS
 62
     3
 10
194.000001
 20
35.25
 30
0.0
 40
2.5
 50
0.0
 51
90.0
  0
LINE
  5
19F
  8
BASIS
  6
DASHDOT
 62
     6
 10
225.618866
 20
-27.5
 30
0.0
 11
104.562438
 21
-27.5
 31
0.0
  0
TEXT
  5
1DD
  8
ETC
  6
CONTINUOUS
 62
    61
 10
283.04282331171601
 20
580.5228221225708
 30
0.0
 40
64.0
  1
産業扇
 41
0.9
  0
TEXT
  5
1DE
  8
ETC
  6
CONTINUOUS
 62
    61
 10
278.21055531171618
 20
691.86745212257085
 30
0.0
 40
64.0
  1
BF-23T3_3
 41
0.9
  0
TEXT
  5
1DF
  8
ETC
  6
CONTINUOUS
 62
    61
 10
366.90676541926462
 20
470.66902089621198
 30
0.0
 40
64.0
  1
BF-23T3
 41
0.9
  0
TEXT
  5
1E0
  8
ETC
  6
CONTINUOUS
 62
    61
 10
366.90676541926462
 20
369.48126471214192
 30
0.0
 40
64.0
  1
BF-25T3
 41
0.9
  0
ENDSEC
  0
EOF
