  0
SECTION
  2
HEADER
  9
$ACADVER
  1
AC1009
  9
$INSBASE
 10
0.0
 20
0.0
 30
0.0
  9
$EXTMIN
 10
-635.99595299999999
 20
-772.67152899999985
 30
0.0
  9
$EXTMAX
 10
1131.523037453728
 20
770.43411981286317
 30
0.0
  9
$LIMMIN
 10
-2970.0
 20
-2100.0
  9
$LIMMAX
 10
2970.0
 20
2100.0
  9
$ORTHOMODE
 70
     1
  9
$REGENMODE
 70
     0
  9
$FILLMODE
 70
     1
  9
$QTEXTMODE
 70
     0
  9
$MIRRTEXT
 70
     0
  9
$DRAGMODE
 70
     2
  9
$LTSCALE
 40
20.0
  9
$OSMODE
 70
    37
  9
$ATTMODE
 70
     1
  9
$TEXTSIZE
 40
64.0
  9
$TRACEWID
 40
0.05
  9
$TEXTSTYLE
  7
STANDARD
  9
$CLAYER
  8
SIZE
  9
$CELTYPE
  6
CONTINUOUS
  9
$CECOLOR
 62
    30
  9
$DIMSCALE
 40
1.0
  9
$DIMASZ
 40
12.0
  9
$DIMEXO
 40
20.0
  9
$DIMDLI
 40
200.0
  9
$DIMRND
 40
0.0
  9
$DIMDLE
 40
0.0
  9
$DIMEXE
 40
20.0
  9
$DIMTP
 40
0.0
  9
$DIMTM
 40
0.0
  9
$DIMTXT
 40
64.0
  9
$DIMCEN
 40
0.09
  9
$DIMTSZ
 40
0.0
  9
$DIMTOL
 70
     0
  9
$DIMLIM
 70
     0
  9
$DIMTIH
 70
     0
  9
$DIMTOH
 70
     0
  9
$DIMSE1
 70
     0
  9
$DIMSE2
 70
     0
  9
$DIMTAD
 70
     1
  9
$DIMZIN
 70
     8
  9
$DIMBLK
  1
DOT1
  9
$DIMASO
 70
     1
  9
$DIMSHO
 70
     0
  9
$DIMPOST
  1

  9
$DIMAPOST
  1

  9
$DIMALT
 70
     0
  9
$DIMALTD
 70
     2
  9
$DIMALTF
 40
25.399999999999999
  9
$DIMLFAC
 40
1.0
  9
$DIMTOFL
 70
     1
  9
$DIMTVP
 40
0.0
  9
$DIMTIX
 70
     1
  9
$DIMSOXD
 70
     0
  9
$DIMSAH
 70
     1
  9
$DIMBLK1
  1
ORIGIN
  9
$DIMBLK2
  1
ORIGIN
  9
$DIMSTYLE
  2
STANDARD
  9
$DIMCLRD
 70
     0
  9
$DIMCLRE
 70
     0
  9
$DIMCLRT
 70
     0
  9
$DIMTFAC
 40
1.0
  9
$DIMGAP
 40
0.09
  9
$LUNITS
 70
     2
  9
$LUPREC
 70
     4
  9
$SKETCHINC
 40
0.1
  9
$FILLETRAD
 40
4.0
  9
$AUNITS
 70
     1
  9
$AUPREC
 70
     3
  9
$MENU
  1
ACAD
  9
$ELEVATION
 40
0.0
  9
$PELEVATION
 40
0.0
  9
$THICKNESS
 40
50.0
  9
$LIMCHECK
 70
     0
  9
$BLIPMODE
 70
     0
  9
$CHAMFERA
 40
0.0
  9
$CHAMFERB
 40
0.0
  9
$SKPOLY
 70
     0
  9
$TDCREATE
 40
2452321.3961996529
  9
$TDUPDATE
 40
2454924.610209364
  9
$TDINDWG
 40
0.1704537616
  9
$TDUSRTIMER
 40
0.1704537616
  9
$USRTIMER
 70
     1
  9
$ANGBASE
 50
0.0
  9
$ANGDIR
 70
     0
  9
$PDMODE
 70
     3
  9
$PDSIZE
 40
-2.0
  9
$PLINEWID
 40
0.0
  9
$COORDS
 70
     0
  9
$SPLFRAME
 70
     0
  9
$SPLINETYPE
 70
     6
  9
$SPLINESEGS
 70
     8
  9
$ATTDIA
 70
     0
  9
$ATTREQ
 70
     1
  9
$HANDLING
 70
     1
  9
$HANDSEED
  5
1C5
  9
$SURFTAB1
 70
     6
  9
$SURFTAB2
 70
     6
  9
$SURFTYPE
 70
     6
  9
$SURFU
 70
     6
  9
$SURFV
 70
     6
  9
$UCSNAME
  2

  9
$UCSORG
 10
0.0
 20
0.0
 30
0.0
  9
$UCSXDIR
 10
1.0
 20
0.0
 30
0.0
  9
$UCSYDIR
 10
0.0
 20
1.0
 30
0.0
  9
$PUCSNAME
  2

  9
$PUCSORG
 10
0.0
 20
0.0
 30
0.0
  9
$PUCSXDIR
 10
1.0
 20
0.0
 30
0.0
  9
$PUCSYDIR
 10
0.0
 20
1.0
 30
0.0
  9
$USERI1
 70
     0
  9
$USERI2
 70
     0
  9
$USERI3
 70
     0
  9
$USERI4
 70
     0
  9
$USERI5
 70
     0
  9
$USERR1
 40
20.0
  9
$USERR2
 40
0.0
  9
$USERR3
 40
0.0
  9
$USERR4
 40
0.0
  9
$USERR5
 40
0.0
  9
$WORLDVIEW
 70
     1
  9
$SHADEDGE
 70
     3
  9
$SHADEDIF
 70
    70
  9
$TILEMODE
 70
     1
  9
$MAXACTVP
 70
    64
  9
$PLIMCHECK
 70
     0
  9
$PEXTMIN
 10
1.0000000000000000E+020
 20
1.0000000000000000E+020
 30
1.0000000000000000E+020
  9
$PEXTMAX
 10
-1.0000000000000000E+020
 20
-1.0000000000000000E+020
 30
-1.0000000000000000E+020
  9
$PLIMMIN
 10
0.0
 20
0.0
  9
$PLIMMAX
 10
12.0
 20
9.0
  9
$UNITMODE
 70
     0
  9
$VISRETAIN
 70
     1
  9
$PLINEGEN
 70
     0
  9
$PSLTSCALE
 70
     1
  0
ENDSEC
  0
SECTION
  2
TABLES
  0
TABLE
  2
VPORT
 70
     1
  0
VPORT
  2
*ACTIVE
 70
     0
 10
0.0
 20
0.0
 11
1.0
 21
1.0
 12
384.857952421861
 22
-8.8516307820541442
 13
0.0
 23
0.0
 14
1.0
 24
1.0
 15
0.0
 25
0.0
 16
0.0
 26
0.0
 36
1.0
 17
0.0
 27
0.0
 37
0.0
 40
1846.7602434906039
 41
1.3098995695839311
 42
50.0
 43
0.0
 44
0.0
 50
0.0
 51
0.0
 71
     0
 72
   100
 73
     1
 74
     0
 75
     0
 76
     0
 77
     0
 78
     0
  0
ENDTAB
  0
TABLE
  2
LTYPE
 70
     3
  0
LTYPE
  2
CONTINUOUS
 70
     0
  3
実線
 72
    65
 73
     0
 40
0.0
  0
LTYPE
  2
DASHDOT
 70
     0
  3
____ _ ____ _ ____ _ ____ _ ____ _ ____ _ ____
 72
    65
 73
     4
 40
5.5
 49
4.0
 49
-0.6
 49
0.3
 49
-0.6
  0
ENDTAB
  0
TABLE
  2
LAYER
 70
    12
  0
LAYER
  2
0
 70
     0
 62
     7
  6
CONTINUOUS
  0
LAYER
  2
SIZE
 70
     0
 62
     4
  6
CONTINUOUS
  0
LAYER
  2
BASIS
 70
     0
 62
     6
  6
DASHDOT
  0
LAYER
  2
OUTLINE
 70
     0
 62
     3
  6
CONTINUOUS
  0
LAYER
  2
DETAIL
 70
     0
 62
     5
  6
CONTINUOUS
  0
LAYER
  2
ARRANGE
 70
     0
 62
     1
  6
CONTINUOUS
  0
LAYER
  2
DEFPOINTS
 70
     0
 62
     7
  6
CONTINUOUS
  0
LAYER
  2
ETC
 70
     0
 62
    61
  6
CONTINUOUS
  0
LAYER
  2
FIX
 70
     0
 62
     7
  6
CONTINUOUS
  0
LAYER
  2
NOTE
 70
     0
 62
     4
  6
CONTINUOUS
  0
LAYER
  2
SERVICESPACE
 70
     0
 62
     2
  6
DASHDOT
  0
LAYER
  2
SYMBOLLINE
 70
     0
 62
    15
  6
CONTINUOUS
  0
ENDTAB
  0
TABLE
  2
STYLE
 70
     2
  0
STYLE
  2
STANDARD
 70
     0
 40
64.0
 41
0.9
 50
0.0
 71
     0
 42
64.0
  3
SIMPLEX.shx
  4
BIGFONT.shx
  0
STYLE
  2
ANNOTATIVE
 70
     0
 40
0.0
 41
1.0
 50
0.0
 71
     0
 42
0.2
  3
txt
  4

  0
ENDTAB
  0
TABLE
  2
VIEW
 70
     1
  0
VIEW
  2
ALL
 70
     0
 40
4282.6198079999986
 10
0.0
 20
41.309903999999989
 41
5940.0
 11
0.0
 21
0.0
 31
1.0
 12
0.0
 22
0.0
 32
0.0
 42
50.0
 43
0.0
 44
0.0
 50
0.0
 71
     0
  0
ENDTAB
  0
TABLE
  2
UCS
 70
     0
  0
ENDTAB
  0
TABLE
  2
APPID
 70
     4
  0
APPID
  2
ACAD
 70
     0
  0
APPID
  2
ACADANNOTATIVE
 70
     0
  0
APPID
  2
ACAD_MLEADERVER
 70
     0
  0
APPID
  2
ACAD_EXEMPT_FROM_CAD_STANDARDS
 70
     0
  0
ENDTAB
  0
TABLE
  2
DIMSTYLE
 70
     2
  0
DIMSTYLE
  2
STANDARD
 70
     0
  3

  4

  5

  6

  7

 40
1.0
 41
0.18
 42
0.0625
 43
0.38
 44
0.18
 45
0.0
 46
0.0
 47
0.0
 48
0.0
140
0.18
141
0.09
142
0.0
143
25.399999999999999
144
1.0
145
0.0
146
1.0
147
0.09
 71
     0
 72
     0
 73
     1
 74
     1
 75
     0
 76
     0
 77
     0
 78
     0
170
     0
171
     2
172
     0
173
     0
174
     0
175
     0
176
     0
177
     0
178
     0
  0
DIMSTYLE
  2
ANNOTATIVE
 70
     0
  3

  4

  5

  6

  7

 40
1.0
 41
0.18
 42
0.0625
 43
0.38
 44
0.18
 45
0.0
 46
0.0
 47
0.0
 48
0.0
140
0.18
141
0.09
142
0.0
143
25.399999999999999
144
1.0
145
0.0
146
1.0
147
0.09
 71
     0
 72
     0
 73
     1
 74
     1
 75
     0
 76
     0
 77
     0
 78
     0
170
     0
171
     2
172
     0
173
     0
174
     0
175
     0
176
     0
177
     0
178
     0
  0
ENDTAB
  0
ENDSEC
  0
SECTION
  2
BLOCKS
  0
BLOCK
  8
0
  2
$MODEL_SPACE
 70
     0
 10
0.0
 20
0.0
 30
0.0
  3
$MODEL_SPACE
  1

  0
ENDBLK
  5
76
  8
0
  0
BLOCK
 67
     1
  8
0
  2
$PAPER_SPACE
 70
     0
 10
0.0
 20
0.0
 30
0.0
  3
$PAPER_SPACE
  1

  0
ENDBLK
  5
72
 67
     1
  8
0
  0
BLOCK
  8
0
  2
DOT1
 70
     0
 10
0.0
 20
0.0
 30
0.0
  3
DOT1
  1

  0
CIRCLE
  5
8B
  8
SIZE
  6
CONTINUOUS
 62
     7
 10
0.0
 20
0.0
 30
0.0
 40
3.0
  0
ENDBLK
  5
8C
  8
0
  0
BLOCK
  8
0
  2
_ORIGIN
 70
     0
 10
0.0
 20
0.0
 30
0.0
  3
_ORIGIN
  1

  0
CIRCLE
  5
8F
  8
0
  6
CONTINUOUS
 62
     7
 10
0.0
 20
0.0
 30
0.0
 40
0.5
  0
LINE
  5
90
  8
0
  6
CONTINUOUS
 62
     7
 10
0.0
 20
0.0
 30
0.0
 11
-1.0
 21
0.0
 31
0.0
  0
ENDBLK
  5
91
  8
0
  0
ENDSEC
  0
SECTION
  2
ENTITIES
  0
TEXT
  5
92
  8
NOTE
  6
CONTINUOUS
 62
     4
 10
304.80576200000002
 20
-305.786856
 30
0.0
 40
64.0
  1
AH 12-φ12×20
 41
0.9
  0
LINE
  5
93
  8
NOTE
  6
CONTINUOUS
 62
     4
 10
964.65990299999999
 20
-341.53105499999998
 30
0.0
 11
282.31475499999999
 21
-341.53105499999998
 31
0.0
  0
LINE
  5
96
  8
NOTE
  6
CONTINUOUS
 62
     4
 10
150.0
 20
-190.00001399999999
 30
0.0
 11
282.31475499999999
 21
-341.53105499999998
 31
0.0
  0
LINE
  5
97
  8
NOTE
  6
CONTINUOUS
 62
     4
 10
183.153346
 20
-212.379819
 30
0.0
 11
150.0
 21
-190.00001399999999
 31
0.0
  0
LINE
  5
98
  8
NOTE
  6
CONTINUOUS
 62
     4
 10
150.0
 20
-190.00001399999999
 30
0.0
 11
167.521737
 21
-225.958167
 31
0.0
  0
LINE
  5
99
  8
BASIS
  6
DASHDOT
 62
     6
 10
0.0
 20
235.75238300000001
 30
0.0
 11
0.0
 21
-237.56468000000001
 31
0.0
  0
LINE
  5
9A
  8
DETAIL
  6
CONTINUOUS
 62
     5
 10
-190.00001399999999
 20
183.74118200000001
 30
0.0
 11
-190.00001399999999
 21
225.00000800000001
 31
0.0
  0
LINE
  5
9B
  8
DETAIL
  6
CONTINUOUS
 62
     5
 10
-190.00001399999999
 20
-90.590276000000003
 30
0.0
 11
-190.00001399999999
 21
183.741184
 31
0.0
  0
LINE
  5
9C
  8
DETAIL
  6
CONTINUOUS
 62
     5
 10
172.11765399999999
 20
185.52941999999999
 30
0.0
 11
185.97647799999999
 21
185.52941999999999
 31
0.0
  0
ARC
  5
9D
  8
DETAIL
  6
CONTINUOUS
 62
     5
 10
185.97647799999999
 20
183.741184
 30
0.0
 40
1.7882349999999989
 50
0.0
 51
90.0
  0
ARC
  5
9E
  8
DETAIL
  6
CONTINUOUS
 62
     5
 10
185.97647799999999
 20
183.741184
 30
0.0
 40
4.0235300000000001
 50
0.0
 51
90.0
  0
LINE
  5
9F
  8
DETAIL
  6
CONTINUOUS
 62
     5
 10
185.97647799999999
 20
187.764714
 30
0.0
 11
185.97647799999999
 21
190.00000800000001
 31
0.0
  0
LINE
  5
A0
  8
DETAIL
  6
CONTINUOUS
 62
     5
 10
190.00000800000001
 20
-183.74118999999999
 30
0.0
 11
190.00000800000001
 21
183.741184
 31
0.0
  0
LINE
  5
A1
  8
DETAIL
  6
CONTINUOUS
 62
     5
 10
187.764714
 20
-183.74118999999999
 30
0.0
 11
187.764714
 21
183.741184
 31
0.0
  0
LINE
  5
A2
  8
DETAIL
  6
CONTINUOUS
 62
     5
 10
185.97647799999999
 20
-187.76472000000001
 30
0.0
 11
185.97647799999999
 21
-190.00001399999999
 31
0.0
  0
LINE
  5
A3
  8
DETAIL
  6
CONTINUOUS
 62
     5
 10
172.11765399999999
 20
-185.529426
 30
0.0
 11
185.97647799999999
 21
-185.529426
 31
0.0
  0
ARC
  5
A4
  8
DETAIL
  6
CONTINUOUS
 62
     5
 10
185.97647799999999
 20
-183.74118999999999
 30
0.0
 40
1.7882349999999989
 50
270.0
 51
0.0
  0
ARC
  5
A5
  8
DETAIL
  6
CONTINUOUS
 62
     5
 10
185.97647799999999
 20
-183.74118999999999
 30
0.0
 40
4.0235300000000001
 50
270.0
 51
0.0
  0
LINE
  5
A6
  8
DETAIL
  6
CONTINUOUS
 62
     5
 10
185.97647799999999
 20
-190.00001399999999
 30
0.0
 11
-0.000006
 21
-190.00001399999999
 31
0.0
  0
LINE
  5
A7
  8
DETAIL
  6
CONTINUOUS
 62
     5
 10
185.97647799999999
 20
-187.76472000000001
 30
0.0
 11
-0.000006
 21
-187.76472000000001
 31
0.0
  0
LINE
  5
A8
  8
DETAIL
  6
CONTINUOUS
 62
     5
 10
-190.00001399999999
 20
-183.74118999999999
 30
0.0
 11
-190.00001399999999
 21
-92.420335999999992
 31
0.0
  0
LINE
  5
A9
  8
DETAIL
  6
CONTINUOUS
 62
     5
 10
-187.76472000000001
 20
-183.74118999999999
 30
0.0
 11
-187.76472000000001
 21
-92.573741999999996
 31
0.0
  0
LINE
  5
AA
  8
DETAIL
  6
CONTINUOUS
 62
     5
 10
-172.11766
 20
-185.529426
 30
0.0
 11
-185.976485
 21
-185.529426
 31
0.0
  0
LINE
  5
AB
  8
DETAIL
  6
CONTINUOUS
 62
     5
 10
-185.976485
 20
-187.76472000000001
 30
0.0
 11
-185.976485
 21
-190.00001399999999
 31
0.0
  0
ARC
  5
AC
  8
DETAIL
  6
CONTINUOUS
 62
     5
 10
-185.976485
 20
-183.74118999999999
 30
0.0
 40
4.0235300000000001
 50
180.0
 51
270.0
  0
ARC
  5
AD
  8
DETAIL
  6
CONTINUOUS
 62
     5
 10
-185.976485
 20
-183.74118999999999
 30
0.0
 40
1.7882349999999989
 50
180.0
 51
270.0
  0
LINE
  5
AE
  8
DETAIL
  6
CONTINUOUS
 62
     5
 10
-172.11766
 20
185.52941999999999
 30
0.0
 11
-185.976485
 21
185.52941999999999
 31
0.0
  0
LINE
  5
AF
  8
DETAIL
  6
CONTINUOUS
 62
     5
 10
-185.976485
 20
190.00000800000001
 30
0.0
 11
185.97647799999999
 21
190.00000800000001
 31
0.0
  0
LINE
  5
B0
  8
DETAIL
  6
CONTINUOUS
 62
     5
 10
-185.976485
 20
187.764714
 30
0.0
 11
185.97647799999999
 21
187.764714
 31
0.0
  0
LINE
  5
B1
  8
DETAIL
  6
CONTINUOUS
 62
     5
 10
-185.976485
 20
187.764714
 30
0.0
 11
-185.976485
 21
190.00000800000001
 31
0.0
  0
ARC
  5
B2
  8
DETAIL
  6
CONTINUOUS
 62
     5
 10
-185.976485
 20
183.741184
 30
0.0
 40
4.0235300000000001
 50
90.0
 51
180.0
  0
ARC
  5
B3
  8
DETAIL
  6
CONTINUOUS
 62
     5
 10
-185.976485
 20
183.741184
 30
0.0
 40
1.7882349999999989
 50
90.0
 51
180.0
  0
LINE
  5
B4
  8
DETAIL
  6
CONTINUOUS
 62
     5
 10
-187.76472000000001
 20
-92.573741999999996
 30
0.0
 11
-187.76472000000001
 21
183.741184
 31
0.0
  0
LINE
  5
B5
  8
DETAIL
  6
CONTINUOUS
 62
     5
 10
-190.00001399999999
 20
-92.420335999999992
 30
0.0
 11
-190.00001399999999
 21
183.741184
 31
0.0
  0
LINE
  5
B6
  8
DETAIL
  6
CONTINUOUS
 62
     5
 10
172.11765399999999
 20
187.764714
 30
0.0
 11
172.11765399999999
 21
185.52941999999999
 31
0.0
  0
LINE
  5
B7
  8
DETAIL
  6
CONTINUOUS
 62
     5
 10
-172.11766
 20
187.764714
 30
0.0
 11
-172.11766
 21
185.52941999999999
 31
0.0
  0
LINE
  5
B8
  8
DETAIL
  6
CONTINUOUS
 62
     5
 10
-172.11766
 20
-187.76472000000001
 30
0.0
 11
-172.11766
 21
-185.529426
 31
0.0
  0
LINE
  5
B9
  8
DETAIL
  6
CONTINUOUS
 62
     5
 10
172.11765399999999
 20
-187.76472000000001
 30
0.0
 11
172.11765399999999
 21
-185.529426
 31
0.0
  0
LINE
  5
BA
  8
BASIS
  6
DASHDOT
 62
     6
 10
-205.208778
 20
0.0
 30
0.0
 11
203.17241799999999
 21
0.0
 31
0.0
  0
LINE
  5
BB
  8
BASIS
  6
DASHDOT
 62
     6
 10
-257.4768029999999
 20
85.000007999999994
 30
0.0
 11
-165.59988300000001
 21
85.000007999999994
 31
0.0
  0
LINE
  5
BC
  8
DETAIL
  6
CONTINUOUS
 62
     5
 10
-0.000006
 20
-190.00001399999999
 30
0.0
 11
-185.976485
 21
-190.00001399999999
 31
0.0
  0
LINE
  5
BD
  8
DETAIL
  6
CONTINUOUS
 62
     5
 10
-0.000006
 20
-187.76472000000001
 30
0.0
 11
-185.976485
 21
-187.76472000000001
 31
0.0
  0
LINE
  5
BE
  8
OUTLINE
  6
CONTINUOUS
 62
     3
 10
-185.976485
 20
187.764714
 30
0.0
 11
-185.976485
 21
190.00000800000001
 31
0.0
  0
LINE
  5
BF
  8
OUTLINE
  6
CONTINUOUS
 62
     3
 10
-185.976485
 20
-187.76472000000001
 30
0.0
 11
-185.976485
 21
-190.00001399999999
 31
0.0
  0
ARC
  5
C0
  8
OUTLINE
  6
CONTINUOUS
 62
     3
 10
-185.976485
 20
-183.74118999999999
 30
0.0
 40
4.0235300000000001
 50
180.0
 51
270.0
  0
LINE
  5
C1
  8
OUTLINE
  6
CONTINUOUS
 62
     3
 10
185.97647799999999
 20
-187.76472000000001
 30
0.0
 11
185.97647799999999
 21
-190.00001399999999
 31
0.0
  0
LINE
  5
C2
  8
OUTLINE
  6
CONTINUOUS
 62
     3
 10
185.97647799999999
 20
187.764714
 30
0.0
 11
185.97647799999999
 21
190.00000800000001
 31
0.0
  0
ARC
  5
C3
  8
OUTLINE
  6
CONTINUOUS
 62
     3
 10
185.97647799999999
 20
183.741184
 30
0.0
 40
4.0235300000000001
 50
0.0
 51
90.0
  0
LINE
  5
C4
  8
OUTLINE
  6
CONTINUOUS
 62
     3
 10
190.00000800000001
 20
-183.74118999999999
 30
0.0
 11
190.00000800000001
 21
183.741184
 31
0.0
  0
ARC
  5
C5
  8
OUTLINE
  6
CONTINUOUS
 62
     3
 10
185.97647799999999
 20
-183.74118999999999
 30
0.0
 40
4.0235300000000001
 50
270.0
 51
0.0
  0
LINE
  5
C6
  8
OUTLINE
  6
CONTINUOUS
 62
     3
 10
185.97647799999999
 20
-190.00001399999999
 30
0.0
 11
-185.976485
 21
-190.00001399999999
 31
0.0
  0
LINE
  5
C7
  8
OUTLINE
  6
CONTINUOUS
 62
     3
 10
-190.00001399999999
 20
-183.74118999999999
 30
0.0
 11
-190.00001399999999
 21
-92.420335999999992
 31
0.0
  0
LINE
  5
C8
  8
OUTLINE
  6
CONTINUOUS
 62
     3
 10
-190.00001399999999
 20
-92.420335999999992
 30
0.0
 11
-190.00001399999999
 21
183.741184
 31
0.0
  0
ARC
  5
C9
  8
OUTLINE
  6
CONTINUOUS
 62
     3
 10
-185.976485
 20
183.741184
 30
0.0
 40
4.0235300000000001
 50
90.0
 51
180.0
  0
LINE
  5
CA
  8
OUTLINE
  6
CONTINUOUS
 62
     3
 10
-190.00001399999999
 20
183.741184
 30
0.0
 11
-190.00001399999999
 21
225.00000800000001
 31
0.0
  0
LINE
  5
CB
  8
OUTLINE
  6
CONTINUOUS
 62
     3
 10
-185.976485
 20
190.00000800000001
 30
0.0
 11
185.97647799999999
 21
190.00000800000001
 31
0.0
  0
LINE
  5
CC
  8
DETAIL
  6
CONTINUOUS
 62
     5
 10
-192.53334799999999
 20
161.17825999999999
 30
0.0
 11
-192.53334799999999
 21
225.00000800000001
 31
0.0
  0
LINE
  5
CD
  8
DETAIL
  6
CONTINUOUS
 62
     5
 10
-192.53334799999999
 20
-54.999992000000013
 30
0.0
 11
-192.53334799999999
 21
161.17825999999999
 31
0.0
  0
LINE
  5
CE
  8
SIZE
  6
CONTINUOUS
 62
    30
 10
-190.00001399999999
 20
-203.74118999999999
 30
0.0
 11
-190.00001399999999
 21
-379.170863
 31
0.0
  0
LINE
  5
CF
  8
SIZE
  6
CONTINUOUS
 62
    30
 10
1.9999859999999989
 20
-112.42033600000001
 30
0.0
 11
1.9999859999999989
 21
-379.170863
 31
0.0
  0
LINE
  5
D0
  8
SIZE
  6
CONTINUOUS
 62
    30
 10
-178.00001399999999
 20
-359.170863
 30
0.0
 11
-10.000014
 21
-359.170863
 31
0.0
  0
LINE
  5
D1
  8
SIZE
  6
CONTINUOUS
 62
    30
 10
-402.62655999999998
 20
-359.170863
 30
0.0
 11
-190.00001399999999
 21
-359.170863
 31
0.0
  0
TEXT
  5
D2
  8
SIZE
  6
CONTINUOUS
 62
    30
 10
-377.62656057142851
 20
-334.170863
 30
0.0
 40
64.0
  1
192
 41
0.9
 72
     1
 11
-309.0551319999999
 21
-334.170863
 31
0.0
  0
CIRCLE
  5
D3
  8
SIZE
  6
CONTINUOUS
 62
    30
 10
-190.00001399999999
 20
-359.170863
 30
0.0
 40
6.0
  0
LINE
  5
D4
  8
SIZE
  6
CONTINUOUS
 62
    30
 10
-190.00001399999999
 20
-359.170863
 30
0.0
 11
-178.00001399999999
 21
-359.170863
 31
0.0
  0
CIRCLE
  5
D5
  8
SIZE
  6
CONTINUOUS
 62
    30
 10
1.9999859999999989
 20
-359.170863
 30
0.0
 40
6.0
  0
LINE
  5
D6
  8
SIZE
  6
CONTINUOUS
 62
    30
 10
1.9999859999999989
 20
-359.170863
 30
0.0
 11
-10.000014
 21
-359.170863
 31
0.0
  0
POINT
  5
D7
  8
DEFPOINTS
  6
CONTINUOUS
 62
    30
 10
-190.00001399999999
 20
-183.74118999999999
 30
0.0
  0
POINT
  5
D8
  8
DEFPOINTS
  6
CONTINUOUS
 62
    30
 10
1.9999859999999989
 20
-92.420335999999992
 30
0.0
  0
POINT
  5
D9
  8
DEFPOINTS
  6
CONTINUOUS
 62
    30
 10
1.9999859999999989
 20
-359.170863
 30
0.0
  0
LINE
  5
DA
  8
NOTE
  6
CONTINUOUS
 62
     4
 10
-150.0
 20
166.47058799999999
 30
0.0
 11
-150.0
 21
213.529428
 31
0.0
  0
LINE
  5
DB
  8
NOTE
  6
CONTINUOUS
 62
     4
 10
-173.52941999999999
 20
190.00000800000001
 30
0.0
 11
-126.47058
 21
190.00000800000001
 31
0.0
  0
CIRCLE
  5
DC
  8
FIX
  6
CONTINUOUS
 62
    11
 10
-150.0
 20
190.00000800000001
 30
0.0
 40
6.0
  0
CIRCLE
  5
DD
  8
FIX
  6
CONTINUOUS
 62
    11
 10
150.0
 20
190.00000800000001
 30
0.0
 40
6.0
  0
LINE
  5
DE
  8
NOTE
  6
CONTINUOUS
 62
     4
 10
150.0
 20
166.47058799999999
 30
0.0
 11
150.0
 21
213.529428
 31
0.0
  0
LINE
  5
DF
  8
NOTE
  6
CONTINUOUS
 62
     4
 10
173.52941999999999
 20
190.00000800000001
 30
0.0
 11
126.47058
 21
190.00000800000001
 31
0.0
  0
CIRCLE
  5
E0
  8
FIX
  6
CONTINUOUS
 62
    11
 10
150.0
 20
-190.00000800000001
 30
0.0
 40
6.0
  0
LINE
  5
E1
  8
NOTE
  6
CONTINUOUS
 62
     4
 10
150.0
 20
-166.47058799999999
 30
0.0
 11
150.0
 21
-213.529428
 31
0.0
  0
LINE
  5
E2
  8
NOTE
  6
CONTINUOUS
 62
     4
 10
173.52941999999999
 20
-190.00000800000001
 30
0.0
 11
126.47058
 21
-190.00000800000001
 31
0.0
  0
CIRCLE
  5
E3
  8
FIX
  6
CONTINUOUS
 62
    11
 10
-150.0
 20
-190.00000800000001
 30
0.0
 40
6.0
  0
LINE
  5
E4
  8
NOTE
  6
CONTINUOUS
 62
     4
 10
-150.0
 20
-166.47058799999999
 30
0.0
 11
-150.0
 21
-213.529428
 31
0.0
  0
LINE
  5
E5
  8
NOTE
  6
CONTINUOUS
 62
     4
 10
-173.52941999999999
 20
-190.00000800000001
 30
0.0
 11
-126.47058
 21
-190.00000800000001
 31
0.0
  0
LINE
  5
E6
  8
SIZE
  6
CONTINUOUS
 62
    30
 10
-150.0
 20
-233.52941999999999
 30
0.0
 11
-150.0
 21
-657.81561900000008
 31
0.0
  0
LINE
  5
E7
  8
SIZE
  6
CONTINUOUS
 62
    30
 10
150.0
 20
-233.52941999999999
 30
0.0
 11
150.0
 21
-657.81561900000008
 31
0.0
  0
LINE
  5
E8
  8
SIZE
  6
CONTINUOUS
 62
    30
 10
-138.0
 20
-637.81561900000008
 30
0.0
 11
138.0
 21
-637.81561900000008
 31
0.0
  0
CIRCLE
  5
E9
  8
SIZE
  6
CONTINUOUS
 62
    30
 10
-150.0
 20
-637.81561900000008
 30
0.0
 40
6.0
  0
LINE
  5
EA
  8
SIZE
  6
CONTINUOUS
 62
    30
 10
-150.0
 20
-637.81561900000008
 30
0.0
 11
-138.0
 21
-637.81561900000008
 31
0.0
  0
CIRCLE
  5
EB
  8
SIZE
  6
CONTINUOUS
 62
    30
 10
150.0
 20
-637.81561900000008
 30
0.0
 40
6.0
  0
LINE
  5
EC
  8
SIZE
  6
CONTINUOUS
 62
    30
 10
150.0
 20
-637.81561900000008
 30
0.0
 11
138.0
 21
-637.81561900000008
 31
0.0
  0
TEXT
  5
ED
  8
SIZE
  6
CONTINUOUS
 62
    30
 10
-74.05714285714285
 20
-612.81561900000008
 30
0.0
 40
64.0
  1
300
 41
0.9
 72
     1
 11
0.0
 21
-612.81561900000008
 31
0.0
  0
POINT
  5
EE
  8
DEFPOINTS
  6
CONTINUOUS
 62
    30
 10
-150.0
 20
-213.52941999999999
 30
0.0
  0
POINT
  5
EF
  8
DEFPOINTS
  6
CONTINUOUS
 62
    30
 10
150.0
 20
-213.52941999999999
 30
0.0
  0
POINT
  5
F0
  8
DEFPOINTS
  6
CONTINUOUS
 62
    30
 10
150.0
 20
-637.81561900000008
 30
0.0
  0
LINE
  5
F1
  8
SIZE
  6
CONTINUOUS
 62
    30
 10
190.00000800000001
 20
-203.74118999999999
 30
0.0
 11
190.00000800000001
 21
-772.67152899999985
 31
0.0
  0
LINE
  5
F2
  8
SIZE
  6
CONTINUOUS
 62
    30
 10
-190.00001399999999
 20
-203.74118999999999
 30
0.0
 11
-190.00001399999999
 21
-772.67152899999985
 31
0.0
  0
LINE
  5
F3
  8
SIZE
  6
CONTINUOUS
 62
    30
 10
178.00000800000001
 20
-752.67152899999985
 30
0.0
 11
-178.00001399999999
 21
-752.67152899999985
 31
0.0
  0
TEXT
  5
F4
  8
SIZE
  6
CONTINUOUS
 62
    30
 10
-74.057145857142842
 20
-725.15511300000003
 30
0.0
 40
64.0
  1
380
 41
0.9
 72
     1
 11
-0.000003
 21
-725.15511300000003
 31
0.0
  0
CIRCLE
  5
F5
  8
SIZE
  6
CONTINUOUS
 62
    30
 10
190.00000800000001
 20
-752.67152899999985
 30
0.0
 40
6.0
  0
LINE
  5
F6
  8
SIZE
  6
CONTINUOUS
 62
    30
 10
190.00000800000001
 20
-752.67152899999985
 30
0.0
 11
178.00000800000001
 21
-752.67152899999985
 31
0.0
  0
CIRCLE
  5
F7
  8
SIZE
  6
CONTINUOUS
 62
    30
 10
-190.00001399999999
 20
-752.67152899999985
 30
0.0
 40
6.0
  0
LINE
  5
F8
  8
SIZE
  6
CONTINUOUS
 62
    30
 10
-190.00001399999999
 20
-752.67152899999985
 30
0.0
 11
-178.00001399999999
 21
-752.67152899999985
 31
0.0
  0
POINT
  5
F9
  8
DEFPOINTS
  6
CONTINUOUS
 62
    30
 10
190.00000800000001
 20
-183.74118999999999
 30
0.0
  0
POINT
  5
FA
  8
DEFPOINTS
  6
CONTINUOUS
 62
    30
 10
-190.00001399999999
 20
-183.74118999999999
 30
0.0
  0
POINT
  5
FB
  8
DEFPOINTS
  6
CONTINUOUS
 62
    30
 10
-190.00001399999999
 20
-752.67152899999985
 30
0.0
  0
LINE
  5
FC
  8
SIZE
  6
CONTINUOUS
 62
    30
 10
150.0
 20
233.52941999999999
 30
0.0
 11
150.0
 21
433.62975599999999
 31
0.0
  0
LINE
  5
FD
  8
SIZE
  6
CONTINUOUS
 62
    30
 10
-150.0
 20
233.52941999999999
 30
0.0
 11
-150.0
 21
433.62975599999999
 31
0.0
  0
LINE
  5
FE
  8
SIZE
  6
CONTINUOUS
 62
    30
 10
138.0
 20
413.62975599999999
 30
0.0
 11
-138.0
 21
413.62975599999999
 31
0.0
  0
TEXT
  5
FF
  8
SIZE
  6
CONTINUOUS
 62
    30
 10
-74.05714285714285
 20
438.53981399999992
 30
0.0
 40
64.0
  1
300
 41
0.9
 72
     1
 11
0.0
 21
438.53981399999992
 31
0.0
  0
CIRCLE
  5
100
  8
SIZE
  6
CONTINUOUS
 62
    30
 10
150.0
 20
413.62975599999999
 30
0.0
 40
6.0
  0
LINE
  5
101
  8
SIZE
  6
CONTINUOUS
 62
    30
 10
150.0
 20
413.62975599999999
 30
0.0
 11
138.0
 21
413.62975599999999
 31
0.0
  0
CIRCLE
  5
102
  8
SIZE
  6
CONTINUOUS
 62
    30
 10
-150.0
 20
413.62975599999999
 30
0.0
 40
6.0
  0
LINE
  5
103
  8
SIZE
  6
CONTINUOUS
 62
    30
 10
-150.0
 20
413.62975599999999
 30
0.0
 11
-138.0
 21
413.62975599999999
 31
0.0
  0
POINT
  5
104
  8
DEFPOINTS
  6
CONTINUOUS
 62
    30
 10
150.0
 20
213.52941999999999
 30
0.0
  0
POINT
  5
105
  8
DEFPOINTS
  6
CONTINUOUS
 62
    30
 10
-150.0
 20
213.52941999999999
 30
0.0
  0
POINT
  5
106
  8
DEFPOINTS
  6
CONTINUOUS
 62
    30
 10
-150.0
 20
413.62975599999999
 30
0.0
  0
LINE
  5
107
  8
SIZE
  6
CONTINUOUS
 62
    30
 10
193.52941200000001
 20
190.00000800000001
 30
0.0
 11
503.9910579999999
 21
190.00000800000001
 31
0.0
  0
LINE
  5
108
  8
SIZE
  6
CONTINUOUS
 62
    30
 10
182.95160899999999
 20
-24.49999200000001
 30
0.0
 11
503.9910579999999
 21
-24.49999200000001
 31
0.0
  0
LINE
  5
109
  8
SIZE
  6
CONTINUOUS
 62
    30
 10
483.99105800000001
 20
178.00000800000001
 30
0.0
 11
483.99105800000001
 21
-12.499992000000001
 31
0.0
  0
LINE
  5
10A
  8
SIZE
  6
CONTINUOUS
 62
    30
 10
483.99105800000001
 20
473.73540199999991
 30
0.0
 11
483.99105800000001
 21
190.00000800000001
 31
0.0
  0
TEXT
  5
10B
  8
SIZE
  6
CONTINUOUS
 62
    30
 10
458.99105800000001
 20
229.30683128571431
 30
0.0
 40
64.0
  1
214.5
 50
90.0
 41
0.9
 72
     1
 11
458.99105800000001
 21
339.021117
 31
0.0
  0
CIRCLE
  5
10C
  8
SIZE
  6
CONTINUOUS
 62
    30
 10
483.99105800000001
 20
190.00000800000001
 30
0.0
 40
6.0
  0
LINE
  5
10D
  8
SIZE
  6
CONTINUOUS
 62
    30
 10
483.99105800000001
 20
190.00000800000001
 30
0.0
 11
483.99105800000001
 21
178.00000800000001
 31
0.0
  0
CIRCLE
  5
10E
  8
SIZE
  6
CONTINUOUS
 62
    30
 10
483.99105800000001
 20
-24.49999200000001
 30
0.0
 40
6.0
  0
LINE
  5
10F
  8
SIZE
  6
CONTINUOUS
 62
    30
 10
483.99105800000001
 20
-24.49999200000001
 30
0.0
 11
483.99105800000001
 21
-12.499992000000001
 31
0.0
  0
POINT
  5
110
  8
DEFPOINTS
  6
CONTINUOUS
 62
    30
 10
173.52941200000001
 20
190.00000800000001
 30
0.0
  0
POINT
  5
111
  8
DEFPOINTS
  6
CONTINUOUS
 62
    30
 10
162.95160899999999
 20
-24.49999200000001
 30
0.0
  0
POINT
  5
112
  8
DEFPOINTS
  6
CONTINUOUS
 62
    30
 10
483.99105800000001
 20
-24.49999200000001
 30
0.0
  0
LINE
  5
113
  8
SIZE
  6
CONTINUOUS
 62
    30
 10
205.97647799999999
 20
190.00000800000001
 30
0.0
 11
782.79306599999995
 21
190.00000800000001
 31
0.0
  0
LINE
  5
114
  8
SIZE
  6
CONTINUOUS
 62
    30
 10
193.52941200000001
 20
-190.00000800000001
 30
0.0
 11
782.79306599999995
 21
-190.00000800000001
 31
0.0
  0
LINE
  5
115
  8
SIZE
  6
CONTINUOUS
 62
    30
 10
762.79306599999995
 20
178.00000800000001
 30
0.0
 11
762.79306599999995
 21
-178.00000800000001
 31
0.0
  0
TEXT
  5
116
  8
SIZE
  6
CONTINUOUS
 62
    30
 10
729.07146399999999
 20
-74.057142857142836
 30
0.0
 40
64.0
  1
380
 50
90.0
 41
0.9
 72
     1
 11
729.07146399999999
 21
0.0
 31
0.0
  0
CIRCLE
  5
117
  8
SIZE
  6
CONTINUOUS
 62
    30
 10
762.79306599999995
 20
190.00000800000001
 30
0.0
 40
6.0
  0
LINE
  5
118
  8
SIZE
  6
CONTINUOUS
 62
    30
 10
762.79306599999995
 20
190.00000800000001
 30
0.0
 11
762.79306599999995
 21
178.00000800000001
 31
0.0
  0
CIRCLE
  5
119
  8
SIZE
  6
CONTINUOUS
 62
    30
 10
762.79306599999995
 20
-190.00000800000001
 30
0.0
 40
6.0
  0
LINE
  5
11A
  8
SIZE
  6
CONTINUOUS
 62
    30
 10
762.79306599999995
 20
-190.00000800000001
 30
0.0
 11
762.79306599999995
 21
-178.00000800000001
 31
0.0
  0
POINT
  5
11B
  8
DEFPOINTS
  6
CONTINUOUS
 62
    30
 10
185.97647799999999
 20
190.00000800000001
 30
0.0
  0
POINT
  5
11C
  8
DEFPOINTS
  6
CONTINUOUS
 62
    30
 10
173.52941200000001
 20
-190.00000800000001
 30
0.0
  0
POINT
  5
11D
  8
DEFPOINTS
  6
CONTINUOUS
 62
    30
 10
762.79306599999995
 20
-190.00000800000001
 30
0.0
  0
LINE
  5
11E
  8
NOTE
  6
CONTINUOUS
 62
     4
 10
190.00000800000001
 20
126.47058
 30
0.0
 11
190.00000800000001
 21
173.52941999999999
 31
0.0
  0
LINE
  5
11F
  8
NOTE
  6
CONTINUOUS
 62
     4
 10
213.529428
 20
150.0
 30
0.0
 11
166.47058799999999
 21
150.0
 31
0.0
  0
CIRCLE
  5
120
  8
FIX
  6
CONTINUOUS
 62
    11
 10
190.00000800000001
 20
150.0
 30
0.0
 40
6.0
  0
CIRCLE
  5
121
  8
FIX
  6
CONTINUOUS
 62
    11
 10
190.00000800000001
 20
-150.0
 30
0.0
 40
6.0
  0
LINE
  5
122
  8
NOTE
  6
CONTINUOUS
 62
     4
 10
190.00000800000001
 20
-173.52941999999999
 30
0.0
 11
190.00000800000001
 21
-126.47058
 31
0.0
  0
LINE
  5
123
  8
NOTE
  6
CONTINUOUS
 62
     4
 10
213.529428
 20
-150.0
 30
0.0
 11
166.47058799999999
 21
-150.0
 31
0.0
  0
LINE
  5
124
  8
SIZE
  6
CONTINUOUS
 62
    30
 10
233.52941999999999
 20
150.0
 30
0.0
 11
650.88673899999981
 21
150.0
 31
0.0
  0
LINE
  5
125
  8
SIZE
  6
CONTINUOUS
 62
    30
 10
233.52941999999999
 20
-150.0
 30
0.0
 11
650.88673899999981
 21
-150.0
 31
0.0
  0
LINE
  5
126
  8
SIZE
  6
CONTINUOUS
 62
    30
 10
630.88673899999992
 20
138.0
 30
0.0
 11
630.88673899999992
 21
-138.0
 31
0.0
  0
CIRCLE
  5
127
  8
SIZE
  6
CONTINUOUS
 62
    30
 10
630.88673899999992
 20
150.0
 30
0.0
 40
6.0
  0
LINE
  5
128
  8
SIZE
  6
CONTINUOUS
 62
    30
 10
630.88673899999992
 20
150.0
 30
0.0
 11
630.88673899999992
 21
138.0
 31
0.0
  0
CIRCLE
  5
129
  8
SIZE
  6
CONTINUOUS
 62
    30
 10
630.88673899999992
 20
-150.0
 30
0.0
 40
6.0
  0
LINE
  5
12A
  8
SIZE
  6
CONTINUOUS
 62
    30
 10
630.88673899999992
 20
-150.0
 30
0.0
 11
630.88673899999992
 21
-138.0
 31
0.0
  0
TEXT
  5
12B
  8
SIZE
  6
CONTINUOUS
 62
    30
 10
605.88673899999992
 20
-74.05714285714285
 30
0.0
 40
64.0
  1
300
 50
90.0
 41
0.9
 72
     1
 11
605.88673899999992
 21
0.0
 31
0.0
  0
POINT
  5
12C
  8
DEFPOINTS
  6
CONTINUOUS
 62
    30
 10
213.52941999999999
 20
150.0
 30
0.0
  0
POINT
  5
12D
  8
DEFPOINTS
  6
CONTINUOUS
 62
    30
 10
213.52941999999999
 20
-150.0
 30
0.0
  0
POINT
  5
12E
  8
DEFPOINTS
  6
CONTINUOUS
 62
    30
 10
630.88673899999992
 20
-150.0
 30
0.0
  0
LINE
  5
12F
  8
SIZE
  6
CONTINUOUS
 62
    30
 10
-205.976485
 20
190.00000800000001
 30
0.0
 11
-439.448736
 21
190.00000800000001
 31
0.0
  0
LINE
  5
130
  8
SIZE
  6
CONTINUOUS
 62
    30
 10
-277.47680300000002
 20
85.000007999999994
 30
0.0
 11
-439.448736
 21
85.000007999999994
 31
0.0
  0
LINE
  5
131
  8
SIZE
  6
CONTINUOUS
 62
    30
 10
-419.448736
 20
178.00000800000001
 30
0.0
 11
-419.448736
 21
97.000007999999994
 31
0.0
  0
TEXT
  5
132
  8
SIZE
  6
CONTINUOUS
 62
    30
 10
-448.74614100000002
 20
49.955494428571427
 30
0.0
 40
64.0
  1
105
 50
90.0
 41
0.9
 72
     1
 11
-448.74614100000002
 21
118.526923
 31
0.0
  0
CIRCLE
  5
133
  8
SIZE
  6
CONTINUOUS
 62
    30
 10
-419.448736
 20
190.00000800000001
 30
0.0
 40
6.0
  0
LINE
  5
134
  8
SIZE
  6
CONTINUOUS
 62
    30
 10
-419.448736
 20
190.00000800000001
 30
0.0
 11
-419.448736
 21
178.00000800000001
 31
0.0
  0
CIRCLE
  5
135
  8
SIZE
  6
CONTINUOUS
 62
    30
 10
-419.448736
 20
85.000007999999994
 30
0.0
 40
6.0
  0
LINE
  5
136
  8
SIZE
  6
CONTINUOUS
 62
    30
 10
-419.448736
 20
85.000007999999994
 30
0.0
 11
-419.448736
 21
97.000007999999994
 31
0.0
  0
POINT
  5
137
  8
DEFPOINTS
  6
CONTINUOUS
 62
    30
 10
-185.976485
 20
190.00000800000001
 30
0.0
  0
POINT
  5
138
  8
DEFPOINTS
  6
CONTINUOUS
 62
    30
 10
-257.4768029999999
 20
85.000007999999994
 30
0.0
  0
POINT
  5
139
  8
DEFPOINTS
  6
CONTINUOUS
 62
    30
 10
-419.448736
 20
85.000007999999994
 30
0.0
  0
POINT
  5
13A
  8
ARRANGE
  6
CONTINUOUS
 62
     1
 10
0.0
 20
0.0
 30
0.0
  0
CIRCLE
  5
13B
  8
ARRANGE
  6
CONTINUOUS
 62
     1
 10
0.0
 20
0.0
 30
0.0
 40
40.0
  0
TEXT
  5
13C
  8
NOTE
  6
CONTINUOUS
 62
     4
 10
-61.259008000000001
 20
120.089743
 30
0.0
 40
64.0
  1
入口
 41
0.9
  0
TEXT
  5
13D
  8
NOTE
  6
CONTINUOUS
 62
     4
 10
-363.71114499999999
 20
6.1981859999999989
 30
0.0
 40
64.0
  1
出口
 41
0.9
  0
LINE
  5
13E
  8
DETAIL
  6
CONTINUOUS
 62
     5
 10
-190.00001399999999
 20
225.00000800000001
 30
0.0
 11
-192.53334799999999
 21
225.00000800000001
 31
0.0
  0
LINE
  5
13F
  8
DETAIL
  6
CONTINUOUS
 62
     5
 10
-190.00001399999999
 20
-54.999992000000013
 30
0.0
 11
-192.53334799999999
 21
-54.999992000000013
 31
0.0
  0
LINE
  5
140
  8
SIZE
  6
CONTINUOUS
 62
    30
 10
-212.53334799999999
 20
225.00000800000001
 30
0.0
 11
-566.99595299999987
 21
225.00000800000001
 31
0.0
  0
LINE
  5
141
  8
SIZE
  6
CONTINUOUS
 62
    30
 10
-212.53334799999999
 20
-54.999992000000013
 30
0.0
 11
-566.99595299999987
 21
-54.999992000000013
 31
0.0
  0
LINE
  5
142
  8
SIZE
  6
CONTINUOUS
 62
    30
 10
-546.99595299999987
 20
213.00000800000001
 30
0.0
 11
-546.99595299999987
 21
-42.999991999999999
 31
0.0
  0
CIRCLE
  5
143
  8
SIZE
  6
CONTINUOUS
 62
    30
 10
-546.99595299999987
 20
225.00000800000001
 30
0.0
 40
6.0
  0
LINE
  5
144
  8
SIZE
  6
CONTINUOUS
 62
    30
 10
-546.99595299999987
 20
225.00000800000001
 30
0.0
 11
-546.99595299999987
 21
213.00000800000001
 31
0.0
  0
CIRCLE
  5
145
  8
SIZE
  6
CONTINUOUS
 62
    30
 10
-546.99595299999987
 20
-54.999992000000013
 30
0.0
 40
6.0
  0
LINE
  5
146
  8
SIZE
  6
CONTINUOUS
 62
    30
 10
-546.99595299999987
 20
-54.999992000000013
 30
0.0
 11
-546.99595299999987
 21
-42.999991999999999
 31
0.0
  0
TEXT
  5
147
  8
SIZE
  6
CONTINUOUS
 62
    30
 10
-571.99595299999987
 20
-29.377134857142892
 30
0.0
 40
64.0
  1
φ280
 50
90.0
 41
0.9
 72
     1
 11
-571.99595299999987
 21
85.000007999999994
 31
0.0
  0
POINT
  5
148
  8
DEFPOINTS
  6
CONTINUOUS
 62
    30
 10
-192.53334799999999
 20
225.00000800000001
 30
0.0
  0
POINT
  5
149
  8
DEFPOINTS
  6
CONTINUOUS
 62
    30
 10
-192.53334799999999
 20
-54.999992000000013
 30
0.0
  0
POINT
  5
14A
  8
DEFPOINTS
  6
CONTINUOUS
 62
    30
 10
-546.99595299999987
 20
-54.999992000000013
 30
0.0
  0
LINE
  5
14B
  8
SIZE
  6
CONTINUOUS
 62
    30
 10
205.97647799999999
 20
190.00000800000001
 30
0.0
 11
376.25200099999989
 21
190.00000800000001
 31
0.0
  0
LINE
  5
14C
  8
SIZE
  6
CONTINUOUS
 62
    30
 10
108.477644
 20
-27.499991999999999
 30
0.0
 11
376.25200099999989
 21
-27.499991999999999
 31
0.0
  0
LINE
  5
14D
  8
SIZE
  6
CONTINUOUS
 62
    30
 10
356.25200100000001
 20
178.00000800000001
 30
0.0
 11
356.25200100000001
 21
-15.499992000000001
 31
0.0
  0
LINE
  5
14E
  8
SIZE
  6
CONTINUOUS
 62
    30
 10
356.25200100000001
 20
481.92167999999992
 30
0.0
 11
356.25200100000001
 21
190.00000800000001
 31
0.0
  0
TEXT
  5
14F
  8
SIZE
  6
CONTINUOUS
 62
    30
 10
331.25200100000001
 20
237.4931082857143
 30
0.0
 40
64.0
  1
217.5
 50
90.0
 41
0.9
 72
     1
 11
331.25200100000001
 21
347.20739400000002
 31
0.0
  0
CIRCLE
  5
150
  8
SIZE
  6
CONTINUOUS
 62
    30
 10
356.25200100000001
 20
190.00000800000001
 30
0.0
 40
6.0
  0
LINE
  5
151
  8
SIZE
  6
CONTINUOUS
 62
    30
 10
356.25200100000001
 20
190.00000800000001
 30
0.0
 11
356.25200100000001
 21
178.00000800000001
 31
0.0
  0
CIRCLE
  5
152
  8
SIZE
  6
CONTINUOUS
 62
    30
 10
356.25200100000001
 20
-27.499991999999999
 30
0.0
 40
6.0
  0
LINE
  5
153
  8
SIZE
  6
CONTINUOUS
 62
    30
 10
356.25200100000001
 20
-27.499991999999999
 30
0.0
 11
356.25200100000001
 21
-15.499992000000001
 31
0.0
  0
POINT
  5
154
  8
DEFPOINTS
  6
CONTINUOUS
 62
    30
 10
185.97647799999999
 20
190.00000800000001
 30
0.0
  0
POINT
  5
155
  8
DEFPOINTS
  6
CONTINUOUS
 62
    30
 10
88.477643999999998
 20
-27.499991999999999
 30
0.0
  0
POINT
  5
156
  8
DEFPOINTS
  6
CONTINUOUS
 62
    30
 10
356.25200100000001
 20
-27.499991999999999
 30
0.0
  0
LINE
  5
157
  8
SIZE
  6
CONTINUOUS
 62
    30
 10
-190.00001399999999
 20
-203.74118999999999
 30
0.0
 11
-190.00001399999999
 21
-524.92178200000001
 31
0.0
  0
LINE
  5
158
  8
SIZE
  6
CONTINUOUS
 62
    30
 10
2.4999859999999998
 20
-199.794769
 30
0.0
 11
2.4999859999999998
 21
-524.92178200000001
 31
0.0
  0
LINE
  5
159
  8
SIZE
  6
CONTINUOUS
 62
    30
 10
-178.00001399999999
 20
-504.92178199999989
 30
0.0
 11
-9.5000140000000002
 21
-504.92178199999989
 31
0.0
  0
LINE
  5
15A
  8
SIZE
  6
CONTINUOUS
 62
    30
 10
-522.90022999999985
 20
-504.92178199999989
 30
0.0
 11
-190.00001399999999
 21
-504.92178199999989
 31
0.0
  0
TEXT
  5
15B
  8
SIZE
  6
CONTINUOUS
 62
    30
 10
-497.90022971428567
 20
-479.92178199999989
 30
0.0
 40
64.0
  1
192.5
 41
0.9
 72
     1
 11
-388.18594400000001
 21
-479.92178199999989
 31
0.0
  0
CIRCLE
  5
15C
  8
SIZE
  6
CONTINUOUS
 62
    30
 10
-190.00001399999999
 20
-504.92178199999989
 30
0.0
 40
6.0
  0
LINE
  5
15D
  8
SIZE
  6
CONTINUOUS
 62
    30
 10
-190.00001399999999
 20
-504.92178199999989
 30
0.0
 11
-178.00001399999999
 21
-504.92178199999989
 31
0.0
  0
CIRCLE
  5
15E
  8
SIZE
  6
CONTINUOUS
 62
    30
 10
2.4999859999999998
 20
-504.92178199999989
 30
0.0
 40
6.0
  0
LINE
  5
15F
  8
SIZE
  6
CONTINUOUS
 62
    30
 10
2.4999859999999998
 20
-504.92178199999989
 30
0.0
 11
-9.5000140000000002
 21
-504.92178199999989
 31
0.0
  0
POINT
  5
160
  8
DEFPOINTS
  6
CONTINUOUS
 62
    30
 10
-190.00001399999999
 20
-183.74118999999999
 30
0.0
  0
POINT
  5
161
  8
DEFPOINTS
  6
CONTINUOUS
 62
    30
 10
2.4999859999999998
 20
-179.794769
 30
0.0
  0
POINT
  5
162
  8
DEFPOINTS
  6
CONTINUOUS
 62
    30
 10
2.4999859999999998
 20
-504.92178199999989
 30
0.0
  0
LINE
  5
163
  8
SIZE
  6
CONTINUOUS
 62
    30
 10
142.49998600000001
 20
-4.4999919999999989
 30
0.0
 11
142.49998600000001
 21
308.03103099999998
 31
0.0
  0
LINE
  5
164
  8
SIZE
  6
CONTINUOUS
 62
    30
 10
-137.50001399999999
 20
-4.4999919999999989
 30
0.0
 11
-137.50001399999999
 21
308.03103099999998
 31
0.0
  0
LINE
  5
165
  8
SIZE
  6
CONTINUOUS
 62
    30
 10
130.49998600000001
 20
288.03103099999998
 30
0.0
 11
-125.50001399999999
 21
288.03103099999998
 31
0.0
  0
CIRCLE
  5
166
  8
SIZE
  6
CONTINUOUS
 62
    30
 10
142.49998600000001
 20
288.03103099999998
 30
0.0
 40
6.0
  0
LINE
  5
167
  8
SIZE
  6
CONTINUOUS
 62
    30
 10
142.49998600000001
 20
288.03103099999998
 30
0.0
 11
130.49998600000001
 21
288.03103099999998
 31
0.0
  0
CIRCLE
  5
168
  8
SIZE
  6
CONTINUOUS
 62
    30
 10
-137.50001399999999
 20
288.03103099999998
 30
0.0
 40
6.0
  0
LINE
  5
169
  8
SIZE
  6
CONTINUOUS
 62
    30
 10
-137.50001399999999
 20
288.03103099999998
 30
0.0
 11
-125.50001399999999
 21
288.03103099999998
 31
0.0
  0
TEXT
  5
16A
  8
SIZE
  6
CONTINUOUS
 62
    30
 10
-111.87715685714289
 20
313.03103099999998
 30
0.0
 40
64.0
  1
φ280
 41
0.9
 72
     1
 11
2.4999859999999998
 21
313.03103099999998
 31
0.0
  0
POINT
  5
16B
  8
DEFPOINTS
  6
CONTINUOUS
 62
    30
 10
142.49998600000001
 20
-24.49999200000001
 30
0.0
  0
POINT
  5
16C
  8
DEFPOINTS
  6
CONTINUOUS
 62
    30
 10
-137.50001399999999
 20
-24.49999200000001
 30
0.0
  0
POINT
  5
16D
  8
DEFPOINTS
  6
CONTINUOUS
 62
    30
 10
-137.50001399999999
 20
288.03103099999998
 30
0.0
  0
CIRCLE
  5
16E
  8
DETAIL
  6
CONTINUOUS
 62
     5
 10
2.4999859999999998
 20
-24.49999200000001
 30
0.0
 40
140.0
  0
LINE
  5
16F
  8
BASIS
  6
DASHDOT
 62
     6
 10
1.9999859999999989
 20
-92.420335999999992
 30
0.0
 11
1.9999859999999989
 21
50.623004999999999
 31
0.0
  0
LINE
  5
170
  8
BASIS
  6
DASHDOT
 62
     6
 10
-76.112764999999996
 20
-27.499991999999999
 30
0.0
 11
88.477643999999998
 21
-27.499991999999999
 31
0.0
  0
CIRCLE
  5
171
  8
DETAIL
  6
CONTINUOUS
 62
     5
 10
1.9999859999999989
 20
-27.499991999999999
 30
0.0
 40
55.0
  0
LINE
  5
172
  8
BASIS
  6
DASHDOT
 62
     6
 10
2.4999859999999998
 20
-179.794769
 30
0.0
 11
2.4999859999999998
 21
141.9779639999999
 31
0.0
  0
LINE
  5
173
  8
BASIS
  6
DASHDOT
 62
     6
 10
-160.317612
 20
-24.49999200000001
 30
0.0
 11
162.95160899999999
 21
-24.49999200000001
 31
0.0
  0
TEXT
  5
1AE
  8
ETC
  6
CONTINUOUS
 62
    61
 10
637.15530545372781
 20
595.08948981286278
 30
0.0
 40
64.0
  1
産業扇
 41
0.9
  0
TEXT
  5
1AF
  8
ETC
  6
CONTINUOUS
 62
    61
 10
632.32303745372792
 20
706.43411981286283
 30
0.0
 40
64.0
  1
BF-23T3_4
 41
0.9
  0
TEXT
  5
1B0
  8
ETC
  6
CONTINUOUS
 62
    61
 10
721.0192475612763
 20
485.23568858650401
 30
0.0
 40
64.0
  1
BF-23T3
 41
0.9
  0
TEXT
  5
1B1
  8
ETC
  6
CONTINUOUS
 62
    61
 10
721.0192475612763
 20
384.0479324024339
 30
0.0
 40
64.0
  1
BF-25T3
 41
0.9
  0
ENDSEC
  0
EOF
