  0
SECTION
  2
HEADER
  9
$ACADVER
  1
AC1009
  9
$DWGCODEPAGE
  3
dos932
  9
$INSBASE
 10
0.0
 20
0.0
 30
0.0
  9
$EXTMIN
 10
-643.07096734767765
 20
-472.64097953755481
 30
-0.0015258207003583
  9
$EXTMAX
 10
1051.8447991947689
 20
643.43262527071965
 30
0.0000000349246037
  9
$LIMMIN
 10
-2970.0
 20
-2100.0
  9
$LIMMAX
 10
2970.0
 20
2100.0
  9
$ORTHOMODE
 70
     1
  9
$REGENMODE
 70
     1
  9
$FILLMODE
 70
     1
  9
$QTEXTMODE
 70
     0
  9
$MIRRTEXT
 70
     0
  9
$LTSCALE
 40
20.0
  9
$ATTMODE
 70
     1
  9
$TEXTSIZE
 40
64.0
  9
$TRACEWID
 40
0.05
  9
$TEXTSTYLE
  7
STANDARD
  9
$CLAYER
  8
SIZE
  9
$CELTYPE
  6
CONTINUOUS
  9
$CECOLOR
 62
     7
  9
$DIMSCALE
 40
1.0
  9
$DIMASZ
 40
12.0
  9
$DIMEXO
 40
20.0
  9
$DIMDLI
 40
200.0
  9
$DIMRND
 40
0.0
  9
$DIMDLE
 40
0.0
  9
$DIMEXE
 40
20.0
  9
$DIMTP
 40
0.0
  9
$DIMTM
 40
0.0
  9
$DIMTXT
 40
64.0
  9
$DIMCEN
 40
0.09
  9
$DIMTSZ
 40
0.0
  9
$DIMTOL
 70
     0
  9
$DIMLIM
 70
     0
  9
$DIMTIH
 70
     0
  9
$DIMTOH
 70
     0
  9
$DIMSE1
 70
     0
  9
$DIMSE2
 70
     0
  9
$DIMTAD
 70
     1
  9
$DIMZIN
 70
     8
  9
$DIMBLK
  1

  9
$DIMASO
 70
     1
  9
$DIMSHO
 70
     0
  9
$DIMPOST
  1

  9
$DIMAPOST
  1

  9
$DIMALT
 70
     0
  9
$DIMALTD
 70
     2
  9
$DIMALTF
 40
25.399999999999999
  9
$DIMLFAC
 40
1.0
  9
$DIMTOFL
 70
     1
  9
$DIMTVP
 40
0.0
  9
$DIMTIX
 70
     1
  9
$DIMSOXD
 70
     0
  9
$DIMSAH
 70
     0
  9
$DIMBLK1
  1

  9
$DIMBLK2
  1

  9
$DIMSTYLE
  2
STANDARD
  9
$DIMCLRD
 70
     7
  9
$DIMCLRE
 70
     7
  9
$DIMCLRT
 70
     7
  9
$DIMTFAC
 40
1.0
  9
$DIMGAP
 40
25.0
  9
$LUNITS
 70
     2
  9
$LUPREC
 70
     4
  9
$SKETCHINC
 40
0.1
  9
$FILLETRAD
 40
3.0
  9
$AUNITS
 70
     1
  9
$AUPREC
 70
     3
  9
$MENU
  1
ACAD
  9
$ELEVATION
 40
0.0
  9
$PELEVATION
 40
0.0
  9
$THICKNESS
 40
0.0
  9
$LIMCHECK
 70
     0
  9
$CHAMFERA
 40
0.0
  9
$CHAMFERB
 40
0.0
  9
$SKPOLY
 70
     0
  9
$TDCREATE
 40
2453019.62301037
  9
$TDUPDATE
 40
2459025.610829329
  9
$TDINDWG
 40
1.7146571875
  9
$TDUSRTIMER
 40
1.7146571875
  9
$USRTIMER
 70
     1
  9
$ANGBASE
 50
0.0
  9
$ANGDIR
 70
     0
  9
$PDMODE
 70
     3
  9
$PDSIZE
 40
-2.0
  9
$PLINEWID
 40
0.0
  9
$SPLFRAME
 70
     0
  9
$SPLINETYPE
 70
     6
  9
$SPLINESEGS
 70
     8
  9
$SURFTAB1
 70
     6
  9
$SURFTAB2
 70
     6
  9
$SURFTYPE
 70
     6
  9
$SURFU
 70
     6
  9
$SURFV
 70
     6
  9
$UCSNAME
  2

  9
$UCSORG
 10
0.0
 20
0.0
 30
0.0
  9
$UCSXDIR
 10
1.0
 20
0.0
 30
0.0
  9
$UCSYDIR
 10
0.0
 20
1.0
 30
0.0
  9
$PUCSNAME
  2

  9
$PUCSORG
 10
0.0
 20
0.0
 30
0.0
  9
$PUCSXDIR
 10
1.0
 20
0.0
 30
0.0
  9
$PUCSYDIR
 10
0.0
 20
1.0
 30
0.0
  9
$USERI1
 70
     0
  9
$USERI2
 70
     0
  9
$USERI3
 70
     0
  9
$USERI4
 70
     0
  9
$USERI5
 70
     0
  9
$USERR1
 40
20.0
  9
$USERR2
 40
0.0
  9
$USERR3
 40
0.0
  9
$USERR4
 40
0.0
  9
$USERR5
 40
0.0
  9
$WORLDVIEW
 70
     1
  9
$SHADEDGE
 70
     3
  9
$SHADEDIF
 70
    70
  9
$TILEMODE
 70
     1
  9
$MAXACTVP
 70
    48
  9
$PINSBASE
 10
0.0
 20
0.0
 30
0.0
  9
$PLIMCHECK
 70
     0
  9
$PEXTMIN
 10
-100000000000000000000.0
 20
-100000000000000000000.0
 30
-100000000000000000000.0
  9
$PEXTMAX
 10
100000000000000000000.0
 20
100000000000000000000.0
 30
100000000000000000000.0
  9
$PLIMMIN
 10
0.0
 20
0.0
  9
$PLIMMAX
 10
12.0
 20
9.0
  9
$UNITMODE
 70
     0
  9
$VISRETAIN
 70
     0
  9
$PLINEGEN
 70
     0
  9
$PSLTSCALE
 70
     0
  9
$TREEDEPTH
 70
  3020
  9
$ATTDIA
 70
     0
  9
$ATTREQ
 70
     1
  9
$BLIPMODE
 70
     1
  9
$COORDS
 70
     1
  9
$DRAGMODE
 70
     2
  9
$OSMODE
 70
     0
  9
$HANDLING
 70
     0
  9
$HANDSEED
  5
F36E
  0
ENDSEC
  0
SECTION
  2
TABLES
  0
TABLE
  2
LTYPE
 70
     2
  0
LTYPE
  2
CONTINUOUS
 70
     0
  3
実線
 72
    65
 73
     0
 40
0.0
  0
LTYPE
  2
DASHDOT
 70
     0
  3
____ _ ____ _ ____ _ ____ _ ____ _ ____ _ ____
 72
    65
 73
     4
 40
5.5
 49
4.0
 49
-0.6
 49
0.3
 49
-0.6
  0
ENDTAB
  0
TABLE
  2
LAYER
 70
    12
  0
LAYER
  2
0
 70
     0
 62
     7
  6
CONTINUOUS
  0
LAYER
  2
BASIS
 70
     0
 62
     6
  6
DASHDOT
  0
LAYER
  2
OUTLINE
 70
     0
 62
     3
  6
CONTINUOUS
  0
LAYER
  2
DETAIL
 70
     0
 62
     5
  6
CONTINUOUS
  0
LAYER
  2
SIZE
 70
     0
 62
    30
  6
CONTINUOUS
  0
LAYER
  2
ARRANGE
 70
     0
 62
     1
  6
CONTINUOUS
  0
LAYER
  2
DEFPOINTS
 70
     0
 62
     7
  6
CONTINUOUS
  0
LAYER
  2
ETC
 70
     0
 62
    61
  6
CONTINUOUS
  0
LAYER
  2
FIX
 70
     0
 62
    11
  6
CONTINUOUS
  0
LAYER
  2
NOTE
 70
     0
 62
     4
  6
CONTINUOUS
  0
LAYER
  2
SERVICESPACE
 70
    64
 62
     2
  6
DASHDOT
  0
LAYER
  2
SYMBOLLINE
 70
    64
 62
    15
  6
CONTINUOUS
  0
ENDTAB
  0
TABLE
  2
STYLE
 70
     1
  0
STYLE
  2
STANDARD
 70
     0
 40
64.0
 41
0.9
 50
0.0
 71
     0
 42
64.0
  3
SIMPLEX.shx
  4
BIGFONT.shx
  0
ENDTAB
  0
TABLE
  2
APPID
 70
    19
  0
APPID
  2
ACAD
 70
     0
  0
APPID
  2
AUTOCAD_POSTSCRIPT_FIGURE
 70
     0
  0
APPID
  2
ACAD_EXEMPT_FROM_CAD_STANDARDS
 70
     0
  0
APPID
  2
ACAD_PSEXT
 70
     0
  0
APPID
  2
ACAUTHENVIRON
 70
     0
  0
APPID
  2
GENIUS_GENOENT_13
 70
     0
  0
APPID
  2
GENIUS_GENCFG_13
 70
     0
  0
APPID
  2
GENIUS_GENCFG0_13
 70
     0
  0
APPID
  2
GENIUS_GENCFG1_13
 70
     0
  0
APPID
  2
GENIUS_GENCFG2_13
 70
     0
  0
APPID
  2
GENIUS_GENCFG3_13
 70
     0
  0
APPID
  2
GENIUS_GENCFG4_13
 70
     0
  0
APPID
  2
GENIUS_GEVCFG0_13
 70
     0
  0
APPID
  2
CONTENTBLOCKICON
 70
     0
  0
APPID
  2
CONTENTBLOCKDESCRIPTION
 70
     0
  0
APPID
  2
ACAD_NAV_VCDISPLAY
 70
     0
  0
APPID
  2
ACAD_MLEADERVER
 70
     0
  0
APPID
  2
ACDBDYNAMICBLOCKTRUENAME
 70
     0
  0
APPID
  2
ACDBDYNAMICBLOCKGUID
 70
     0
  0
ENDTAB
  0
TABLE
  2
DIMSTYLE
 70
     1
  0
DIMSTYLE
  2
STANDARD
 70
     0
  3

  4

  5
_ORIGIN
  6

  7

 40
1.0
 41
12.0
 42
20.0
 43
200.0
 44
20.0
 45
0.0
 46
0.0
 47
0.0
 48
0.0
140
64.0
141
0.09
142
0.0
143
25.399999999999999
144
1.0
145
0.0
146
1.0
147
25.0
 71
     0
 72
     0
 73
     0
 74
     0
 75
     0
 76
     0
 77
     1
 78
     8
170
     0
171
     2
172
     1
173
     0
174
     1
175
     0
176
     7
177
     7
178
     7
  0
ENDTAB
  0
TABLE
  2
VIEW
 70
     1
  0
VIEW
  2
ALL
 70
     0
 40
4282.6198079999986
 10
0.0
 20
41.309904000000003
 41
5940.0
 11
0.0
 21
0.0
 31
1.0
 12
0.0
 22
0.0
 32
0.0
 42
50.0
 43
0.0
 44
0.0
 50
0.0
 71
     0
  0
ENDTAB
  0
TABLE
  2
UCS
 70
     0
  0
ENDTAB
  0
TABLE
  2
VPORT
 70
     1
  0
VPORT
  2
*ACTIVE
 70
     0
 10
0.0
 20
0.0
 11
1.0
 21
1.0
 12
204.38691592354539
 22
85.395822866582478
 13
0.0
 23
0.0
 14
1.0
 24
1.0
 15
0.0
 25
0.0
 16
0.0
 26
0.0
 36
1.0
 17
0.0
 27
0.0
 37
0.0
 40
1123.472987823578
 41
1.747787610619469
 42
50.0
 43
0.0
 44
0.0
 50
0.0
 51
0.0
 71
     0
 72
  1000
 73
     1
 74
     3
 75
     0
 76
     0
 77
     0
 78
     0
  0
ENDTAB
  0
ENDSEC
  0
SECTION
  2
BLOCKS
  0
BLOCK
  8
0
  2
_ORIGIN
 70
     0
 10
0.0
 20
0.0
 30
0.0
  3
_ORIGIN
  1
_ORIGIN
  0
CIRCLE
  8
0
  6
CONTINUOUS
 62
     7
 10
0.0
 20
0.0
 30
0.0
 40
0.5
  0
LINE
  8
0
  6
CONTINUOUS
 62
     7
 10
0.0
 20
0.0
 30
0.0
 11
-1.0
 21
0.0
 31
0.0
  0
ENDBLK
  8
0
  0
ENDSEC
  0
SECTION
  2
ENTITIES
  0
LINE
  8
BASIS
  6
DASHDOT
 62
     6
 10
70.215868999999998
 20
0.5
 30
0.0
 11
137.57404299999999
 21
0.5
 31
0.0
  0
LINE
  8
DETAIL
  6
CONTINUOUS
 62
     5
 10
-133.5
 20
147.855966
 30
0.0
 11
-112.5
 21
147.855966
 31
0.0
  0
ARC
  8
DETAIL
  6
CONTINUOUS
 62
     5
 10
-133.5
 20
139.855966
 30
0.0
 40
8.0
 50
90.0
 51
180.0
  0
LINE
  8
DETAIL
  6
CONTINUOUS
 62
     5
 10
-141.5
 20
-143.84572600000001
 30
0.0
 11
-141.5
 21
139.855966
 31
0.0
  0
ARC
  8
DETAIL
  6
CONTINUOUS
 62
     5
 10
-133.5
 20
-143.84572600000001
 30
0.0
 40
8.0
 50
180.0
 51
270.0
  0
LINE
  8
DETAIL
  6
CONTINUOUS
 62
     5
 10
-133.5
 20
-151.84572600000001
 30
0.0
 11
-112.5
 21
-151.84572600000001
 31
0.0
  0
LINE
  8
BASIS
  6
DASHDOT
 62
     6
 10
-214.30485100000001
 20
0.0
 30
0.0
 11
138.00858696117299
 21
0.0
 31
0.0
  0
LINE
  8
DETAIL
  6
CONTINUOUS
 62
     5
 10
87.5
 20
-192.0
 30
0.0
 11
87.5
 21
188.0
 31
0.0
  0
LINE
  8
DETAIL
  6
CONTINUOUS
 62
     5
 10
-87.5
 20
-192.0
 30
0.0
 11
-87.5
 21
188.0
 31
0.0
  0
ARC
  8
DETAIL
  6
CONTINUOUS
 62
     5
 10
-191.5
 20
60.25
 30
0.0
 40
5.0
 50
90.0
 51
180.0
  0
ARC
  8
DETAIL
  6
CONTINUOUS
 62
     5
 10
-191.5
 20
-60.25
 30
0.0
 40
5.0
 50
180.0
 51
270.0
  0
LINE
  8
DETAIL
  6
CONTINUOUS
 62
     5
 10
-196.5
 20
-60.25
 30
0.0
 11
-196.5
 21
60.25
 31
0.0
  0
LINE
  8
DETAIL
  6
CONTINUOUS
 62
     5
 10
-191.5
 20
65.25
 30
0.0
 11
-141.5
 21
65.25
 31
0.0
  0
LINE
  8
DETAIL
  6
CONTINUOUS
 62
     5
 10
-191.5
 20
-65.25
 30
0.0
 11
-141.5
 21
-65.25
 31
0.0
  0
LINE
  8
DETAIL
  6
CONTINUOUS
 62
     5
 10
87.5
 20
188.0
 30
0.0
 11
112.5
 21
188.0
 31
0.0
  0
LINE
  8
DETAIL
  6
CONTINUOUS
 62
     5
 10
-87.5
 20
163.0
 30
0.0
 11
87.5
 21
163.0
 31
0.0
  0
LINE
  8
DETAIL
  6
CONTINUOUS
 62
     5
 10
-87.5
 20
-167.0
 30
0.0
 11
87.5
 21
-167.0
 31
0.0
  0
LINE
  8
DETAIL
  6
CONTINUOUS
 62
     5
 10
-112.5
 20
-192.0
 30
0.0
 11
-112.5
 21
188.0
 31
0.0
  0
LINE
  8
BASIS
  6
DASHDOT
 62
     6
 10
0.0
 20
-260.87583599999999
 30
0.0
 11
0.0
 21
233.25039899999999
 31
0.0
  0
LINE
  8
DETAIL
  6
CONTINUOUS
 62
     5
 10
-112.5
 20
188.0
 30
0.0
 11
-87.5
 21
188.0
 31
0.0
  0
LINE
  8
DETAIL
  6
CONTINUOUS
 62
     5
 10
-87.5
 20
-192.0
 30
0.0
 11
87.5
 21
-192.0
 31
0.0
  0
LINE
  8
DETAIL
  6
CONTINUOUS
 62
     5
 10
-87.5
 20
-192.0
 30
0.0
 11
-140.0
 21
-192.0
 31
0.0
  0
LINE
  8
DETAIL
  6
CONTINUOUS
 62
     5
 10
80.0
 20
-192.0
 30
0.0
 11
140.0
 21
-192.0
 31
0.0
  0
LINE
  8
DETAIL
  6
CONTINUOUS
 62
     5
 10
-140.0
 20
-192.80000000000001
 30
0.0
 11
140.0
 21
-192.80000000000001
 31
0.0
  0
LINE
  8
DETAIL
  6
CONTINUOUS
 62
     5
 10
112.5
 20
-192.0
 30
0.0
 11
112.5
 21
188.0
 31
0.0
  0
LINE
  8
DETAIL
  6
CONTINUOUS
 62
     5
 10
-96.5
 20
-144.0
 30
0.0
 11
-96.5
 21
-160.0
 31
0.0
  0
LINE
  8
DETAIL
  6
CONTINUOUS
 62
     5
 10
-108.5
 20
-144.0
 30
0.0
 11
-108.5
 21
-160.0
 31
0.0
  0
ARC
  8
DETAIL
  6
CONTINUOUS
 62
     5
 10
-102.5
 20
-152.0
 30
0.0
 40
10.0
 50
233.1301020000007
 51
306.8698979999993
  0
ARC
  8
DETAIL
  6
CONTINUOUS
 62
     5
 10
-102.5
 20
-152.0
 30
0.0
 40
10.0
 50
53.130101999999987
 51
126.86989800000001
  0
CIRCLE
  8
FIX
  6
CONTINUOUS
 62
    11
 10
-102.5
 20
-152.0
 30
0.0
 40
6.0
  0
LINE
  8
NOTE
  6
CONTINUOUS
 62
     4
 10
-102.5
 20
-132.0
 30
0.0
 11
-102.5
 21
-172.0
 31
0.0
  0
LINE
  8
NOTE
  6
CONTINUOUS
 62
     4
 10
-82.5
 20
-152.0
 30
0.0
 11
-122.5
 21
-152.0
 31
0.0
  0
LINE
  8
NOTE
  6
CONTINUOUS
 62
     4
 10
-102.5
 20
208.0
 30
0.0
 11
-102.5
 21
168.0
 31
0.0
  0
LINE
  8
NOTE
  6
CONTINUOUS
 62
     4
 10
-82.5
 20
188.0
 30
0.0
 11
-122.5
 21
188.0
 31
0.0
  0
CIRCLE
  8
FIX
  6
CONTINUOUS
 62
    11
 10
-102.5
 20
188.0
 30
0.0
 40
6.0
  0
LINE
  8
NOTE
  6
CONTINUOUS
 62
     4
 10
-102.5
 20
168.0
 30
0.0
 11
-102.5
 21
128.0
 31
0.0
  0
LINE
  8
NOTE
  6
CONTINUOUS
 62
     4
 10
-82.5
 20
148.0
 30
0.0
 11
-122.5
 21
148.0
 31
0.0
  0
CIRCLE
  8
FIX
  6
CONTINUOUS
 62
    11
 10
-102.5
 20
148.0
 30
0.0
 40
6.0
  0
ARC
  8
DETAIL
  6
CONTINUOUS
 62
     5
 10
-102.5
 20
148.0
 30
0.0
 40
10.0
 50
53.130101999999987
 51
126.86989800000001
  0
ARC
  8
DETAIL
  6
CONTINUOUS
 62
     5
 10
-102.5
 20
148.0
 30
0.0
 40
10.0
 50
233.1301020000007
 51
306.8698979999993
  0
LINE
  8
DETAIL
  6
CONTINUOUS
 62
     5
 10
-108.5
 20
156.0
 30
0.0
 11
-108.5
 21
140.0
 31
0.0
  0
LINE
  8
DETAIL
  6
CONTINUOUS
 62
     5
 10
-96.5
 20
156.0
 30
0.0
 11
-96.5
 21
140.0
 31
0.0
  0
LINE
  8
NOTE
  6
CONTINUOUS
 62
     4
 10
102.5
 20
-132.0
 30
0.0
 11
102.5
 21
-172.0
 31
0.0
  0
LINE
  8
NOTE
  6
CONTINUOUS
 62
     4
 10
82.5
 20
-152.0
 30
0.0
 11
122.5
 21
-152.0
 31
0.0
  0
CIRCLE
  8
FIX
  6
CONTINUOUS
 62
    11
 10
102.5
 20
-152.0
 30
0.0
 40
6.0
  0
ARC
  8
DETAIL
  6
CONTINUOUS
 62
     5
 10
102.5
 20
-152.0
 30
0.0
 40
10.0
 50
53.130101999999987
 51
126.86989800000001
  0
ARC
  8
DETAIL
  6
CONTINUOUS
 62
     5
 10
102.5
 20
-152.0
 30
0.0
 40
10.0
 50
233.1301020000007
 51
306.8698979999993
  0
LINE
  8
DETAIL
  6
CONTINUOUS
 62
     5
 10
108.5
 20
-144.0
 30
0.0
 11
108.5
 21
-160.0
 31
0.0
  0
LINE
  8
DETAIL
  6
CONTINUOUS
 62
     5
 10
96.5
 20
-144.0
 30
0.0
 11
96.5
 21
-160.0
 31
0.0
  0
LINE
  8
DETAIL
  6
CONTINUOUS
 62
     5
 10
96.5
 20
156.0
 30
0.0
 11
96.5
 21
140.0
 31
0.0
  0
LINE
  8
DETAIL
  6
CONTINUOUS
 62
     5
 10
108.5
 20
156.0
 30
0.0
 11
108.5
 21
140.0
 31
0.0
  0
ARC
  8
DETAIL
  6
CONTINUOUS
 62
     5
 10
102.5
 20
148.0
 30
0.0
 40
10.0
 50
233.1301020000007
 51
306.8698979999993
  0
ARC
  8
DETAIL
  6
CONTINUOUS
 62
     5
 10
102.5
 20
148.0
 30
0.0
 40
10.0
 50
53.130101999999987
 51
126.86989800000001
  0
CIRCLE
  8
FIX
  6
CONTINUOUS
 62
    11
 10
102.5
 20
148.0
 30
0.0
 40
6.0
  0
LINE
  8
NOTE
  6
CONTINUOUS
 62
     4
 10
102.5
 20
168.0
 30
0.0
 11
102.5
 21
128.0
 31
0.0
  0
LINE
  8
NOTE
  6
CONTINUOUS
 62
     4
 10
82.5
 20
148.0
 30
0.0
 11
122.5
 21
148.0
 31
0.0
  0
LINE
  8
NOTE
  6
CONTINUOUS
 62
     4
 10
102.5
 20
208.0
 30
0.0
 11
102.5
 21
168.0
 31
0.0
  0
LINE
  8
NOTE
  6
CONTINUOUS
 62
     4
 10
82.5
 20
188.0
 30
0.0
 11
122.5
 21
188.0
 31
0.0
  0
CIRCLE
  8
FIX
  6
CONTINUOUS
 62
    11
 10
102.5
 20
188.0
 30
0.0
 40
6.0
  0
LINE
  8
SIZE
  6
CONTINUOUS
 62
    30
 10
-142.5
 20
148.0
 30
0.0
 11
-572.12158899999986
 21
148.0
 31
0.0
  0
LINE
  8
SIZE
  6
CONTINUOUS
 62
    30
 10
-142.5
 20
-152.0
 30
0.0
 11
-572.12158899999986
 21
-152.0
 31
0.0
  0
LINE
  8
SIZE
  6
CONTINUOUS
 62
    30
 10
-552.12158899999997
 20
136.0
 30
0.0
 11
-552.12158899999997
 21
-140.0
 31
0.0
  0
TEXT
  8
SIZE
  6
CONTINUOUS
 62
    30
 10
-578.85010399999987
 20
-76.05714285714285
 30
0.0
 40
64.0
  1
300
 50
90.0
 41
0.9
 72
     1
 11
-578.85010399999987
 21
-2.0
 31
0.0
  0
CIRCLE
  8
SIZE
  6
CONTINUOUS
 62
    30
 10
-552.12158899999997
 20
148.0
 30
0.0
 40
6.0
  0
LINE
  8
SIZE
  6
CONTINUOUS
 62
    30
 10
-552.12158899999997
 20
148.0
 30
0.0
 11
-552.12158899999997
 21
136.0
 31
0.0
  0
CIRCLE
  8
SIZE
  6
CONTINUOUS
 62
    30
 10
-552.12158899999997
 20
-152.0
 30
0.0
 40
6.0
  0
LINE
  8
SIZE
  6
CONTINUOUS
 62
    30
 10
-552.12158899999997
 20
-152.0
 30
0.0
 11
-552.12158899999997
 21
-140.0
 31
0.0
  0
LINE
  8
SIZE
  6
CONTINUOUS
 62
    30
 10
132.5
 20
188.0
 30
0.0
 11
550.618514588984
 21
188.0
 31
0.0
  0
LINE
  8
SIZE
  6
CONTINUOUS
 62
    30
 10
160.0
 20
-192.0
 30
0.0
 11
550.618514588984
 21
-192.0
 31
0.0
  0
LINE
  8
SIZE
  6
CONTINUOUS
 62
    30
 10
530.618514588984
 20
176.0
 30
0.0
 11
530.618514588984
 21
-180.0
 31
0.0
  0
TEXT
  8
SIZE
  6
CONTINUOUS
 62
    30
 10
505.41363558898411
 20
-76.057142857142836
 30
0.0
 40
64.0
  1
380
 50
90.0
 41
0.9
 72
     1
 11
505.41363558898411
 21
-2.0
 31
0.0
  0
CIRCLE
  8
SIZE
  6
CONTINUOUS
 62
    30
 10
530.618514588984
 20
188.0
 30
0.0
 40
6.0
  0
LINE
  8
SIZE
  6
CONTINUOUS
 62
    30
 10
530.618514588984
 20
188.0
 30
0.0
 11
530.618514588984
 21
176.0
 31
0.0
  0
CIRCLE
  8
SIZE
  6
CONTINUOUS
 62
    30
 10
530.618514588984
 20
-192.0
 30
0.0
 40
6.0
  0
LINE
  8
SIZE
  6
CONTINUOUS
 62
    30
 10
530.618514588984
 20
-192.0
 30
0.0
 11
530.618514588984
 21
-180.0
 31
0.0
  0
LINE
  8
SIZE
  6
CONTINUOUS
 62
    30
 10
-234.30485100000001
 20
0.0
 30
0.0
 11
-380.55142599999999
 21
0.0
 31
0.0
  0
LINE
  8
SIZE
  6
CONTINUOUS
 62
    30
 10
-160.0
 20
-192.0
 30
0.0
 11
-380.55142599999999
 21
-192.0
 31
0.0
  0
LINE
  8
SIZE
  6
CONTINUOUS
 62
    30
 10
-360.55142599999999
 20
-12.0
 30
0.0
 11
-360.55142599999999
 21
-180.0
 31
0.0
  0
LINE
  8
SIZE
  6
CONTINUOUS
 62
    30
 10
-360.55142599999999
 20
-396.48532999999998
 30
0.0
 11
-360.55142599999999
 21
-192.0
 31
0.0
  0
TEXT
  8
SIZE
  6
CONTINUOUS
 62
    30
 10
-385.55142599999999
 20
-371.48532957142862
 30
0.0
 40
64.0
  1
192
 50
90.0
 41
0.9
 72
     1
 11
-385.55142599999999
 21
-302.91390100000001
 31
0.0
  0
CIRCLE
  8
SIZE
  6
CONTINUOUS
 62
    30
 10
-360.55142599999999
 20
0.0
 30
0.0
 40
6.0
  0
LINE
  8
SIZE
  6
CONTINUOUS
 62
    30
 10
-360.55142599999999
 20
0.0
 30
0.0
 11
-360.55142599999999
 21
-12.0
 31
0.0
  0
CIRCLE
  8
SIZE
  6
CONTINUOUS
 62
    30
 10
-360.55142599999999
 20
-192.0
 30
0.0
 40
6.0
  0
LINE
  8
SIZE
  6
CONTINUOUS
 62
    30
 10
-360.55142599999999
 20
-192.0
 30
0.0
 11
-360.55142599999999
 21
-180.0
 31
0.0
  0
LINE
  8
SIZE
  6
CONTINUOUS
 62
    30
 10
-87.5
 20
208.0
 30
0.0
 11
-87.5
 21
297.66052200000001
 31
0.0
  0
LINE
  8
SIZE
  6
CONTINUOUS
 62
    30
 10
-112.5
 20
208.0
 30
0.0
 11
-112.5
 21
297.66052200000001
 31
0.0
  0
LINE
  8
SIZE
  6
CONTINUOUS
 62
    30
 10
-75.5
 20
277.66052200000001
 30
0.0
 11
-63.5
 21
277.66052200000001
 31
0.0
  0
LINE
  8
SIZE
  6
CONTINUOUS
 62
    30
 10
-124.5
 20
277.66052200000001
 30
0.0
 11
-136.5
 21
277.66052200000001
 31
0.0
  0
LINE
  8
SIZE
  6
CONTINUOUS
 62
    30
 10
-347.16775400000012
 20
277.66052200000001
 30
0.0
 11
-112.5
 21
277.66052200000001
 31
0.0
  0
TEXT
  8
SIZE
  6
CONTINUOUS
 62
    30
 10
-322.16775442857141
 20
302.66052200000001
 30
0.0
 40
64.0
  1
25
 41
0.9
 72
     1
 11
-275.53918299999998
 21
302.66052200000001
 31
0.0
  0
LINE
  8
SIZE
  6
CONTINUOUS
 62
    30
 10
-87.5
 20
277.66052200000001
 30
0.0
 11
-112.5
 21
277.66052200000001
 31
0.0
  0
LINE
  8
SIZE
  6
CONTINUOUS
 62
    30
 10
-87.5
 20
277.66052200000001
 30
0.0
 11
-112.5
 21
277.66052200000001
 31
0.0
  0
CIRCLE
  8
SIZE
  6
CONTINUOUS
 62
    30
 10
-87.5
 20
277.66052200000001
 30
0.0
 40
6.0
  0
LINE
  8
SIZE
  6
CONTINUOUS
 62
    30
 10
-87.5
 20
277.66052200000001
 30
0.0
 11
-75.5
 21
277.66052200000001
 31
0.0
  0
CIRCLE
  8
SIZE
  6
CONTINUOUS
 62
    30
 10
-112.5
 20
277.66052200000001
 30
0.0
 40
6.0
  0
LINE
  8
SIZE
  6
CONTINUOUS
 62
    30
 10
-112.5
 20
277.66052200000001
 30
0.0
 11
-124.5
 21
277.66052200000001
 31
0.0
  0
LINE
  8
SIZE
  6
CONTINUOUS
 62
    30
 10
87.5
 20
208.0
 30
0.0
 11
87.5
 21
297.66052200000001
 31
0.0
  0
LINE
  8
SIZE
  6
CONTINUOUS
 62
    30
 10
112.5
 20
208.0
 30
0.0
 11
112.5
 21
297.66052200000001
 31
0.0
  0
LINE
  8
SIZE
  6
CONTINUOUS
 62
    30
 10
75.5
 20
277.66052200000001
 30
0.0
 11
63.5
 21
277.66052200000001
 31
0.0
  0
LINE
  8
SIZE
  6
CONTINUOUS
 62
    30
 10
124.5
 20
277.66052200000001
 30
0.0
 11
136.5
 21
277.66052200000001
 31
0.0
  0
TEXT
  8
SIZE
  6
CONTINUOUS
 62
    30
 10
141.99315157142851
 20
302.66411299999999
 30
0.0
 40
64.0
  1
25
 41
0.9
 72
     1
 11
188.621723
 21
302.66411299999999
 31
0.0
  0
LINE
  8
SIZE
  6
CONTINUOUS
 62
    30
 10
87.5
 20
277.66052200000001
 30
0.0
 11
112.5
 21
277.66052200000001
 31
0.0
  0
LINE
  8
SIZE
  6
CONTINUOUS
 62
    30
 10
87.5
 20
277.66052200000001
 30
0.0
 11
112.5
 21
277.66052200000001
 31
0.0
  0
CIRCLE
  8
SIZE
  6
CONTINUOUS
 62
    30
 10
87.5
 20
277.66052200000001
 30
0.0
 40
6.0
  0
LINE
  8
SIZE
  6
CONTINUOUS
 62
    30
 10
87.5
 20
277.66052200000001
 30
0.0
 11
75.5
 21
277.66052200000001
 31
0.0
  0
CIRCLE
  8
SIZE
  6
CONTINUOUS
 62
    30
 10
112.5
 20
277.66052200000001
 30
0.0
 40
6.0
  0
LINE
  8
SIZE
  6
CONTINUOUS
 62
    30
 10
112.5
 20
277.66052200000001
 30
0.0
 11
124.5
 21
277.66052200000001
 31
0.0
  0
LINE
  8
SIZE
  6
CONTINUOUS
 62
    30
 10
-102.5
 20
228.0
 30
0.0
 11
-102.5
 21
381.457178
 31
0.0
  0
LINE
  8
SIZE
  6
CONTINUOUS
 62
    30
 10
102.5
 20
228.0
 30
0.0
 11
102.5
 21
381.457178
 31
0.0
  0
LINE
  8
SIZE
  6
CONTINUOUS
 62
    30
 10
-90.5
 20
361.457178
 30
0.0
 11
90.5
 21
361.457178
 31
0.0
  0
CIRCLE
  8
SIZE
  6
CONTINUOUS
 62
    30
 10
-102.5
 20
361.457178
 30
0.0
 40
6.0
  0
LINE
  8
SIZE
  6
CONTINUOUS
 62
    30
 10
-102.5
 20
361.457178
 30
0.0
 11
-90.5
 21
361.457178
 31
0.0
  0
CIRCLE
  8
SIZE
  6
CONTINUOUS
 62
    30
 10
102.5
 20
361.457178
 30
0.0
 40
6.0
  0
LINE
  8
SIZE
  6
CONTINUOUS
 62
    30
 10
102.5
 20
361.457178
 30
0.0
 11
90.5
 21
361.457178
 31
0.0
  0
TEXT
  8
SIZE
  6
CONTINUOUS
 62
    30
 10
-74.05714285714285
 20
386.457178
 30
0.0
 40
64.0
  1
205
 41
0.9
 72
     1
 11
0.0
 21
386.457178
 31
0.0
  0
LINE
  8
SIZE
  6
CONTINUOUS
 62
    30
 10
112.5
 20
192.05000000000001
 30
0.0
 11
112.5
 21
487.44048600000002
 31
0.0
  0
LINE
  8
SIZE
  6
CONTINUOUS
 62
    30
 10
-196.5
 20
80.25
 30
0.0
 11
-196.5
 21
487.44048600000002
 31
0.0
  0
LINE
  8
SIZE
  6
CONTINUOUS
 62
    30
 10
100.5
 20
467.44048600000002
 30
0.0
 11
-184.5
 21
467.44048600000002
 31
0.0
  0
CIRCLE
  8
SIZE
  6
CONTINUOUS
 62
    30
 10
112.5
 20
467.44048600000002
 30
0.0
 40
6.0
  0
LINE
  8
SIZE
  6
CONTINUOUS
 62
    30
 10
112.5
 20
467.44048600000002
 30
0.0
 11
100.5
 21
467.44048600000002
 31
0.0
  0
CIRCLE
  8
SIZE
  6
CONTINUOUS
 62
    30
 10
-196.5
 20
467.44048600000002
 30
0.0
 40
6.0
  0
LINE
  8
SIZE
  6
CONTINUOUS
 62
    30
 10
-196.5
 20
467.44048600000002
 30
0.0
 11
-184.5
 21
467.44048600000002
 31
0.0
  0
TEXT
  8
SIZE
  6
CONTINUOUS
 62
    30
 10
-114.6857142857143
 20
492.44048600000002
 30
0.0
 40
64.0
  1
309
 41
0.9
 72
     1
 11
-42.0
 21
492.44048600000002
 31
0.0
  0
LINE
  8
SIZE
  6
CONTINUOUS
 62
    30
 10
112.5
 20
277.66052200000001
 30
0.0
 11
239.99923799999999
 21
277.66052200000001
 31
0.0
  0
LINE
  8
SIZE
  6
CONTINUOUS
 62
    30
 10
-112.5
 20
277.66052200000001
 30
0.0
 11
-329.22490900000003
 21
277.66052200000001
 31
0.0
  0
TEXT
  8
NOTE
  6
CONTINUOUS
 62
     4
 10
270.968343
 20
-316.30465700000002
 30
0.0
 40
64.0
  1
AH 12-φ20×12
 41
0.9
  0
LINE
  8
NOTE
  6
CONTINUOUS
 62
     4
 10
930.82248400000003
 20
-352.048856
 30
0.0
 11
250.25417999999999
 21
-352.048856
 31
0.0
  0
LINE
  8
NOTE
  6
CONTINUOUS
 62
     4
 10
102.5
 20
-152.0
 30
0.0
 11
250.25417999999999
 21
-352.048856
 31
0.0
  0
LINE
  8
NOTE
  6
CONTINUOUS
 62
     4
 10
118.129564
 20
-188.82005899999999
 30
0.0
 11
102.5
 21
-152.0
 31
0.0
  0
LINE
  8
NOTE
  6
CONTINUOUS
 62
     4
 10
102.5
 20
-152.0
 30
0.0
 11
134.44562900000011
 21
-176.07232400000001
 31
0.0
  0
POINT
  8
ARRANGE
  6
CONTINUOUS
 62
     1
 10
0.0
 20
0.0
 30
0.0
  0
CIRCLE
  8
ARRANGE
  6
CONTINUOUS
 62
     1
 10
0.0
 20
0.0
 30
0.0
 40
40.0
  0
TEXT
  8
NOTE
  6
CONTINUOUS
 62
     4
 10
245.62461999999999
 20
-67.125659999999982
 30
0.0
 40
64.0
  1
入口
 50
90.0
 41
0.9
  0
TEXT
  8
NOTE
  6
CONTINUOUS
 62
     4
 10
-61.813173000000013
 20
-313.67632400000002
 30
0.0
 40
64.0
  1
出口
 41
0.9
  0
LINE
  8
DETAIL
  6
CONTINUOUS
 62
     5
 10
-140.0
 20
-192.80000000000001
 30
0.0
 11
-140.0
 21
-192.0
 31
0.0
  0
LINE
  8
DETAIL
  6
CONTINUOUS
 62
     5
 10
140.0
 20
-192.80000000000001
 30
0.0
 11
140.0
 21
-192.0
 31
0.0
  0
LINE
  8
SIZE
  6
CONTINUOUS
 62
    30
 10
140.0
 20
-214.0
 30
0.0
 11
140.0
 21
-472.45111055290181
 31
0.0
  0
LINE
  8
SIZE
  6
CONTINUOUS
 62
    30
 10
-140.0
 20
-214.0
 30
0.0
 11
-140.0
 21
-472.45111055290181
 31
0.0
  0
LINE
  8
SIZE
  6
CONTINUOUS
 62
    30
 10
128.0
 20
-452.45111055290181
 30
0.0
 11
-128.0
 21
-452.45111055290181
 31
0.0
  0
CIRCLE
  8
SIZE
  6
CONTINUOUS
 62
    30
 10
140.0
 20
-452.45111055290181
 30
0.0
 40
6.0
  0
LINE
  8
SIZE
  6
CONTINUOUS
 62
    30
 10
140.0
 20
-452.45111055290181
 30
0.0
 11
128.0
 21
-452.45111055290181
 31
0.0
  0
CIRCLE
  8
SIZE
  6
CONTINUOUS
 62
    30
 10
-140.0
 20
-452.45111055290181
 30
0.0
 40
6.0
  0
LINE
  8
SIZE
  6
CONTINUOUS
 62
    30
 10
-140.0
 20
-452.45111055290181
 30
0.0
 11
-128.0
 21
-452.45111055290181
 31
0.0
  0
TEXT
  8
SIZE
  6
CONTINUOUS
 62
    30
 10
-114.3771428571429
 20
-427.45111055290181
 30
0.0
 40
64.0
  1
φ280
 41
0.9
 72
     1
 11
0.0
 21
-427.45111055290181
 31
0.0
  0
LINE
  8
SIZE
  6
CONTINUOUS
 62
    30
 10
-211.5
 20
65.25
 30
0.0
 11
-449.08508400000011
 21
65.25
 31
0.0
  0
LINE
  8
SIZE
  6
CONTINUOUS
 62
    30
 10
-211.5
 20
-65.25
 30
0.0
 11
-449.08508400000011
 21
-65.25
 31
0.0
  0
LINE
  8
SIZE
  6
CONTINUOUS
 62
    30
 10
-429.08508400000011
 20
77.25
 30
0.0
 11
-429.08508400000011
 21
89.25
 31
0.0
  0
LINE
  8
SIZE
  6
CONTINUOUS
 62
    30
 10
-429.08508400000011
 20
-77.25
 30
0.0
 11
-429.08508400000011
 21
-89.25
 31
0.0
  0
LINE
  8
SIZE
  6
CONTINUOUS
 62
    30
 10
-429.08508400000011
 20
65.25
 30
0.0
 11
-429.08508400000011
 21
-65.25
 31
0.0
  0
CIRCLE
  8
SIZE
  6
CONTINUOUS
 62
    30
 10
-429.08508400000011
 20
65.25
 30
0.0
 40
6.0
  0
LINE
  8
SIZE
  6
CONTINUOUS
 62
    30
 10
-429.08508400000011
 20
65.25
 30
0.0
 11
-429.08508400000011
 21
77.25
 31
0.0
  0
CIRCLE
  8
SIZE
  6
CONTINUOUS
 62
    30
 10
-429.08508400000011
 20
-65.25
 30
0.0
 40
6.0
  0
LINE
  8
SIZE
  6
CONTINUOUS
 62
    30
 10
-429.08508400000011
 20
-65.25
 30
0.0
 11
-429.08508400000011
 21
-77.25
 31
0.0
  0
TEXT
  8
SIZE
  6
CONTINUOUS
 62
    30
 10
-454.08508400000011
 20
-150.03428571428569
 30
0.0
 40
64.0
  1
φ130.5
 50
90.0
 41
0.9
 72
     1
 11
-454.08508400000011
 21
0.0
 31
0.0
  0
LINE
  8
NOTE
  6
CONTINUOUS
 62
     4
 10
-208.28339800000001
 20
-10.35822200000001
 30
0.0
 11
-177.5
 21
-35.900000000000027
 31
0.0
  0
LINE
  8
NOTE
  6
CONTINUOUS
 62
     4
 10
-177.5
 20
-35.900000000000027
 30
0.0
 11
-191.38831500000001
 21
1.6115270000000239
 31
0.0
  0
LINE
  8
NOTE
  6
CONTINUOUS
 62
     4
 10
-177.5
 20
-35.900000000000027
 30
0.0
 11
-350.63741599999997
 21
205.3560709999999
 31
0.0
  0
LINE
  8
NOTE
  6
CONTINUOUS
 62
     4
 10
-177.5
 20
-15.900000000000031
 30
0.0
 11
-177.5
 21
-55.900000000000027
 31
0.0
  0
LINE
  8
NOTE
  6
CONTINUOUS
 62
     4
 10
-157.5
 20
-35.900000000000027
 30
0.0
 11
-197.5
 21
-35.900000000000027
 31
0.0
  0
LINE
  8
NOTE
  6
CONTINUOUS
 62
     4
 10
-350.63741599999997
 20
205.3560709999999
 30
0.0
 11
-462.87402599999967
 21
205.3560709999999
 31
0.0
  0
TEXT
  8
NOTE
  6
CONTINUOUS
 62
     4
 10
-455.01746100000003
 20
227.786171
 30
0.0
 40
64.0
  1
EL
 41
0.9
  0
CIRCLE
  8
DETAIL
  6
CONTINUOUS
 62
     5
 10
-177.5
 20
-35.900000000000027
 30
0.0
 40
4.5
  0
TEXT
  8
ETC
  6
CONTINUOUS
 62
    61
 10
562.90357816385358
 20
467.85420425775777
 30
0.0
 40
64.0
  1
産業扇
 41
0.9
  0
TEXT
  8
ETC
  6
CONTINUOUS
 62
    61
 10
558.07131016385392
 20
579.19883425775788
 30
0.0
 40
64.0
  1
BF-23T5_6
 41
0.9
  0
TEXT
  8
ETC
  6
CONTINUOUS
 62
    61
 10
646.76752027140219
 20
358.00040303139917
 30
0.0
 40
64.0
  1
BF-23T5
 41
0.9
  0
TEXT
  8
ETC
  6
CONTINUOUS
 62
    61
 10
646.76752027140219
 20
256.81264684732901
 30
0.0
 40
64.0
  1
BF-25T5
 41
0.9
  0
LINE
  8
OUTLINE
  6
CONTINUOUS
 62
     3
 10
112.5
 20
-192.0
 30
0.0
 11
112.5
 21
188.0
 31
0.0
  0
LINE
  8
OUTLINE
  6
CONTINUOUS
 62
     3
 10
112.5
 20
-192.0
 30
0.0
 11
140.0
 21
-192.0
 31
0.0
  0
LINE
  8
OUTLINE
  6
CONTINUOUS
 62
     3
 10
-112.5
 20
-192.0
 30
0.0
 11
-140.0
 21
-192.0
 31
0.0
  0
LINE
  8
OUTLINE
  6
CONTINUOUS
 62
     3
 10
-112.5
 20
188.0
 30
0.0
 11
-87.5
 21
188.0
 31
0.0
  0
LINE
  8
OUTLINE
  6
CONTINUOUS
 62
     3
 10
-112.5
 20
-192.0
 30
0.0
 11
-112.5
 21
-151.84572600000001
 31
0.0
  0
LINE
  8
OUTLINE
  6
CONTINUOUS
 62
     3
 10
-112.5
 20
147.855966
 30
0.0
 11
-112.5
 21
188.0
 31
0.0
  0
LINE
  8
OUTLINE
  6
CONTINUOUS
 62
     3
 10
-87.5
 20
163.0
 30
0.0
 11
87.5
 21
163.0
 31
0.0
  0
LINE
  8
OUTLINE
  6
CONTINUOUS
 62
     3
 10
87.5
 20
188.0
 30
0.0
 11
112.5
 21
188.0
 31
0.0
  0
LINE
  8
OUTLINE
  6
CONTINUOUS
 62
     3
 10
-191.5
 20
-65.25
 30
0.0
 11
-141.5
 21
-65.25
 31
0.0
  0
LINE
  8
OUTLINE
  6
CONTINUOUS
 62
     3
 10
-191.5
 20
65.25
 30
0.0
 11
-141.5
 21
65.25
 31
0.0
  0
LINE
  8
OUTLINE
  6
CONTINUOUS
 62
     3
 10
-196.5
 20
-60.25
 30
0.0
 11
-196.5
 21
60.25
 31
0.0
  0
ARC
  8
OUTLINE
  6
CONTINUOUS
 62
     3
 10
-191.5
 20
-60.25
 30
0.0
 40
5.0
 50
180.0
 51
270.0
  0
ARC
  8
OUTLINE
  6
CONTINUOUS
 62
     3
 10
-191.5
 20
60.25
 30
0.0
 40
5.0
 50
90.0
 51
180.0
  0
LINE
  8
OUTLINE
  6
CONTINUOUS
 62
     3
 10
-87.5
 20
163.0
 30
0.0
 11
-87.5
 21
188.0
 31
0.0
  0
LINE
  8
OUTLINE
  6
CONTINUOUS
 62
     3
 10
87.5
 20
163.0
 30
0.0
 11
87.5
 21
188.0
 31
0.0
  0
LINE
  8
OUTLINE
  6
CONTINUOUS
 62
     3
 10
-133.5
 20
-151.84572600000001
 30
0.0
 11
-112.5
 21
-151.84572600000001
 31
0.0
  0
ARC
  8
OUTLINE
  6
CONTINUOUS
 62
     3
 10
-133.5
 20
-143.84572600000001
 30
0.0
 40
8.0
 50
180.0
 51
270.0
  0
LINE
  8
OUTLINE
  6
CONTINUOUS
 62
     3
 10
-141.5
 20
-143.84572600000001
 30
0.0
 11
-141.5
 21
-65.25
 31
0.0
  0
LINE
  8
OUTLINE
  6
CONTINUOUS
 62
     3
 10
-141.5
 20
65.25
 30
0.0
 11
-141.5
 21
139.855966
 31
0.0
  0
ARC
  8
OUTLINE
  6
CONTINUOUS
 62
     3
 10
-133.5
 20
139.855966
 30
0.0
 40
8.0
 50
90.0
 51
180.0
  0
LINE
  8
OUTLINE
  6
CONTINUOUS
 62
     3
 10
-133.5
 20
147.855966
 30
0.0
 11
-112.5
 21
147.855966
 31
0.0
  0
LINE
  8
OUTLINE
  6
CONTINUOUS
 62
     3
 10
-140.0
 20
-192.80000000000001
 30
0.0
 11
140.0
 21
-192.80000000000001
 31
0.0
  0
LINE
  8
OUTLINE
  6
CONTINUOUS
 62
     3
 10
-140.0
 20
-192.80000000000001
 30
0.0
 11
-140.0
 21
-192.0
 31
0.0
  0
LINE
  8
OUTLINE
  6
CONTINUOUS
 62
     3
 10
140.0
 20
-192.80000000000001
 30
0.0
 11
140.0
 21
-192.0
 31
0.0
  0
LINE
  8
SIZE
  6
CONTINUOUS
 62
    30
 10
157.57404299999999
 20
0.5
 30
0.0
 11
411.66908461695863
 21
0.4999999999999432
 31
0.0
  0
LINE
  8
SIZE
  6
CONTINUOUS
 62
    30
 10
160.0
 20
-192.0
 30
0.0
 11
411.66908461695863
 21
-192.00000000000011
 31
0.0
  0
LINE
  8
SIZE
  6
CONTINUOUS
 62
    30
 10
391.66908461695863
 20
-180.00000000000011
 30
0.0
 11
391.66908461695863
 21
-11.50000000000006
 31
0.0
  0
LINE
  8
SIZE
  6
CONTINUOUS
 62
    30
 10
391.66908461695863
 20
0.4999999999999432
 30
0.0
 11
391.66908461695863
 21
455.15559018327798
 31
0.0
  0
CIRCLE
  8
SIZE
  6
CONTINUOUS
 62
    30
 10
391.66908461695863
 20
-192.00000000000011
 30
0.0
 40
6.0
  0
LINE
  8
SIZE
  6
CONTINUOUS
 62
    30
 10
391.66908461695863
 20
-192.00000000000011
 30
0.0
 11
391.66908461695863
 21
-180.00000000000011
 31
0.0
  0
CIRCLE
  8
SIZE
  6
CONTINUOUS
 62
    30
 10
391.66908461695863
 20
0.4999999999999432
 30
0.0
 40
6.0
  0
LINE
  8
SIZE
  6
CONTINUOUS
 62
    30
 10
391.66908461695863
 20
0.4999999999999432
 30
0.0
 11
391.66908461695863
 21
-11.50000000000006
 31
0.0
  0
TEXT
  8
SIZE
  6
CONTINUOUS
 62
    30
 10
366.66908461695863
 20
210.72701875470651
 30
0.0
 40
64.0
  1
192.5
 50
90.0
 41
0.9
 72
     1
 11
366.66908461695863
 21
320.44130446899231
 31
0.0
  0
POINT
  8
DEFPOINTS
  6
CONTINUOUS
 62
    30
 10
137.57404299999999
 20
0.5
 30
0.0
  0
POINT
  8
DEFPOINTS
  6
CONTINUOUS
 62
    30
 10
140.0
 20
-192.0
 30
0.0
  0
POINT
  8
DEFPOINTS
  6
CONTINUOUS
 62
    30
 10
391.66908461695863
 20
-192.00000000000011
 30
0.0
  0
ENDSEC
  0
EOF
