  0
SECTION
  2
HEADER
  9
$ACADVER
  1
AC1009
  9
$INSBASE
 10
0.0
 20
0.0
 30
0.0
  9
$EXTMIN
 10
-646.24326959746395
 20
-491.86705377868748
 30
-0.0015258207003583
  9
$EXTMAX
 10
914.98261641825218
 20
801.08643404800205
 30
0.0000000349246037
  9
$LIMMIN
 10
-2970.0
 20
-2100.0
  9
$LIMMAX
 10
2970.0
 20
2100.0
  9
$ORTHOMODE
 70
     0
  9
$REGENMODE
 70
     0
  9
$FILLMODE
 70
     1
  9
$QTEXTMODE
 70
     0
  9
$MIRRTEXT
 70
     0
  9
$DRAGMODE
 70
     2
  9
$LTSCALE
 40
20.0
  9
$OSMODE
 70
    37
  9
$ATTMODE
 70
     1
  9
$TEXTSIZE
 40
64.0
  9
$TRACEWID
 40
0.05
  9
$TEXTSTYLE
  7
STANDARD
  9
$CLAYER
  8
SIZE
  9
$CELTYPE
  6
CONTINUOUS
  9
$CECOLOR
 62
    30
  9
$DIMSCALE
 40
1.0
  9
$DIMASZ
 40
12.0
  9
$DIMEXO
 40
20.0
  9
$DIMDLI
 40
200.0
  9
$DIMRND
 40
0.0
  9
$DIMDLE
 40
0.0
  9
$DIMEXE
 40
20.0
  9
$DIMTP
 40
0.0
  9
$DIMTM
 40
0.0
  9
$DIMTXT
 40
64.0
  9
$DIMCEN
 40
0.09
  9
$DIMTSZ
 40
0.0
  9
$DIMTOL
 70
     0
  9
$DIMLIM
 70
     0
  9
$DIMTIH
 70
     0
  9
$DIMTOH
 70
     0
  9
$DIMSE1
 70
     0
  9
$DIMSE2
 70
     0
  9
$DIMTAD
 70
     1
  9
$DIMZIN
 70
     8
  9
$DIMBLK
  1
DOT1
  9
$DIMASO
 70
     1
  9
$DIMSHO
 70
     0
  9
$DIMPOST
  1

  9
$DIMAPOST
  1

  9
$DIMALT
 70
     0
  9
$DIMALTD
 70
     2
  9
$DIMALTF
 40
25.399999999999999
  9
$DIMLFAC
 40
1.0
  9
$DIMTOFL
 70
     1
  9
$DIMTVP
 40
0.0
  9
$DIMTIX
 70
     1
  9
$DIMSOXD
 70
     0
  9
$DIMSAH
 70
     1
  9
$DIMBLK1
  1
ORIGIN
  9
$DIMBLK2
  1
ORIGIN
  9
$DIMSTYLE
  2
STANDARD
  9
$DIMCLRD
 70
     0
  9
$DIMCLRE
 70
     0
  9
$DIMCLRT
 70
     0
  9
$DIMTFAC
 40
1.0
  9
$DIMGAP
 40
0.09
  9
$LUNITS
 70
     2
  9
$LUPREC
 70
     4
  9
$SKETCHINC
 40
0.1
  9
$FILLETRAD
 40
4.0
  9
$AUNITS
 70
     1
  9
$AUPREC
 70
     3
  9
$MENU
  1
ACAD
  9
$ELEVATION
 40
0.0
  9
$PELEVATION
 40
0.0
  9
$THICKNESS
 40
50.0
  9
$LIMCHECK
 70
     0
  9
$BLIPMODE
 70
     0
  9
$CHAMFERA
 40
0.0
  9
$CHAMFERB
 40
0.0
  9
$SKPOLY
 70
     0
  9
$TDCREATE
 40
2452321.3961996529
  9
$TDUPDATE
 40
2454924.6609087968
  9
$TDINDWG
 40
0.212642037
  9
$TDUSRTIMER
 40
0.212642037
  9
$USRTIMER
 70
     1
  9
$ANGBASE
 50
0.0
  9
$ANGDIR
 70
     0
  9
$PDMODE
 70
     3
  9
$PDSIZE
 40
-2.0
  9
$PLINEWID
 40
0.0
  9
$COORDS
 70
     0
  9
$SPLFRAME
 70
     0
  9
$SPLINETYPE
 70
     6
  9
$SPLINESEGS
 70
     8
  9
$ATTDIA
 70
     0
  9
$ATTREQ
 70
     1
  9
$HANDLING
 70
     1
  9
$HANDSEED
  5
1B8
  9
$SURFTAB1
 70
     6
  9
$SURFTAB2
 70
     6
  9
$SURFTYPE
 70
     6
  9
$SURFU
 70
     6
  9
$SURFV
 70
     6
  9
$UCSNAME
  2

  9
$UCSORG
 10
0.0
 20
0.0
 30
0.0
  9
$UCSXDIR
 10
1.0
 20
0.0
 30
0.0
  9
$UCSYDIR
 10
0.0
 20
1.0
 30
0.0
  9
$PUCSNAME
  2

  9
$PUCSORG
 10
0.0
 20
0.0
 30
0.0
  9
$PUCSXDIR
 10
1.0
 20
0.0
 30
0.0
  9
$PUCSYDIR
 10
0.0
 20
1.0
 30
0.0
  9
$USERI1
 70
     0
  9
$USERI2
 70
     0
  9
$USERI3
 70
     0
  9
$USERI4
 70
     0
  9
$USERI5
 70
     0
  9
$USERR1
 40
20.0
  9
$USERR2
 40
0.0
  9
$USERR3
 40
0.0
  9
$USERR4
 40
0.0
  9
$USERR5
 40
0.0
  9
$WORLDVIEW
 70
     1
  9
$SHADEDGE
 70
     3
  9
$SHADEDIF
 70
    70
  9
$TILEMODE
 70
     1
  9
$MAXACTVP
 70
    64
  9
$PLIMCHECK
 70
     0
  9
$PEXTMIN
 10
1.0000000000000000E+020
 20
1.0000000000000000E+020
 30
1.0000000000000000E+020
  9
$PEXTMAX
 10
-1.0000000000000000E+020
 20
-1.0000000000000000E+020
 30
-1.0000000000000000E+020
  9
$PLIMMIN
 10
0.0
 20
0.0
  9
$PLIMMAX
 10
12.0
 20
9.0
  9
$UNITMODE
 70
     0
  9
$VISRETAIN
 70
     1
  9
$PLINEGEN
 70
     0
  9
$PSLTSCALE
 70
     1
  0
ENDSEC
  0
SECTION
  2
TABLES
  0
TABLE
  2
VPORT
 70
     1
  0
VPORT
  2
*ACTIVE
 70
     0
 10
0.0
 20
0.0
 11
1.0
 21
1.0
 12
178.6426745121677
 22
192.0055493602697
 13
0.0
 23
0.0
 14
1.0
 24
1.0
 15
0.0
 25
0.0
 16
0.0
 26
0.0
 36
1.0
 17
0.0
 27
0.0
 37
0.0
 40
1464.6352412046861
 41
1.3098995695839311
 42
50.0
 43
0.0
 44
0.0
 50
0.0
 51
0.0
 71
     0
 72
   100
 73
     1
 74
     0
 75
     0
 76
     0
 77
     0
 78
     0
  0
ENDTAB
  0
TABLE
  2
LTYPE
 70
     3
  0
LTYPE
  2
CONTINUOUS
 70
     0
  3
実線
 72
    65
 73
     0
 40
0.0
  0
LTYPE
  2
DASHDOT
 70
     0
  3
____ _ ____ _ ____ _ ____ _ ____ _ ____ _ ____
 72
    65
 73
     4
 40
5.5
 49
4.0
 49
-0.6
 49
0.3
 49
-0.6
  0
ENDTAB
  0
TABLE
  2
LAYER
 70
    12
  0
LAYER
  2
0
 70
     0
 62
     7
  6
CONTINUOUS
  0
LAYER
  2
SIZE
 70
     0
 62
     4
  6
CONTINUOUS
  0
LAYER
  2
BASIS
 70
     0
 62
     6
  6
DASHDOT
  0
LAYER
  2
OUTLINE
 70
     0
 62
     3
  6
CONTINUOUS
  0
LAYER
  2
DETAIL
 70
     0
 62
     5
  6
CONTINUOUS
  0
LAYER
  2
ARRANGE
 70
     0
 62
     1
  6
CONTINUOUS
  0
LAYER
  2
DEFPOINTS
 70
     0
 62
     7
  6
CONTINUOUS
  0
LAYER
  2
ETC
 70
     0
 62
    61
  6
CONTINUOUS
  0
LAYER
  2
FIX
 70
     0
 62
     7
  6
CONTINUOUS
  0
LAYER
  2
NOTE
 70
     0
 62
     4
  6
CONTINUOUS
  0
LAYER
  2
SERVICESPACE
 70
     0
 62
     2
  6
DASHDOT
  0
LAYER
  2
SYMBOLLINE
 70
     0
 62
    15
  6
CONTINUOUS
  0
ENDTAB
  0
TABLE
  2
STYLE
 70
     2
  0
STYLE
  2
STANDARD
 70
     0
 40
64.0
 41
0.9
 50
0.0
 71
     0
 42
64.0
  3
SIMPLEX.shx
  4
BIGFONT.shx
  0
STYLE
  2
ANNOTATIVE
 70
     0
 40
0.0
 41
1.0
 50
0.0
 71
     0
 42
0.2
  3
txt
  4

  0
ENDTAB
  0
TABLE
  2
VIEW
 70
     1
  0
VIEW
  2
ALL
 70
     0
 40
4282.6198079999986
 10
0.0
 20
41.309903999999989
 41
5940.0
 11
0.0
 21
0.0
 31
1.0
 12
0.0
 22
0.0
 32
0.0
 42
50.0
 43
0.0
 44
0.0
 50
0.0
 71
     0
  0
ENDTAB
  0
TABLE
  2
UCS
 70
     0
  0
ENDTAB
  0
TABLE
  2
APPID
 70
     4
  0
APPID
  2
ACAD
 70
     0
  0
APPID
  2
ACADANNOTATIVE
 70
     0
  0
APPID
  2
ACAD_MLEADERVER
 70
     0
  0
APPID
  2
ACAD_EXEMPT_FROM_CAD_STANDARDS
 70
     0
  0
ENDTAB
  0
TABLE
  2
DIMSTYLE
 70
     2
  0
DIMSTYLE
  2
STANDARD
 70
     0
  3

  4

  5

  6

  7

 40
1.0
 41
0.18
 42
0.0625
 43
0.38
 44
0.18
 45
0.0
 46
0.0
 47
0.0
 48
0.0
140
0.18
141
0.09
142
0.0
143
25.399999999999999
144
1.0
145
0.0
146
1.0
147
0.09
 71
     0
 72
     0
 73
     1
 74
     1
 75
     0
 76
     0
 77
     0
 78
     0
170
     0
171
     2
172
     0
173
     0
174
     0
175
     0
176
     0
177
     0
178
     0
  0
DIMSTYLE
  2
ANNOTATIVE
 70
     0
  3

  4

  5

  6

  7

 40
1.0
 41
0.18
 42
0.0625
 43
0.38
 44
0.18
 45
0.0
 46
0.0
 47
0.0
 48
0.0
140
0.18
141
0.09
142
0.0
143
25.399999999999999
144
1.0
145
0.0
146
1.0
147
0.09
 71
     0
 72
     0
 73
     1
 74
     1
 75
     0
 76
     0
 77
     0
 78
     0
170
     0
171
     2
172
     0
173
     0
174
     0
175
     0
176
     0
177
     0
178
     0
  0
ENDTAB
  0
ENDSEC
  0
SECTION
  2
BLOCKS
  0
BLOCK
  8
0
  2
$MODEL_SPACE
 70
     0
 10
0.0
 20
0.0
 30
0.0
  3
$MODEL_SPACE
  1

  0
ENDBLK
  5
76
  8
0
  0
BLOCK
 67
     1
  8
0
  2
$PAPER_SPACE
 70
     0
 10
0.0
 20
0.0
 30
0.0
  3
$PAPER_SPACE
  1

  0
ENDBLK
  5
72
 67
     1
  8
0
  0
BLOCK
  8
0
  2
DOT1
 70
     0
 10
0.0
 20
0.0
 30
0.0
  3
DOT1
  1

  0
CIRCLE
  5
8B
  8
SIZE
  6
CONTINUOUS
 62
     7
 10
0.0
 20
0.0
 30
0.0
 40
3.0
  0
ENDBLK
  5
8C
  8
0
  0
BLOCK
  8
0
  2
_ORIGIN
 70
     0
 10
0.0
 20
0.0
 30
0.0
  3
_ORIGIN
  1

  0
CIRCLE
  5
8F
  8
0
  6
CONTINUOUS
 62
     7
 10
0.0
 20
0.0
 30
0.0
 40
0.5
  0
LINE
  5
90
  8
0
  6
CONTINUOUS
 62
     7
 10
0.0
 20
0.0
 30
0.0
 11
-1.0
 21
0.0
 31
0.0
  0
ENDBLK
  5
91
  8
0
  0
ENDSEC
  0
SECTION
  2
ENTITIES
  0
TEXT
  5
92
  8
NOTE
  6
CONTINUOUS
 62
     4
 10
236.771872
 20
-334.00287900000001
 30
0.0
 40
64.0
  1
AH 12-φ12×20
 41
0.9
  0
LINE
  5
93
  8
NOTE
  6
CONTINUOUS
 62
     4
 10
230.77699100000001
 20
-369.74707799999999
 30
0.0
 11
914.80573599999991
 21
-369.74707799999999
 31
0.0
  0
LINE
  5
95
  8
DETAIL
  6
CONTINUOUS
 62
     5
 10
125.0
 20
-197.5
 30
0.0
 11
125.0
 21
197.5
 31
0.0
  0
LINE
  5
96
  8
DETAIL
  6
CONTINUOUS
 62
     5
 10
-140.0
 20
-199.5
 30
0.0
 11
140.0
 21
-199.5
 31
0.0
  0
LINE
  5
97
  8
DETAIL
  6
CONTINUOUS
 62
     5
 10
80.0
 20
-197.5
 30
0.0
 11
140.0
 21
-197.5
 31
0.0
  0
LINE
  5
98
  8
DETAIL
  6
CONTINUOUS
 62
     5
 10
-87.5
 20
-197.5
 30
0.0
 11
-140.0
 21
-197.5
 31
0.0
  0
LINE
  5
99
  8
DETAIL
  6
CONTINUOUS
 62
     5
 10
140.0
 20
-199.5
 30
0.0
 11
140.0
 21
-197.5
 31
0.0
  0
LINE
  5
9A
  8
DETAIL
  6
CONTINUOUS
 62
     5
 10
-140.0
 20
-199.5
 30
0.0
 11
-140.0
 21
-197.5
 31
0.0
  0
LINE
  5
9B
  8
BASIS
  6
DASHDOT
 62
     6
 10
-225.95486700000001
 20
0.0
 30
0.0
 11
176.69253800000001
 21
0.0
 31
0.0
  0
LINE
  5
9C
  8
DETAIL
  6
CONTINUOUS
 62
     5
 10
-87.5
 20
-197.5
 30
0.0
 11
87.5
 21
-197.5
 31
0.0
  0
LINE
  5
9D
  8
DETAIL
  6
CONTINUOUS
 62
     5
 10
-125.0
 20
197.5
 30
0.0
 11
-100.0
 21
197.5
 31
0.0
  0
LINE
  5
9E
  8
BASIS
  6
DASHDOT
 62
     6
 10
0.0
 20
-258.87583599999999
 30
0.0
 11
0.0
 21
235.25039899999999
 31
0.0
  0
LINE
  5
9F
  8
DETAIL
  6
CONTINUOUS
 62
     5
 10
-125.0
 20
-197.5
 30
0.0
 11
-125.0
 21
197.5
 31
0.0
  0
LINE
  5
A0
  8
DETAIL
  6
CONTINUOUS
 62
     5
 10
-100.0
 20
-172.5
 30
0.0
 11
100.0
 21
-172.5
 31
0.0
  0
LINE
  5
A1
  8
DETAIL
  6
CONTINUOUS
 62
     5
 10
-100.0
 20
172.5
 30
0.0
 11
100.0
 21
172.5
 31
0.0
  0
LINE
  5
A2
  8
DETAIL
  6
CONTINUOUS
 62
     5
 10
100.0
 20
197.5
 30
0.0
 11
125.0
 21
197.5
 31
0.0
  0
LINE
  5
A3
  8
DETAIL
  6
CONTINUOUS
 62
     5
 10
-100.0
 20
-197.5
 30
0.0
 11
-100.0
 21
197.5
 31
0.0
  0
LINE
  5
A4
  8
DETAIL
  6
CONTINUOUS
 62
     5
 10
100.0
 20
-197.5
 30
0.0
 11
100.0
 21
197.5
 31
0.0
  0
LINE
  5
A5
  8
DETAIL
  6
CONTINUOUS
 62
     5
 10
-131.19999999999999
 20
-160.0
 30
0.0
 11
-125.0
 21
-160.0
 31
0.0
  0
ARC
  5
A6
  8
DETAIL
  6
CONTINUOUS
 62
     5
 10
-131.19999999999999
 20
-152.0
 30
0.0
 40
8.0
 50
180.0
 51
270.0
  0
LINE
  5
A7
  8
DETAIL
  6
CONTINUOUS
 62
     5
 10
-139.19999999999999
 20
-152.0
 30
0.0
 11
-139.19999999999999
 21
152.0
 31
0.0
  0
ARC
  5
A8
  8
DETAIL
  6
CONTINUOUS
 62
     5
 10
-131.19999999999999
 20
152.0
 30
0.0
 40
8.0
 50
90.0
 51
180.0
  0
LINE
  5
A9
  8
DETAIL
  6
CONTINUOUS
 62
     5
 10
-131.19999999999999
 20
160.0
 30
0.0
 11
-125.0
 21
160.0
 31
0.0
  0
LINE
  5
AA
  8
BASIS
  6
DASHDOT
 62
     6
 10
82.715868999999998
 20
2.1000000000000001
 30
0.0
 11
150.07404299999999
 21
2.1000000000000001
 31
0.0
  0
POINT
  5
AC
  8
ARRANGE
  6
CONTINUOUS
 62
     1
 10
0.0
 20
0.0
 30
0.0
  0
CIRCLE
  5
AD
  8
ARRANGE
  6
CONTINUOUS
 62
     1
 10
0.0
 20
0.0
 30
0.0
 40
40.0
  0
CIRCLE
  5
AE
  8
FIX
  6
CONTINUOUS
 62
    11
 10
-115.0
 20
-160.0
 30
0.0
 40
6.0
  0
ARC
  5
AF
  8
DETAIL
  6
CONTINUOUS
 62
     5
 10
-115.0
 20
-160.0
 30
0.0
 40
10.0
 50
53.130102000000001
 51
126.86989800000001
  0
ARC
  5
B0
  8
DETAIL
  6
CONTINUOUS
 62
     5
 10
-115.0
 20
-160.0
 30
0.0
 40
10.0
 50
233.13010199999999
 51
306.86989799999998
  0
LINE
  5
B1
  8
DETAIL
  6
CONTINUOUS
 62
     5
 10
-121.0
 20
-152.0
 30
0.0
 11
-121.0
 21
-168.0
 31
0.0
  0
LINE
  5
B2
  8
DETAIL
  6
CONTINUOUS
 62
     5
 10
-109.0
 20
-152.0
 30
0.0
 11
-109.0
 21
-168.0
 31
0.0
  0
LINE
  5
B3
  8
NOTE
  6
CONTINUOUS
 62
     4
 10
-115.0
 20
-140.0
 30
0.0
 11
-115.0
 21
-180.0
 31
0.0
  0
LINE
  5
B4
  8
NOTE
  6
CONTINUOUS
 62
     4
 10
-95.0
 20
-160.0
 30
0.0
 11
-135.0
 21
-160.0
 31
0.0
  0
LINE
  5
B5
  8
DETAIL
  6
CONTINUOUS
 62
     5
 10
-109.0
 20
168.0
 30
0.0
 11
-109.0
 21
152.0
 31
0.0
  0
LINE
  5
B6
  8
DETAIL
  6
CONTINUOUS
 62
     5
 10
-121.0
 20
168.0
 30
0.0
 11
-121.0
 21
152.0
 31
0.0
  0
ARC
  5
B7
  8
DETAIL
  6
CONTINUOUS
 62
     5
 10
-115.0
 20
160.0
 30
0.0
 40
10.0
 50
233.13010199999999
 51
306.86989799999998
  0
ARC
  5
B8
  8
DETAIL
  6
CONTINUOUS
 62
     5
 10
-115.0
 20
160.0
 30
0.0
 40
10.0
 50
53.130102000000001
 51
126.86989800000001
  0
CIRCLE
  5
B9
  8
FIX
  6
CONTINUOUS
 62
    11
 10
-115.0
 20
160.0
 30
0.0
 40
6.0
  0
LINE
  5
BA
  8
NOTE
  6
CONTINUOUS
 62
     4
 10
-115.0
 20
180.0
 30
0.0
 11
-115.0
 21
140.0
 31
0.0
  0
LINE
  5
BB
  8
NOTE
  6
CONTINUOUS
 62
     4
 10
-95.0
 20
160.0
 30
0.0
 11
-135.0
 21
160.0
 31
0.0
  0
LINE
  5
BC
  8
NOTE
  6
CONTINUOUS
 62
     4
 10
-115.0
 20
217.5
 30
0.0
 11
-115.0
 21
177.5
 31
0.0
  0
LINE
  5
BD
  8
NOTE
  6
CONTINUOUS
 62
     4
 10
-95.0
 20
197.5
 30
0.0
 11
-135.0
 21
197.5
 31
0.0
  0
CIRCLE
  5
BE
  8
FIX
  6
CONTINUOUS
 62
    11
 10
-115.0
 20
197.5
 30
0.0
 40
6.0
  0
LINE
  5
BF
  8
DETAIL
  6
CONTINUOUS
 62
     5
 10
109.0
 20
-152.0
 30
0.0
 11
109.0
 21
-168.0
 31
0.0
  0
LINE
  5
C0
  8
DETAIL
  6
CONTINUOUS
 62
     5
 10
121.0
 20
-152.0
 30
0.0
 11
121.0
 21
-168.0
 31
0.0
  0
ARC
  5
C1
  8
DETAIL
  6
CONTINUOUS
 62
     5
 10
115.0
 20
-160.0
 30
0.0
 40
10.0
 50
233.13010199999999
 51
306.86989799999998
  0
ARC
  5
C2
  8
DETAIL
  6
CONTINUOUS
 62
     5
 10
115.0
 20
-160.0
 30
0.0
 40
10.0
 50
53.130102000000001
 51
126.86989800000001
  0
CIRCLE
  5
C3
  8
FIX
  6
CONTINUOUS
 62
    11
 10
115.0
 20
-160.0
 30
0.0
 40
6.0
  0
LINE
  5
C4
  8
NOTE
  6
CONTINUOUS
 62
     4
 10
115.0
 20
-140.0
 30
0.0
 11
115.0
 21
-180.0
 31
0.0
  0
LINE
  5
C5
  8
NOTE
  6
CONTINUOUS
 62
     4
 10
95.0
 20
-160.0
 30
0.0
 11
135.0
 21
-160.0
 31
0.0
  0
CIRCLE
  5
C6
  8
FIX
  6
CONTINUOUS
 62
    11
 10
115.0
 20
160.0
 30
0.0
 40
6.0
  0
ARC
  5
C7
  8
DETAIL
  6
CONTINUOUS
 62
     5
 10
115.0
 20
160.0
 30
0.0
 40
10.0
 50
53.130102000000001
 51
126.86989800000001
  0
ARC
  5
C8
  8
DETAIL
  6
CONTINUOUS
 62
     5
 10
115.0
 20
160.0
 30
0.0
 40
10.0
 50
233.13010199999999
 51
306.86989799999998
  0
LINE
  5
C9
  8
DETAIL
  6
CONTINUOUS
 62
     5
 10
121.0
 20
168.0
 30
0.0
 11
121.0
 21
152.0
 31
0.0
  0
LINE
  5
CA
  8
DETAIL
  6
CONTINUOUS
 62
     5
 10
109.0
 20
168.0
 30
0.0
 11
109.0
 21
152.0
 31
0.0
  0
LINE
  5
CB
  8
NOTE
  6
CONTINUOUS
 62
     4
 10
115.0
 20
180.0
 30
0.0
 11
115.0
 21
140.0
 31
0.0
  0
LINE
  5
CC
  8
NOTE
  6
CONTINUOUS
 62
     4
 10
95.0
 20
160.0
 30
0.0
 11
135.0
 21
160.0
 31
0.0
  0
LINE
  5
CD
  8
NOTE
  6
CONTINUOUS
 62
     4
 10
115.0
 20
217.5
 30
0.0
 11
115.0
 21
177.5
 31
0.0
  0
LINE
  5
CE
  8
NOTE
  6
CONTINUOUS
 62
     4
 10
95.0
 20
197.5
 30
0.0
 11
135.0
 21
197.5
 31
0.0
  0
CIRCLE
  5
CF
  8
FIX
  6
CONTINUOUS
 62
    11
 10
115.0
 20
197.5
 30
0.0
 40
6.0
  0
LINE
  5
D0
  8
NOTE
  6
CONTINUOUS
 62
     4
 10
115.0
 20
-160.0
 30
0.0
 11
230.77699100000001
 21
-369.74707799999999
 31
0.0
  0
LINE
  5
D1
  8
NOTE
  6
CONTINUOUS
 62
     4
 10
125.65539699999999
 20
-198.5546689999999
 30
0.0
 11
115.0
 21
-160.0
 31
0.0
  0
LINE
  5
D2
  8
NOTE
  6
CONTINUOUS
 62
     4
 10
115.0
 20
-160.0
 30
0.0
 11
143.505179
 21
-188.06162399999999
 31
0.0
  0
LINE
  5
D3
  8
SIZE
  6
CONTINUOUS
 62
    30
 10
-234.80160599999999
 20
2.5
 30
0.0
 11
-365.40685000000002
 21
2.5
 31
0.0
  0
LINE
  5
D4
  8
SIZE
  6
CONTINUOUS
 62
    30
 10
-160.0
 20
-197.5
 30
0.0
 11
-365.40685000000002
 21
-197.5
 31
0.0
  0
LINE
  5
D5
  8
SIZE
  6
CONTINUOUS
 62
    30
 10
-345.40685000000002
 20
-9.5
 30
0.0
 11
-345.40685000000002
 21
-185.5
 31
0.0
  0
LINE
  5
D6
  8
SIZE
  6
CONTINUOUS
 62
    30
 10
-345.40685000000002
 20
-416.43246599999998
 30
0.0
 11
-345.40685000000002
 21
-197.5
 31
0.0
  0
TEXT
  5
D7
  8
SIZE
  6
CONTINUOUS
 62
    30
 10
-370.40685000000002
 20
-391.4324658571428
 30
0.0
 40
64.0
  1
200
 50
90.0
 41
0.9
 72
     1
 11
-370.40685000000002
 21
-317.37532299999998
 31
0.0
  0
CIRCLE
  5
D8
  8
SIZE
  6
CONTINUOUS
 62
    30
 10
-345.40685000000002
 20
2.5
 30
0.0
 40
6.0
  0
LINE
  5
D9
  8
SIZE
  6
CONTINUOUS
 62
    30
 10
-345.40685000000002
 20
2.5
 30
0.0
 11
-345.40685000000002
 21
-9.5
 31
0.0
  0
CIRCLE
  5
DA
  8
SIZE
  6
CONTINUOUS
 62
    30
 10
-345.40685000000002
 20
-197.5
 30
0.0
 40
6.0
  0
LINE
  5
DB
  8
SIZE
  6
CONTINUOUS
 62
    30
 10
-345.40685000000002
 20
-197.5
 30
0.0
 11
-345.40685000000002
 21
-185.5
 31
0.0
  0
POINT
  5
DC
  8
DEFPOINTS
  6
CONTINUOUS
 62
    30
 10
-214.80160599999999
 20
2.5
 30
0.0
  0
POINT
  5
DD
  8
DEFPOINTS
  6
CONTINUOUS
 62
    30
 10
-140.0
 20
-197.5
 30
0.0
  0
POINT
  5
DE
  8
DEFPOINTS
  6
CONTINUOUS
 62
    30
 10
-345.40685000000002
 20
-197.5
 30
0.0
  0
LINE
  5
DF
  8
SIZE
  6
CONTINUOUS
 62
    30
 10
-209.19999999999999
 20
84.0
 30
0.0
 11
-449.83817800000003
 21
84.0
 31
0.0
  0
LINE
  5
E0
  8
SIZE
  6
CONTINUOUS
 62
    30
 10
-209.19999999999999
 20
-79.0
 30
0.0
 11
-449.83817800000003
 21
-79.0
 31
0.0
  0
LINE
  5
E1
  8
SIZE
  6
CONTINUOUS
 62
    30
 10
-429.83817800000003
 20
72.0
 30
0.0
 11
-429.83817800000003
 21
-67.0
 31
0.0
  0
TEXT
  5
E2
  8
SIZE
  6
CONTINUOUS
 62
    30
 10
-453.06478600000003
 20
-106.39142857142861
 30
0.0
 40
64.0
  1
φ163
 50
90.0
 41
0.9
 72
     1
 11
-453.06478600000003
 21
2.5
 31
0.0
  0
CIRCLE
  5
E3
  8
SIZE
  6
CONTINUOUS
 62
    30
 10
-429.83817800000003
 20
84.0
 30
0.0
 40
6.0
  0
LINE
  5
E4
  8
SIZE
  6
CONTINUOUS
 62
    30
 10
-429.83817800000003
 20
84.0
 30
0.0
 11
-429.83817800000003
 21
72.0
 31
0.0
  0
CIRCLE
  5
E5
  8
SIZE
  6
CONTINUOUS
 62
    30
 10
-429.83817800000003
 20
-79.0
 30
0.0
 40
6.0
  0
LINE
  5
E6
  8
SIZE
  6
CONTINUOUS
 62
    30
 10
-429.83817800000003
 20
-79.0
 30
0.0
 11
-429.83817800000003
 21
-67.0
 31
0.0
  0
POINT
  5
E7
  8
DEFPOINTS
  6
CONTINUOUS
 62
    30
 10
-189.19999999999999
 20
84.0
 30
0.0
  0
POINT
  5
E8
  8
DEFPOINTS
  6
CONTINUOUS
 62
    30
 10
-189.19999999999999
 20
-79.0
 30
0.0
  0
POINT
  5
E9
  8
DEFPOINTS
  6
CONTINUOUS
 62
    30
 10
-429.83817800000003
 20
-79.0
 30
0.0
  0
LINE
  5
EA
  8
SIZE
  6
CONTINUOUS
 62
    30
 10
-155.0
 20
160.0
 30
0.0
 11
-576.86469
 21
160.0
 31
0.0
  0
LINE
  5
EB
  8
SIZE
  6
CONTINUOUS
 62
    30
 10
-155.0
 20
-160.0
 30
0.0
 11
-576.86469
 21
-160.0
 31
0.0
  0
LINE
  5
EC
  8
SIZE
  6
CONTINUOUS
 62
    30
 10
-556.86469
 20
148.0
 30
0.0
 11
-556.86469
 21
-148.0
 31
0.0
  0
CIRCLE
  5
ED
  8
SIZE
  6
CONTINUOUS
 62
    30
 10
-556.86469
 20
160.0
 30
0.0
 40
6.0
  0
LINE
  5
EE
  8
SIZE
  6
CONTINUOUS
 62
    30
 10
-556.86469
 20
160.0
 30
0.0
 11
-556.86469
 21
148.0
 31
0.0
  0
CIRCLE
  5
EF
  8
SIZE
  6
CONTINUOUS
 62
    30
 10
-556.86469
 20
-160.0
 30
0.0
 40
6.0
  0
LINE
  5
F0
  8
SIZE
  6
CONTINUOUS
 62
    30
 10
-556.86469
 20
-160.0
 30
0.0
 11
-556.86469
 21
-148.0
 31
0.0
  0
TEXT
  5
F1
  8
SIZE
  6
CONTINUOUS
 62
    30
 10
-581.86469
 20
-74.05714285714285
 30
0.0
 40
64.0
  1
320
 50
90.0
 41
0.9
 72
     1
 11
-581.86469
 21
0.0
 31
0.0
  0
POINT
  5
F2
  8
DEFPOINTS
  6
CONTINUOUS
 62
    30
 10
-135.0
 20
160.0
 30
0.0
  0
POINT
  5
F3
  8
DEFPOINTS
  6
CONTINUOUS
 62
    30
 10
-135.0
 20
-160.0
 30
0.0
  0
POINT
  5
F4
  8
DEFPOINTS
  6
CONTINUOUS
 62
    30
 10
-556.86469
 20
-160.0
 30
0.0
  0
LINE
  5
F5
  8
SIZE
  6
CONTINUOUS
 62
    30
 10
145.0
 20
197.5
 30
0.0
 11
454.50502499999999
 21
197.5
 31
0.0
  0
LINE
  5
F6
  8
SIZE
  6
CONTINUOUS
 62
    30
 10
160.0
 20
-197.5
 30
0.0
 11
454.50502499999999
 21
-197.5
 31
0.0
  0
LINE
  5
F7
  8
SIZE
  6
CONTINUOUS
 62
    30
 10
434.50502499999988
 20
185.5
 30
0.0
 11
434.50502499999988
 21
-185.5
 31
0.0
  0
CIRCLE
  5
F8
  8
SIZE
  6
CONTINUOUS
 62
    30
 10
434.50502499999988
 20
197.5
 30
0.0
 40
6.0
  0
LINE
  5
F9
  8
SIZE
  6
CONTINUOUS
 62
    30
 10
434.50502499999988
 20
197.5
 30
0.0
 11
434.50502499999988
 21
185.5
 31
0.0
  0
CIRCLE
  5
FA
  8
SIZE
  6
CONTINUOUS
 62
    30
 10
434.50502499999988
 20
-197.5
 30
0.0
 40
6.0
  0
LINE
  5
FB
  8
SIZE
  6
CONTINUOUS
 62
    30
 10
434.50502499999988
 20
-197.5
 30
0.0
 11
434.50502499999988
 21
-185.5
 31
0.0
  0
TEXT
  5
FC
  8
SIZE
  6
CONTINUOUS
 62
    30
 10
409.50502499999988
 20
-74.05714285714285
 30
0.0
 40
64.0
  1
395
 50
90.0
 41
0.9
 72
     1
 11
409.50502499999988
 21
0.0
 31
0.0
  0
POINT
  5
FD
  8
DEFPOINTS
  6
CONTINUOUS
 62
    30
 10
125.0
 20
197.5
 30
0.0
  0
POINT
  5
FE
  8
DEFPOINTS
  6
CONTINUOUS
 62
    30
 10
140.0
 20
-197.5
 30
0.0
  0
POINT
  5
FF
  8
DEFPOINTS
  6
CONTINUOUS
 62
    30
 10
434.50502499999988
 20
-197.5
 30
0.0
  0
LINE
  5
100
  8
SIZE
  6
CONTINUOUS
 62
    30
 10
-345.40685000000002
 20
-195.5
 30
0.0
 11
-345.40685000000002
 21
-401.25007699999992
 31
0.0
  0
LINE
  5
101
  8
SIZE
  6
CONTINUOUS
 62
    30
 10
-100.0
 20
217.5
 30
0.0
 11
-100.0
 21
294.85504200000003
 31
0.0
  0
LINE
  5
102
  8
SIZE
  6
CONTINUOUS
 62
    30
 10
-125.0
 20
217.5
 30
0.0
 11
-125.0
 21
294.85504200000003
 31
0.0
  0
LINE
  5
103
  8
SIZE
  6
CONTINUOUS
 62
    30
 10
-88.0
 20
274.85504200000003
 30
0.0
 11
-76.0
 21
274.85504200000003
 31
0.0
  0
LINE
  5
104
  8
SIZE
  6
CONTINUOUS
 62
    30
 10
-137.0
 20
274.85504200000003
 30
0.0
 11
-149.0
 21
274.85504200000003
 31
0.0
  0
LINE
  5
105
  8
SIZE
  6
CONTINUOUS
 62
    30
 10
-360.35674
 20
274.85504200000003
 30
0.0
 11
-125.0
 21
274.85504200000003
 31
0.0
  0
TEXT
  5
106
  8
SIZE
  6
CONTINUOUS
 62
    30
 10
-335.35674042857141
 20
299.85504200000003
 30
0.0
 40
64.0
  1
25
 41
0.9
 72
     1
 11
-288.72816899999998
 21
299.85504200000003
 31
0.0
  0
LINE
  5
107
  8
SIZE
  6
CONTINUOUS
 62
    30
 10
-100.0
 20
274.85504200000003
 30
0.0
 11
-125.0
 21
274.85504200000003
 31
0.0
  0
LINE
  5
108
  8
SIZE
  6
CONTINUOUS
 62
    30
 10
-100.0
 20
274.85504200000003
 30
0.0
 11
-125.0
 21
274.85504200000003
 31
0.0
  0
CIRCLE
  5
109
  8
SIZE
  6
CONTINUOUS
 62
    30
 10
-100.0
 20
274.85504200000003
 30
0.0
 40
6.0
  0
LINE
  5
10A
  8
SIZE
  6
CONTINUOUS
 62
    30
 10
-100.0
 20
274.85504200000003
 30
0.0
 11
-88.0
 21
274.85504200000003
 31
0.0
  0
CIRCLE
  5
10B
  8
SIZE
  6
CONTINUOUS
 62
    30
 10
-125.0
 20
274.85504200000003
 30
0.0
 40
6.0
  0
LINE
  5
10C
  8
SIZE
  6
CONTINUOUS
 62
    30
 10
-125.0
 20
274.85504200000003
 30
0.0
 11
-137.0
 21
274.85504200000003
 31
0.0
  0
POINT
  5
10D
  8
DEFPOINTS
  6
CONTINUOUS
 62
    30
 10
-100.0
 20
197.5
 30
0.0
  0
POINT
  5
10E
  8
DEFPOINTS
  6
CONTINUOUS
 62
    30
 10
-125.0
 20
197.5
 30
0.0
  0
POINT
  5
10F
  8
DEFPOINTS
  6
CONTINUOUS
 62
    30
 10
-125.0
 20
274.85504200000003
 30
0.0
  0
LINE
  5
110
  8
SIZE
  6
CONTINUOUS
 62
    30
 10
100.0
 20
217.5
 30
0.0
 11
100.0
 21
294.85504200000003
 31
0.0
  0
LINE
  5
111
  8
SIZE
  6
CONTINUOUS
 62
    30
 10
125.0
 20
217.5
 30
0.0
 11
125.0
 21
294.85504200000003
 31
0.0
  0
LINE
  5
112
  8
SIZE
  6
CONTINUOUS
 62
    30
 10
88.0
 20
274.85504200000003
 30
0.0
 11
76.0
 21
274.85504200000003
 31
0.0
  0
LINE
  5
113
  8
SIZE
  6
CONTINUOUS
 62
    30
 10
137.0
 20
274.85504200000003
 30
0.0
 11
149.0
 21
274.85504200000003
 31
0.0
  0
TEXT
  5
114
  8
SIZE
  6
CONTINUOUS
 62
    30
 10
168.5434925714286
 20
299.18591099999998
 30
0.0
 40
64.0
  1
25
 41
0.9
 72
     1
 11
215.17206400000001
 21
299.18591099999998
 31
0.0
  0
LINE
  5
115
  8
SIZE
  6
CONTINUOUS
 62
    30
 10
100.0
 20
274.85504200000003
 30
0.0
 11
125.0
 21
274.85504200000003
 31
0.0
  0
LINE
  5
116
  8
SIZE
  6
CONTINUOUS
 62
    30
 10
100.0
 20
274.85504200000003
 30
0.0
 11
125.0
 21
274.85504200000003
 31
0.0
  0
CIRCLE
  5
117
  8
SIZE
  6
CONTINUOUS
 62
    30
 10
100.0
 20
274.85504200000003
 30
0.0
 40
6.0
  0
LINE
  5
118
  8
SIZE
  6
CONTINUOUS
 62
    30
 10
100.0
 20
274.85504200000003
 30
0.0
 11
88.0
 21
274.85504200000003
 31
0.0
  0
CIRCLE
  5
119
  8
SIZE
  6
CONTINUOUS
 62
    30
 10
125.0
 20
274.85504200000003
 30
0.0
 40
6.0
  0
LINE
  5
11A
  8
SIZE
  6
CONTINUOUS
 62
    30
 10
125.0
 20
274.85504200000003
 30
0.0
 11
137.0
 21
274.85504200000003
 31
0.0
  0
POINT
  5
11B
  8
DEFPOINTS
  6
CONTINUOUS
 62
    30
 10
100.0
 20
197.5
 30
0.0
  0
POINT
  5
11C
  8
DEFPOINTS
  6
CONTINUOUS
 62
    30
 10
125.0
 20
197.5
 30
0.0
  0
POINT
  5
11D
  8
DEFPOINTS
  6
CONTINUOUS
 62
    30
 10
125.0
 20
274.85504200000003
 30
0.0
  0
LINE
  5
11E
  8
SIZE
  6
CONTINUOUS
 62
    30
 10
-115.0
 20
237.5
 30
0.0
 11
-115.0
 21
381.932704
 31
0.0
  0
LINE
  5
11F
  8
SIZE
  6
CONTINUOUS
 62
    30
 10
115.0
 20
237.5
 30
0.0
 11
115.0
 21
381.932704
 31
0.0
  0
LINE
  5
120
  8
SIZE
  6
CONTINUOUS
 62
    30
 10
-103.0
 20
361.932704
 30
0.0
 11
103.0
 21
361.932704
 31
0.0
  0
TEXT
  5
121
  8
SIZE
  6
CONTINUOUS
 62
    30
 10
-74.057142857142864
 20
385.686328
 30
0.0
 40
64.0
  1
230
 41
0.9
 72
     1
 11
0.0
 21
385.686328
 31
0.0
  0
CIRCLE
  5
122
  8
SIZE
  6
CONTINUOUS
 62
    30
 10
-115.0
 20
361.932704
 30
0.0
 40
6.0
  0
LINE
  5
123
  8
SIZE
  6
CONTINUOUS
 62
    30
 10
-115.0
 20
361.932704
 30
0.0
 11
-103.0
 21
361.932704
 31
0.0
  0
CIRCLE
  5
124
  8
SIZE
  6
CONTINUOUS
 62
    30
 10
115.0
 20
361.932704
 30
0.0
 40
6.0
  0
LINE
  5
125
  8
SIZE
  6
CONTINUOUS
 62
    30
 10
115.0
 20
361.932704
 30
0.0
 11
103.0
 21
361.932704
 31
0.0
  0
POINT
  5
126
  8
DEFPOINTS
  6
CONTINUOUS
 62
    30
 10
-115.0
 20
217.5
 30
0.0
  0
POINT
  5
127
  8
DEFPOINTS
  6
CONTINUOUS
 62
    30
 10
115.0
 20
217.5
 30
0.0
  0
POINT
  5
128
  8
DEFPOINTS
  6
CONTINUOUS
 62
    30
 10
115.0
 20
361.932704
 30
0.0
  0
LINE
  5
129
  8
SIZE
  6
CONTINUOUS
 62
    30
 10
125.0
 20
217.5
 30
0.0
 11
125.0
 21
607.61595199999999
 31
0.0
  0
LINE
  5
12A
  8
SIZE
  6
CONTINUOUS
 62
    30
 10
-194.5
 20
101.53570999999999
 30
0.0
 11
-194.5
 21
607.61595199999999
 31
0.0
  0
LINE
  5
12B
  8
SIZE
  6
CONTINUOUS
 62
    30
 10
113.0
 20
587.61595199999988
 30
0.0
 11
-182.5
 21
587.61595199999988
 31
0.0
  0
TEXT
  5
12C
  8
SIZE
  6
CONTINUOUS
 62
    30
 10
-144.31428571428569
 20
618.16630499999997
 30
0.0
 40
64.0
  1
319.5
 41
0.9
 72
     1
 11
-34.600000000000001
 21
618.16630499999997
 31
0.0
  0
CIRCLE
  5
12D
  8
SIZE
  6
CONTINUOUS
 62
    30
 10
125.0
 20
587.61595199999988
 30
0.0
 40
6.0
  0
LINE
  5
12E
  8
SIZE
  6
CONTINUOUS
 62
    30
 10
125.0
 20
587.61595199999988
 30
0.0
 11
113.0
 21
587.61595199999988
 31
0.0
  0
CIRCLE
  5
12F
  8
SIZE
  6
CONTINUOUS
 62
    30
 10
-194.5
 20
587.61595199999988
 30
0.0
 40
6.0
  0
LINE
  5
130
  8
SIZE
  6
CONTINUOUS
 62
    30
 10
-194.5
 20
587.61595199999988
 30
0.0
 11
-182.5
 21
587.61595199999988
 31
0.0
  0
POINT
  5
131
  8
DEFPOINTS
  6
CONTINUOUS
 62
    30
 10
125.0
 20
197.5
 30
0.0
  0
POINT
  5
132
  8
DEFPOINTS
  6
CONTINUOUS
 62
    30
 10
-194.5
 20
81.535709999999995
 30
0.0
  0
POINT
  5
133
  8
DEFPOINTS
  6
CONTINUOUS
 62
    30
 10
-194.5
 20
587.61595199999988
 30
0.0
  0
LINE
  5
134
  8
SIZE
  6
CONTINUOUS
 62
    30
 10
-125.0
 20
274.85504200000003
 30
0.0
 11
-339.38116500000001
 21
274.85504200000003
 31
0.0
  0
LINE
  5
135
  8
SIZE
  6
CONTINUOUS
 62
    30
 10
125.0
 20
274.85504200000003
 30
0.0
 11
272.05396000000002
 21
274.85504200000003
 31
0.0
  0
LINE
  5
136
  8
SIZE
  6
CONTINUOUS
 62
    30
 10
-125.0
 20
217.5
 30
0.0
 11
-125.0
 21
492.5709139999999
 31
0.0
  0
LINE
  5
137
  8
SIZE
  6
CONTINUOUS
 62
    30
 10
125.0
 20
217.5
 30
0.0
 11
125.0
 21
492.5709139999999
 31
0.0
  0
LINE
  5
138
  8
SIZE
  6
CONTINUOUS
 62
    30
 10
-113.0
 20
472.5709139999999
 30
0.0
 11
113.0
 21
472.5709139999999
 31
0.0
  0
CIRCLE
  5
139
  8
SIZE
  6
CONTINUOUS
 62
    30
 10
-125.0
 20
472.5709139999999
 30
0.0
 40
6.0
  0
LINE
  5
13A
  8
SIZE
  6
CONTINUOUS
 62
    30
 10
-125.0
 20
472.5709139999999
 30
0.0
 11
-113.0
 21
472.5709139999999
 31
0.0
  0
CIRCLE
  5
13B
  8
SIZE
  6
CONTINUOUS
 62
    30
 10
125.0
 20
472.5709139999999
 30
0.0
 40
6.0
  0
LINE
  5
13C
  8
SIZE
  6
CONTINUOUS
 62
    30
 10
125.0
 20
472.5709139999999
 30
0.0
 11
113.0
 21
472.5709139999999
 31
0.0
  0
TEXT
  5
13D
  8
SIZE
  6
CONTINUOUS
 62
    30
 10
-74.05714285714285
 20
497.5709139999999
 30
0.0
 40
64.0
  1
250
 41
0.9
 72
     1
 11
0.0
 21
497.5709139999999
 31
0.0
  0
POINT
  5
13E
  8
DEFPOINTS
  6
CONTINUOUS
 62
    30
 10
-125.0
 20
197.5
 30
0.0
  0
POINT
  5
13F
  8
DEFPOINTS
  6
CONTINUOUS
 62
    30
 10
125.0
 20
197.5
 30
0.0
  0
POINT
  5
140
  8
DEFPOINTS
  6
CONTINUOUS
 62
    30
 10
125.0
 20
472.5709139999999
 30
0.0
  0
LINE
  5
141
  8
SIZE
  6
CONTINUOUS
 62
    30
 10
-140.0
 20
-219.5
 30
0.0
 11
-140.0
 21
-491.61390299999999
 31
0.0
  0
LINE
  5
142
  8
SIZE
  6
CONTINUOUS
 62
    30
 10
140.0
 20
-217.5
 30
0.0
 11
140.0
 21
-491.61390299999999
 31
0.0
  0
LINE
  5
143
  8
SIZE
  6
CONTINUOUS
 62
    30
 10
-128.0
 20
-471.61390299999999
 30
0.0
 11
128.0
 21
-471.61390299999999
 31
0.0
  0
TEXT
  5
144
  8
SIZE
  6
CONTINUOUS
 62
    30
 10
-118.0431848571429
 20
-446.88908399999991
 30
0.0
 40
64.0
  1
φ280
 41
0.9
 72
     1
 11
-3.666042
 21
-446.88908399999991
 31
0.0
  0
CIRCLE
  5
145
  8
SIZE
  6
CONTINUOUS
 62
    30
 10
-140.0
 20
-471.61390299999999
 30
0.0
 40
6.0
  0
LINE
  5
146
  8
SIZE
  6
CONTINUOUS
 62
    30
 10
-140.0
 20
-471.61390299999999
 30
0.0
 11
-128.0
 21
-471.61390299999999
 31
0.0
  0
CIRCLE
  5
147
  8
SIZE
  6
CONTINUOUS
 62
    30
 10
140.0
 20
-471.61390299999999
 30
0.0
 40
6.0
  0
LINE
  5
148
  8
SIZE
  6
CONTINUOUS
 62
    30
 10
140.0
 20
-471.61390299999999
 30
0.0
 11
128.0
 21
-471.61390299999999
 31
0.0
  0
POINT
  5
149
  8
DEFPOINTS
  6
CONTINUOUS
 62
    30
 10
-140.0
 20
-199.5
 30
0.0
  0
POINT
  5
14A
  8
DEFPOINTS
  6
CONTINUOUS
 62
    30
 10
140.0
 20
-197.5
 30
0.0
  0
POINT
  5
14B
  8
DEFPOINTS
  6
CONTINUOUS
 62
    30
 10
140.0
 20
-471.61390299999999
 30
0.0
  0
LINE
  5
14C
  8
OUTLINE
  6
CONTINUOUS
 62
     3
 10
-131.19999999999999
 20
160.0
 30
0.0
 11
-125.0
 21
160.0
 31
0.0
  0
ARC
  5
14D
  8
OUTLINE
  6
CONTINUOUS
 62
     3
 10
-131.19999999999999
 20
152.0
 30
0.0
 40
8.0
 50
90.0
 51
180.0
  0
LINE
  5
14E
  8
OUTLINE
  6
CONTINUOUS
 62
     3
 10
-139.19999999999999
 20
-152.0
 30
0.0
 11
-139.19999999999999
 21
152.0
 31
0.0
  0
ARC
  5
14F
  8
OUTLINE
  6
CONTINUOUS
 62
     3
 10
-131.19999999999999
 20
-152.0
 30
0.0
 40
8.0
 50
180.0
 51
270.0
  0
LINE
  5
150
  8
OUTLINE
  6
CONTINUOUS
 62
     3
 10
-131.19999999999999
 20
-160.0
 30
0.0
 11
-125.0
 21
-160.0
 31
0.0
  0
LINE
  5
151
  8
OUTLINE
  6
CONTINUOUS
 62
     3
 10
100.0
 20
-197.5
 30
0.0
 11
100.0
 21
197.5
 31
0.0
  0
LINE
  5
152
  8
OUTLINE
  6
CONTINUOUS
 62
     3
 10
-100.0
 20
-197.5
 30
0.0
 11
-100.0
 21
197.5
 31
0.0
  0
LINE
  5
153
  8
OUTLINE
  6
CONTINUOUS
 62
     3
 10
100.0
 20
197.5
 30
0.0
 11
125.0
 21
197.5
 31
0.0
  0
LINE
  5
154
  8
OUTLINE
  6
CONTINUOUS
 62
     3
 10
-100.0
 20
172.5
 30
0.0
 11
100.0
 21
172.5
 31
0.0
  0
LINE
  5
155
  8
OUTLINE
  6
CONTINUOUS
 62
     3
 10
-100.0
 20
-172.5
 30
0.0
 11
100.0
 21
-172.5
 31
0.0
  0
LINE
  5
156
  8
OUTLINE
  6
CONTINUOUS
 62
     3
 10
-125.0
 20
-197.5
 30
0.0
 11
-125.0
 21
197.5
 31
0.0
  0
LINE
  5
157
  8
OUTLINE
  6
CONTINUOUS
 62
     3
 10
-125.0
 20
197.5
 30
0.0
 11
-100.0
 21
197.5
 31
0.0
  0
LINE
  5
158
  8
OUTLINE
  6
CONTINUOUS
 62
     3
 10
-87.5
 20
-197.5
 30
0.0
 11
87.5
 21
-197.5
 31
0.0
  0
LINE
  5
159
  8
OUTLINE
  6
CONTINUOUS
 62
     3
 10
-87.5
 20
-197.5
 30
0.0
 11
-140.0
 21
-197.5
 31
0.0
  0
LINE
  5
15A
  8
OUTLINE
  6
CONTINUOUS
 62
     3
 10
80.0
 20
-197.5
 30
0.0
 11
140.0
 21
-197.5
 31
0.0
  0
LINE
  5
15B
  8
OUTLINE
  6
CONTINUOUS
 62
     3
 10
125.0
 20
-197.5
 30
0.0
 11
125.0
 21
197.5
 31
0.0
  0
TEXT
  5
15C
  8
NOTE
  6
CONTINUOUS
 62
     4
 10
254.932894
 20
-56.501761000000002
 30
0.0
 40
64.0
  1
入口
 50
90.0
 41
0.9
  0
TEXT
  5
15D
  8
NOTE
  6
CONTINUOUS
 62
     4
 10
-57.232101999999998
 20
-323.36445900000001
 30
0.0
 40
64.0
  1
出口
 41
0.9
  0
LINE
  5
15E
  8
OUTLINE
  6
CONTINUOUS
 62
     3
 10
-125.0
 20
74.952399
 30
0.0
 11
-125.0
 21
-35.620902000000001
 31
0.0
  0
LINE
  5
15F
  8
OUTLINE
  6
CONTINUOUS
 62
     3
 10
-194.5
 20
81.535709999999995
 30
0.0
 11
-194.5
 21
2.5
 31
0.0
  0
LINE
  5
160
  8
OUTLINE
  6
CONTINUOUS
 62
     3
 10
-194.5
 20
-76.464290000000005
 30
0.0
 11
-194.5
 21
2.5
 31
0.0
  0
LINE
  5
161
  8
OUTLINE
  6
CONTINUOUS
 62
     3
 10
-139.19999999999999
 20
-79.0
 30
0.0
 11
-192.0
 21
-79.0
 31
0.0
  0
ARC
  5
162
  8
OUTLINE
  6
CONTINUOUS
 62
     3
 10
-192.0
 20
-76.464290000000005
 30
0.0
 40
2.5
 50
180.0
 51
270.0
  0
LINE
  5
163
  8
OUTLINE
  6
CONTINUOUS
 62
     3
 10
-139.19999999999999
 20
84.035709999999995
 30
0.0
 11
-192.0
 21
84.035709999999995
 31
0.0
  0
ARC
  5
164
  8
OUTLINE
  6
CONTINUOUS
 62
     3
 10
-192.0
 20
81.535709999999995
 30
0.0
 40
2.5
 50
90.0
 51
180.0
  0
LINE
  5
165
  8
BASIS
  6
DASHDOT
 62
     6
 10
-214.80160599999999
 20
2.5
 30
0.0
 11
-118.833591
 21
2.5
 31
0.0
  0
LINE
  5
166
  8
DETAIL
  6
CONTINUOUS
 62
     5
 10
-194.5
 20
-76.464290000000005
 30
0.0
 11
-194.5
 21
2.5
 31
0.0
  0
LINE
  5
167
  8
DETAIL
  6
CONTINUOUS
 62
     5
 10
-139.19999999999999
 20
-79.0
 30
0.0
 11
-192.0
 21
-79.0
 31
0.0
  0
ARC
  5
168
  8
DETAIL
  6
CONTINUOUS
 62
     5
 10
-192.0
 20
-76.464290000000005
 30
0.0
 40
2.5
 50
180.0
 51
270.0
  0
ARC
  5
169
  8
DETAIL
  6
CONTINUOUS
 62
     5
 10
-192.0
 20
81.535709999999995
 30
0.0
 40
2.5
 50
90.0
 51
180.0
  0
LINE
  5
16A
  8
DETAIL
  6
CONTINUOUS
 62
     5
 10
-194.5
 20
81.535709999999995
 30
0.0
 11
-194.5
 21
2.5
 31
0.0
  0
LINE
  5
16B
  8
DETAIL
  6
CONTINUOUS
 62
     5
 10
-139.19999999999999
 20
84.035709999999995
 30
0.0
 11
-192.0
 21
84.035709999999995
 31
0.0
  0
CIRCLE
  5
16C
  8
DETAIL
  6
CONTINUOUS
 62
     5
 10
-169.5
 20
-37.5
 30
0.0
 40
4.7999999999999989
  0
LINE
  5
16D
  8
NOTE
  6
CONTINUOUS
 62
     4
 10
-169.5
 20
-57.5
 30
0.0
 11
-169.5
 21
-17.5
 31
0.0
  0
LINE
  5
16E
  8
NOTE
  6
CONTINUOUS
 62
     4
 10
-149.5
 20
-37.5
 30
0.0
 11
-189.5
 21
-37.5
 31
0.0
  0
LINE
  5
16F
  8
NOTE
  6
CONTINUOUS
 62
     4
 10
-169.5
 20
-37.5
 30
0.0
 11
-397.74536899999998
 21
203.00450000000001
 31
0.0
  0
LINE
  5
170
  8
NOTE
  6
CONTINUOUS
 62
     4
 10
-203.60548299999999
 20
-16.599855999999999
 30
0.0
 11
-169.5
 21
-37.5
 31
0.0
  0
LINE
  5
171
  8
NOTE
  6
CONTINUOUS
 62
     4
 10
-169.5
 20
-37.5
 30
0.0
 11
-188.58614299999999
 21
-2.347202999999999
 31
0.0
  0
LINE
  5
172
  8
NOTE
  6
CONTINUOUS
 62
     4
 10
-507.71196500000002
 20
203.00450000000001
 30
0.0
 11
-397.74536899999998
 21
203.00450000000001
 31
0.0
  0
TEXT
  5
173
  8
NOTE
  6
CONTINUOUS
 62
     4
 10
-491.65585499999992
 20
226.68614700000001
 30
0.0
 40
64.0
  1
EL
 41
0.9
  0
TEXT
  5
17B
  8
ETC
  6
CONTINUOUS
 62
    61
 10
376.771490901974
 20
625.53169364176586
 30
0.0
 40
64.0
  1
産業扇
 41
0.9
  0
TEXT
  5
17C
  8
ETC
  6
CONTINUOUS
 62
    61
 10
371.93922290197401
 20
736.87632364176591
 30
0.0
 40
64.0
  1
BF-28T3_6
 41
0.9
  0
TEXT
  5
17D
  8
ETC
  6
CONTINUOUS
 62
    61
 10
460.63543300952227
 20
515.67789241540697
 30
0.0
 40
64.0
  1
BF-28T3
 41
0.9
  0
ENDSEC
  0
EOF
