  0
SECTION
  2
HEADER
  9
$ACADVER
  1
AC1009
  9
$DWGCODEPAGE
  3
dos932
  9
$INSBASE
 10
0.0
 20
0.0
 30
0.0
  9
$EXTMIN
 10
-646.24326959746395
 20
-494.43053034417238
 30
-0.0000000349181948
  9
$EXTMAX
 10
968.00538259326095
 20
694.38172200971894
 30
0.0000000814935746
  9
$LIMMIN
 10
-2970.0
 20
-2100.0
  9
$LIMMAX
 10
2970.0
 20
2100.0
  9
$ORTHOMODE
 70
     1
  9
$REGENMODE
 70
     1
  9
$FILLMODE
 70
     1
  9
$QTEXTMODE
 70
     0
  9
$MIRRTEXT
 70
     0
  9
$LTSCALE
 40
20.0
  9
$ATTMODE
 70
     1
  9
$TEXTSIZE
 40
64.0
  9
$TRACEWID
 40
0.05
  9
$TEXTSTYLE
  7
STANDARD
  9
$CLAYER
  8
SIZE
  9
$CELTYPE
  6
CONTINUOUS
  9
$CECOLOR
 62
     7
  9
$DIMSCALE
 40
1.0
  9
$DIMASZ
 40
12.0
  9
$DIMEXO
 40
20.0
  9
$DIMDLI
 40
200.0
  9
$DIMRND
 40
0.0
  9
$DIMDLE
 40
0.0
  9
$DIMEXE
 40
20.0
  9
$DIMTP
 40
0.0
  9
$DIMTM
 40
0.0
  9
$DIMTXT
 40
64.0
  9
$DIMCEN
 40
0.09
  9
$DIMTSZ
 40
0.0
  9
$DIMTOL
 70
     0
  9
$DIMLIM
 70
     0
  9
$DIMTIH
 70
     0
  9
$DIMTOH
 70
     0
  9
$DIMSE1
 70
     0
  9
$DIMSE2
 70
     0
  9
$DIMTAD
 70
     1
  9
$DIMZIN
 70
     8
  9
$DIMBLK
  1

  9
$DIMASO
 70
     1
  9
$DIMSHO
 70
     0
  9
$DIMPOST
  1

  9
$DIMAPOST
  1

  9
$DIMALT
 70
     0
  9
$DIMALTD
 70
     2
  9
$DIMALTF
 40
25.399999999999999
  9
$DIMLFAC
 40
1.0
  9
$DIMTOFL
 70
     1
  9
$DIMTVP
 40
0.0
  9
$DIMTIX
 70
     1
  9
$DIMSOXD
 70
     0
  9
$DIMSAH
 70
     0
  9
$DIMBLK1
  1

  9
$DIMBLK2
  1

  9
$DIMSTYLE
  2
STANDARD
  9
$DIMCLRD
 70
     7
  9
$DIMCLRE
 70
     7
  9
$DIMCLRT
 70
     7
  9
$DIMTFAC
 40
1.0
  9
$DIMGAP
 40
25.0
  9
$LUNITS
 70
     2
  9
$LUPREC
 70
     4
  9
$SKETCHINC
 40
0.1
  9
$FILLETRAD
 40
3.0
  9
$AUNITS
 70
     1
  9
$AUPREC
 70
     3
  9
$MENU
  1
ACAD
  9
$ELEVATION
 40
0.0
  9
$PELEVATION
 40
0.0
  9
$THICKNESS
 40
50.0
  9
$LIMCHECK
 70
     0
  9
$CHAMFERA
 40
0.0
  9
$CHAMFERB
 40
0.0
  9
$SKPOLY
 70
     0
  9
$TDCREATE
 40
2453019.62301037
  9
$TDUPDATE
 40
2458911.470093553
  9
$TDINDWG
 40
1.7263055208
  9
$TDUSRTIMER
 40
1.7263055208
  9
$USRTIMER
 70
     1
  9
$ANGBASE
 50
0.0
  9
$ANGDIR
 70
     0
  9
$PDMODE
 70
     3
  9
$PDSIZE
 40
-2.0
  9
$PLINEWID
 40
0.0
  9
$SPLFRAME
 70
     0
  9
$SPLINETYPE
 70
     6
  9
$SPLINESEGS
 70
     8
  9
$SURFTAB1
 70
     6
  9
$SURFTAB2
 70
     6
  9
$SURFTYPE
 70
     6
  9
$SURFU
 70
     6
  9
$SURFV
 70
     6
  9
$UCSNAME
  2

  9
$UCSORG
 10
0.0
 20
0.0
 30
0.0
  9
$UCSXDIR
 10
1.0
 20
0.0
 30
0.0
  9
$UCSYDIR
 10
0.0
 20
1.0
 30
0.0
  9
$PUCSNAME
  2

  9
$PUCSORG
 10
0.0
 20
0.0
 30
0.0
  9
$PUCSXDIR
 10
1.0
 20
0.0
 30
0.0
  9
$PUCSYDIR
 10
0.0
 20
1.0
 30
0.0
  9
$USERI1
 70
     0
  9
$USERI2
 70
     0
  9
$USERI3
 70
     0
  9
$USERI4
 70
     0
  9
$USERI5
 70
     0
  9
$USERR1
 40
20.0
  9
$USERR2
 40
0.0
  9
$USERR3
 40
0.0
  9
$USERR4
 40
0.0
  9
$USERR5
 40
0.0
  9
$WORLDVIEW
 70
     1
  9
$SHADEDGE
 70
     3
  9
$SHADEDIF
 70
    70
  9
$TILEMODE
 70
     1
  9
$MAXACTVP
 70
    48
  9
$PINSBASE
 10
0.0
 20
0.0
 30
0.0
  9
$PLIMCHECK
 70
     0
  9
$PEXTMIN
 10
-100000000000000000000.0
 20
-100000000000000000000.0
 30
-100000000000000000000.0
  9
$PEXTMAX
 10
100000000000000000000.0
 20
100000000000000000000.0
 30
100000000000000000000.0
  9
$PLIMMIN
 10
0.0
 20
0.0
  9
$PLIMMAX
 10
12.0
 20
9.0
  9
$UNITMODE
 70
     0
  9
$VISRETAIN
 70
     0
  9
$PLINEGEN
 70
     0
  9
$PSLTSCALE
 70
     0
  9
$TREEDEPTH
 70
  3020
  9
$ATTDIA
 70
     0
  9
$ATTREQ
 70
     1
  9
$BLIPMODE
 70
     1
  9
$COORDS
 70
     1
  9
$DRAGMODE
 70
     2
  9
$OSMODE
 70
     0
  9
$HANDLING
 70
     0
  9
$HANDSEED
  5
E5E8
  0
ENDSEC
  0
SECTION
  2
TABLES
  0
TABLE
  2
LTYPE
 70
     2
  0
LTYPE
  2
CONTINUOUS
 70
     0
  3
実線
 72
    65
 73
     0
 40
0.0
  0
LTYPE
  2
DASHDOT
 70
     0
  3
____ _ ____ _ ____ _ ____ _ ____ _ ____ _ ____
 72
    65
 73
     4
 40
5.5
 49
4.0
 49
-0.6
 49
0.3
 49
-0.6
  0
ENDTAB
  0
TABLE
  2
LAYER
 70
    12
  0
LAYER
  2
0
 70
     0
 62
     7
  6
CONTINUOUS
  0
LAYER
  2
BASIS
 70
     0
 62
     6
  6
DASHDOT
  0
LAYER
  2
OUTLINE
 70
     0
 62
     3
  6
CONTINUOUS
  0
LAYER
  2
DETAIL
 70
     0
 62
     5
  6
CONTINUOUS
  0
LAYER
  2
SIZE
 70
     0
 62
    30
  6
CONTINUOUS
  0
LAYER
  2
ARRANGE
 70
     0
 62
     1
  6
CONTINUOUS
  0
LAYER
  2
DEFPOINTS
 70
     0
 62
     7
  6
CONTINUOUS
  0
LAYER
  2
ETC
 70
     0
 62
    61
  6
CONTINUOUS
  0
LAYER
  2
FIX
 70
     0
 62
    11
  6
CONTINUOUS
  0
LAYER
  2
NOTE
 70
     0
 62
     4
  6
CONTINUOUS
  0
LAYER
  2
SERVICESPACE
 70
    64
 62
     2
  6
DASHDOT
  0
LAYER
  2
SYMBOLLINE
 70
    64
 62
    15
  6
CONTINUOUS
  0
ENDTAB
  0
TABLE
  2
STYLE
 70
     1
  0
STYLE
  2
STANDARD
 70
     0
 40
64.0
 41
0.9
 50
0.0
 71
     0
 42
64.0
  3
SIMPLEX.shx
  4
BIGFONT.shx
  0
ENDTAB
  0
TABLE
  2
APPID
 70
    16
  0
APPID
  2
ACAD
 70
     0
  0
APPID
  2
AUTOCAD_POSTSCRIPT_FIGURE
 70
     0
  0
APPID
  2
ACAD_EXEMPT_FROM_CAD_STANDARDS
 70
     0
  0
APPID
  2
ACAD_PSEXT
 70
     0
  0
APPID
  2
ACAUTHENVIRON
 70
     0
  0
APPID
  2
GENIUS_GENOENT_13
 70
     0
  0
APPID
  2
GENIUS_GENCFG_13
 70
     0
  0
APPID
  2
GENIUS_GENCFG0_13
 70
     0
  0
APPID
  2
GENIUS_GENCFG1_13
 70
     0
  0
APPID
  2
GENIUS_GENCFG2_13
 70
     0
  0
APPID
  2
GENIUS_GENCFG3_13
 70
     0
  0
APPID
  2
GENIUS_GENCFG4_13
 70
     0
  0
APPID
  2
GENIUS_GEVCFG0_13
 70
     0
  0
APPID
  2
CONTENTBLOCKICON
 70
     0
  0
APPID
  2
CONTENTBLOCKDESCRIPTION
 70
     0
  0
APPID
  2
ACAD_NAV_VCDISPLAY
 70
     0
  0
ENDTAB
  0
TABLE
  2
DIMSTYLE
 70
     1
  0
DIMSTYLE
  2
STANDARD
 70
     0
  3

  4

  5
_ORIGIN
  6

  7

 40
1.0
 41
12.0
 42
20.0
 43
200.0
 44
20.0
 45
0.0
 46
0.0
 47
0.0
 48
0.0
140
64.0
141
0.09
142
0.0
143
25.399999999999999
144
1.0
145
0.0
146
1.0
147
25.0
 71
     0
 72
     0
 73
     0
 74
     0
 75
     0
 76
     0
 77
     1
 78
     8
170
     0
171
     2
172
     1
173
     0
174
     1
175
     0
176
     7
177
     7
178
     7
  0
ENDTAB
  0
TABLE
  2
VIEW
 70
     1
  0
VIEW
  2
ALL
 70
     0
 40
4282.6198079999986
 10
0.0
 20
41.309904000000003
 41
5940.0
 11
0.0
 21
0.0
 31
1.0
 12
0.0
 22
0.0
 32
0.0
 42
50.0
 43
0.0
 44
0.0
 50
0.0
 71
     0
  0
ENDTAB
  0
TABLE
  2
UCS
 70
     0
  0
ENDTAB
  0
TABLE
  2
VPORT
 70
     1
  0
VPORT
  2
*ACTIVE
 70
     0
 10
0.0
 20
0.0
 11
1.0
 21
1.0
 12
160.88105649789861
 22
99.975595832773251
 13
0.0
 23
0.0
 14
1.0
 24
1.0
 15
0.0
 25
0.0
 16
0.0
 26
0.0
 36
1.0
 17
0.0
 27
0.0
 37
0.0
 40
1197.324034590315
 41
1.7980884109916371
 42
50.0
 43
0.0
 44
0.0
 50
0.0
 51
0.0
 71
     0
 72
  1000
 73
     1
 74
     3
 75
     0
 76
     0
 77
     0
 78
     0
  0
ENDTAB
  0
ENDSEC
  0
SECTION
  2
BLOCKS
  0
BLOCK
  8
0
  2
_ORIGIN
 70
     0
 10
0.0
 20
0.0
 30
0.0
  3
_ORIGIN
  1
_ORIGIN
  0
CIRCLE
  8
0
  6
CONTINUOUS
 62
     7
 10
0.0
 20
0.0
 30
0.0
 40
0.5
  0
LINE
  8
0
  6
CONTINUOUS
 62
     7
 10
0.0
 20
0.0
 30
0.0
 11
-1.0
 21
0.0
 31
0.0
  0
ENDBLK
  8
0
  0
ENDSEC
  0
SECTION
  2
ENTITIES
  0
TEXT
  8
NOTE
  6
CONTINUOUS
 62
     4
 10
236.77187200000009
 20
-336.50287900000001
 30
0.0
 40
64.0
  1
AH 12-φ20×12
 41
0.9
  0
LINE
  8
NOTE
  6
CONTINUOUS
 62
     4
 10
230.77699100000001
 20
-372.24707799999999
 30
0.0
 11
914.80573600000002
 21
-372.24707799999999
 31
0.0
  0
LINE
  8
DETAIL
  6
CONTINUOUS
 62
     5
 10
125.0
 20
-200.0
 30
0.0
 11
125.0
 21
195.0
 31
0.0
  0
LINE
  8
DETAIL
  6
CONTINUOUS
 62
     5
 10
-140.0
 20
-200.80000000000001
 30
0.0
 11
140.0
 21
-200.80000000000001
 31
0.0
  0
LINE
  8
DETAIL
  6
CONTINUOUS
 62
     5
 10
80.000000000000028
 20
-200.0
 30
0.0
 11
140.0
 21
-200.0
 31
0.0
  0
LINE
  8
DETAIL
  6
CONTINUOUS
 62
     5
 10
-87.499999999999972
 20
-200.0
 30
0.0
 11
-140.0
 21
-200.0
 31
0.0
  0
LINE
  8
DETAIL
  6
CONTINUOUS
 62
     5
 10
140.0
 20
-200.80000000000001
 30
0.0
 11
140.0
 21
-200.0
 31
0.0
  0
LINE
  8
DETAIL
  6
CONTINUOUS
 62
     5
 10
-140.0
 20
-200.80000000000001
 30
0.0
 11
-140.0
 21
-200.0
 31
0.0
  0
LINE
  8
DETAIL
  6
CONTINUOUS
 62
     5
 10
-87.499999999999972
 20
-200.0
 30
0.0
 11
87.500000000000028
 21
-200.0
 31
0.0
  0
LINE
  8
DETAIL
  6
CONTINUOUS
 62
     5
 10
-125.0
 20
195.0
 30
0.0
 11
-99.999999999999972
 21
195.0
 31
0.0
  0
LINE
  8
BASIS
  6
DASHDOT
 62
     6
 10
0.0000000000000284
 20
-261.37583599999999
 30
0.0
 11
0.0000000000000284
 21
232.75039899999999
 31
0.0
  0
LINE
  8
DETAIL
  6
CONTINUOUS
 62
     5
 10
-125.0
 20
-200.0
 30
0.0
 11
-125.0
 21
195.0
 31
0.0
  0
LINE
  8
DETAIL
  6
CONTINUOUS
 62
     5
 10
-99.999999999999972
 20
-175.0
 30
0.0
 11
100.0
 21
-175.0
 31
0.0
  0
LINE
  8
DETAIL
  6
CONTINUOUS
 62
     5
 10
-99.999999999999972
 20
170.0
 30
0.0
 11
100.0
 21
170.0
 31
0.0
  0
LINE
  8
DETAIL
  6
CONTINUOUS
 62
     5
 10
100.0
 20
195.0
 30
0.0
 11
125.0
 21
195.0
 31
0.0
  0
LINE
  8
DETAIL
  6
CONTINUOUS
 62
     5
 10
-99.999999999999972
 20
-200.0
 30
0.0
 11
-99.999999999999972
 21
195.0
 31
0.0
  0
LINE
  8
DETAIL
  6
CONTINUOUS
 62
     5
 10
100.0
 20
-200.0
 30
0.0
 11
100.0
 21
195.0
 31
0.0
  0
LINE
  8
DETAIL
  6
CONTINUOUS
 62
     5
 10
-131.19999999999999
 20
-162.5
 30
0.0
 11
-125.0
 21
-162.5
 31
0.0
  0
ARC
  8
DETAIL
  6
CONTINUOUS
 62
     5
 10
-131.19999999999999
 20
-154.5
 30
0.0
 40
8.0
 50
180.0
 51
270.0
  0
LINE
  8
DETAIL
  6
CONTINUOUS
 62
     5
 10
-139.19999999999999
 20
-154.5
 30
0.0
 11
-139.19999999999999
 21
149.5
 31
0.0
  0
ARC
  8
DETAIL
  6
CONTINUOUS
 62
     5
 10
-131.19999999999999
 20
149.5
 30
0.0
 40
8.0
 50
90.0
 51
180.0
  0
LINE
  8
DETAIL
  6
CONTINUOUS
 62
     5
 10
-131.19999999999999
 20
157.5
 30
0.0
 11
-125.0
 21
157.5
 31
0.0
  0
LINE
  8
BASIS
  6
DASHDOT
 62
     6
 10
82.715869000000026
 20
-0.5000000000000058
 30
0.0
 11
150.07404299999999
 21
-0.5000000000000058
 31
0.0
  0
POINT
  8
ARRANGE
  6
CONTINUOUS
 62
     1
 10
0.0
 20
0.0
 30
0.0
  0
CIRCLE
  8
ARRANGE
  6
CONTINUOUS
 62
     1
 10
0.0
 20
0.0
 30
0.0
 40
40.0
  0
CIRCLE
  8
FIX
  6
CONTINUOUS
 62
    11
 10
-115.0
 20
-162.5
 30
0.0
 40
6.0
  0
ARC
  8
DETAIL
  6
CONTINUOUS
 62
     5
 10
-115.0
 20
-162.5
 30
0.0
 40
10.0
 50
53.130102000000349
 51
126.86989799999969
  0
ARC
  8
DETAIL
  6
CONTINUOUS
 62
     5
 10
-115.0
 20
-162.5
 30
0.0
 40
10.0
 50
233.13010200000039
 51
306.86989799999958
  0
LINE
  8
DETAIL
  6
CONTINUOUS
 62
     5
 10
-121.0
 20
-154.5
 30
0.0
 11
-121.0
 21
-170.5
 31
0.0
  0
LINE
  8
DETAIL
  6
CONTINUOUS
 62
     5
 10
-109.0
 20
-154.5
 30
0.0
 11
-109.0
 21
-170.5
 31
0.0
  0
LINE
  8
NOTE
  6
CONTINUOUS
 62
     4
 10
-115.0
 20
-142.5
 30
0.0
 11
-115.0
 21
-182.5
 31
0.0
  0
LINE
  8
NOTE
  6
CONTINUOUS
 62
     4
 10
-94.999999999999972
 20
-162.5
 30
0.0
 11
-135.0
 21
-162.5
 31
0.0
  0
LINE
  8
DETAIL
  6
CONTINUOUS
 62
     5
 10
-109.0
 20
165.5
 30
0.0
 11
-109.0
 21
149.5
 31
0.0
  0
LINE
  8
DETAIL
  6
CONTINUOUS
 62
     5
 10
-121.0
 20
165.5
 30
0.0
 11
-121.0
 21
149.5
 31
0.0
  0
ARC
  8
DETAIL
  6
CONTINUOUS
 62
     5
 10
-115.0
 20
157.5
 30
0.0
 40
10.0
 50
233.13010200000039
 51
306.86989799999958
  0
ARC
  8
DETAIL
  6
CONTINUOUS
 62
     5
 10
-115.0
 20
157.5
 30
0.0
 40
10.0
 50
53.130102000000349
 51
126.86989799999969
  0
CIRCLE
  8
FIX
  6
CONTINUOUS
 62
    11
 10
-115.0
 20
157.5
 30
0.0
 40
6.0
  0
LINE
  8
NOTE
  6
CONTINUOUS
 62
     4
 10
-115.0
 20
177.5
 30
0.0
 11
-115.0
 21
137.5
 31
0.0
  0
LINE
  8
NOTE
  6
CONTINUOUS
 62
     4
 10
-94.999999999999972
 20
157.5
 30
0.0
 11
-135.0
 21
157.5
 31
0.0
  0
LINE
  8
NOTE
  6
CONTINUOUS
 62
     4
 10
-115.0
 20
215.0
 30
0.0
 11
-115.0
 21
175.0
 31
0.0
  0
LINE
  8
NOTE
  6
CONTINUOUS
 62
     4
 10
-94.999999999999972
 20
195.0
 30
0.0
 11
-135.0
 21
195.0
 31
0.0
  0
CIRCLE
  8
FIX
  6
CONTINUOUS
 62
    11
 10
-115.0
 20
195.0
 30
0.0
 40
6.0
  0
LINE
  8
DETAIL
  6
CONTINUOUS
 62
     5
 10
109.0
 20
-154.5
 30
0.0
 11
109.0
 21
-170.5
 31
0.0
  0
LINE
  8
DETAIL
  6
CONTINUOUS
 62
     5
 10
121.0
 20
-154.5
 30
0.0
 11
121.0
 21
-170.5
 31
0.0
  0
ARC
  8
DETAIL
  6
CONTINUOUS
 62
     5
 10
115.0
 20
-162.5
 30
0.0
 40
10.0
 50
233.13010200000039
 51
306.86989799999958
  0
ARC
  8
DETAIL
  6
CONTINUOUS
 62
     5
 10
115.0
 20
-162.5
 30
0.0
 40
10.0
 50
53.130102000000349
 51
126.86989799999969
  0
CIRCLE
  8
FIX
  6
CONTINUOUS
 62
    11
 10
115.0
 20
-162.5
 30
0.0
 40
6.0
  0
LINE
  8
NOTE
  6
CONTINUOUS
 62
     4
 10
115.0
 20
-142.5
 30
0.0
 11
115.0
 21
-182.5
 31
0.0
  0
LINE
  8
NOTE
  6
CONTINUOUS
 62
     4
 10
95.000000000000028
 20
-162.5
 30
0.0
 11
135.0
 21
-162.5
 31
0.0
  0
CIRCLE
  8
FIX
  6
CONTINUOUS
 62
    11
 10
115.0
 20
157.5
 30
0.0
 40
6.0
  0
ARC
  8
DETAIL
  6
CONTINUOUS
 62
     5
 10
115.0
 20
157.5
 30
0.0
 40
10.0
 50
53.130102000000349
 51
126.86989799999969
  0
ARC
  8
DETAIL
  6
CONTINUOUS
 62
     5
 10
115.0
 20
157.5
 30
0.0
 40
10.0
 50
233.13010200000039
 51
306.86989799999958
  0
LINE
  8
DETAIL
  6
CONTINUOUS
 62
     5
 10
121.0
 20
165.5
 30
0.0
 11
121.0
 21
149.5
 31
0.0
  0
LINE
  8
DETAIL
  6
CONTINUOUS
 62
     5
 10
109.0
 20
165.5
 30
0.0
 11
109.0
 21
149.5
 31
0.0
  0
LINE
  8
NOTE
  6
CONTINUOUS
 62
     4
 10
115.0
 20
177.5
 30
0.0
 11
115.0
 21
137.5
 31
0.0
  0
LINE
  8
NOTE
  6
CONTINUOUS
 62
     4
 10
95.000000000000028
 20
157.5
 30
0.0
 11
135.0
 21
157.5
 31
0.0
  0
LINE
  8
NOTE
  6
CONTINUOUS
 62
     4
 10
115.0
 20
215.0
 30
0.0
 11
115.0
 21
175.0
 31
0.0
  0
LINE
  8
NOTE
  6
CONTINUOUS
 62
     4
 10
95.000000000000028
 20
195.0
 30
0.0
 11
135.0
 21
195.0
 31
0.0
  0
CIRCLE
  8
FIX
  6
CONTINUOUS
 62
    11
 10
115.0
 20
195.0
 30
0.0
 40
6.0
  0
LINE
  8
NOTE
  6
CONTINUOUS
 62
     4
 10
115.0
 20
-162.5
 30
0.0
 11
230.77699100000001
 21
-372.24707799999999
 31
0.0
  0
LINE
  8
NOTE
  6
CONTINUOUS
 62
     4
 10
125.65539699999999
 20
-201.0546689999999
 30
0.0
 11
115.0
 21
-162.5
 31
0.0
  0
LINE
  8
NOTE
  6
CONTINUOUS
 62
     4
 10
115.0
 20
-162.5
 30
0.0
 11
143.505179
 21
-190.56162399999999
 31
0.0
  0
LINE
  8
SIZE
  6
CONTINUOUS
 62
    30
 10
-234.80160599999999
 20
0.0
 30
0.0
 11
-365.40685000000002
 21
0.0
 31
0.0
  0
LINE
  8
SIZE
  6
CONTINUOUS
 62
    30
 10
-160.0
 20
-200.0
 30
0.0
 11
-365.40685000000002
 21
-200.0
 31
0.0
  0
LINE
  8
SIZE
  6
CONTINUOUS
 62
    30
 10
-345.40685000000002
 20
-12.0
 30
0.0
 11
-345.40685000000002
 21
-188.0
 31
0.0
  0
LINE
  8
SIZE
  6
CONTINUOUS
 62
    30
 10
-345.40685000000002
 20
-418.93246599999998
 30
0.0
 11
-345.40685000000002
 21
-200.0
 31
0.0
  0
TEXT
  8
SIZE
  6
CONTINUOUS
 62
    30
 10
-370.40685000000002
 20
-393.9324658571428
 30
0.0
 40
64.0
  1
200
 50
90.0
 41
0.9
 72
     1
 11
-370.40685000000002
 21
-319.87532299999998
 31
0.0
  0
CIRCLE
  8
SIZE
  6
CONTINUOUS
 62
    30
 10
-345.40685000000002
 20
0.0
 30
0.0
 40
6.0
  0
LINE
  8
SIZE
  6
CONTINUOUS
 62
    30
 10
-345.40685000000002
 20
0.0
 30
0.0
 11
-345.40685000000002
 21
-12.0
 31
0.0
  0
CIRCLE
  8
SIZE
  6
CONTINUOUS
 62
    30
 10
-345.40685000000002
 20
-200.0
 30
0.0
 40
6.0
  0
LINE
  8
SIZE
  6
CONTINUOUS
 62
    30
 10
-345.40685000000002
 20
-200.0
 30
0.0
 11
-345.40685000000002
 21
-188.0
 31
0.0
  0
LINE
  8
SIZE
  6
CONTINUOUS
 62
    30
 10
-209.19999999999999
 20
81.5
 30
0.0
 11
-449.83817800000003
 21
81.5
 31
0.0
  0
LINE
  8
SIZE
  6
CONTINUOUS
 62
    30
 10
-209.19999999999999
 20
-81.5
 30
0.0
 11
-449.83817800000003
 21
-81.5
 31
0.0
  0
LINE
  8
SIZE
  6
CONTINUOUS
 62
    30
 10
-429.83817800000003
 20
69.5
 30
0.0
 11
-429.83817800000003
 21
-69.5
 31
0.0
  0
TEXT
  8
SIZE
  6
CONTINUOUS
 62
    30
 10
-453.06478600000003
 20
-98.742857142857133
 30
0.0
 40
64.0
  1
φ163
 50
90.0
 41
0.9
 72
     1
 11
-453.06478600000003
 21
0.0
 31
0.0
  0
CIRCLE
  8
SIZE
  6
CONTINUOUS
 62
    30
 10
-429.83817800000003
 20
81.5
 30
0.0
 40
6.0
  0
LINE
  8
SIZE
  6
CONTINUOUS
 62
    30
 10
-429.83817800000003
 20
81.5
 30
0.0
 11
-429.83817800000003
 21
69.5
 31
0.0
  0
CIRCLE
  8
SIZE
  6
CONTINUOUS
 62
    30
 10
-429.83817800000003
 20
-81.5
 30
0.0
 40
6.0
  0
LINE
  8
SIZE
  6
CONTINUOUS
 62
    30
 10
-429.83817800000003
 20
-81.5
 30
0.0
 11
-429.83817800000003
 21
-69.5
 31
0.0
  0
LINE
  8
SIZE
  6
CONTINUOUS
 62
    30
 10
-155.0
 20
157.5
 30
0.0
 11
-576.86469
 21
157.5
 31
0.0
  0
LINE
  8
SIZE
  6
CONTINUOUS
 62
    30
 10
-155.0
 20
-162.5
 30
0.0
 11
-576.86469
 21
-162.5
 31
0.0
  0
LINE
  8
SIZE
  6
CONTINUOUS
 62
    30
 10
-556.86469
 20
145.5
 30
0.0
 11
-556.86469
 21
-150.5
 31
0.0
  0
CIRCLE
  8
SIZE
  6
CONTINUOUS
 62
    30
 10
-556.86469
 20
157.5
 30
0.0
 40
6.0
  0
LINE
  8
SIZE
  6
CONTINUOUS
 62
    30
 10
-556.86469
 20
157.5
 30
0.0
 11
-556.86469
 21
145.5
 31
0.0
  0
CIRCLE
  8
SIZE
  6
CONTINUOUS
 62
    30
 10
-556.86469
 20
-162.5
 30
0.0
 40
6.0
  0
LINE
  8
SIZE
  6
CONTINUOUS
 62
    30
 10
-556.86469
 20
-162.5
 30
0.0
 11
-556.86469
 21
-150.5
 31
0.0
  0
TEXT
  8
SIZE
  6
CONTINUOUS
 62
    30
 10
-581.86469
 20
-76.55714285714285
 30
0.0
 40
64.0
  1
320
 50
90.0
 41
0.9
 72
     1
 11
-581.86469
 21
-2.5
 31
0.0
  0
LINE
  8
SIZE
  6
CONTINUOUS
 62
    30
 10
145.0
 20
195.0
 30
0.0
 11
577.63071681989686
 21
195.0
 31
0.0
  0
LINE
  8
SIZE
  6
CONTINUOUS
 62
    30
 10
160.0
 20
-200.0
 30
0.0
 11
577.63071681989686
 21
-200.0
 31
0.0
  0
LINE
  8
SIZE
  6
CONTINUOUS
 62
    30
 10
557.63071681989686
 20
183.0
 30
0.0
 11
557.63071681989686
 21
-188.0
 31
0.0
  0
CIRCLE
  8
SIZE
  6
CONTINUOUS
 62
    30
 10
557.63071681989686
 20
195.0
 30
0.0
 40
6.0
  0
LINE
  8
SIZE
  6
CONTINUOUS
 62
    30
 10
557.63071681989686
 20
195.0
 30
0.0
 11
557.63071681989686
 21
183.0
 31
0.0
  0
CIRCLE
  8
SIZE
  6
CONTINUOUS
 62
    30
 10
557.63071681989686
 20
-200.0
 30
0.0
 40
6.0
  0
LINE
  8
SIZE
  6
CONTINUOUS
 62
    30
 10
557.63071681989686
 20
-200.0
 30
0.0
 11
557.63071681989686
 21
-188.0
 31
0.0
  0
TEXT
  8
SIZE
  6
CONTINUOUS
 62
    30
 10
532.63071681989686
 20
-76.55714285714285
 30
0.0
 40
64.0
  1
395
 50
90.0
 41
0.9
 72
     1
 11
532.63071681989686
 21
-2.5
 31
0.0
  0
LINE
  8
SIZE
  6
CONTINUOUS
 62
    30
 10
-345.40685000000002
 20
-198.0
 30
0.0
 11
-345.40685000000002
 21
-403.75007699999992
 31
0.0
  0
LINE
  8
SIZE
  6
CONTINUOUS
 62
    30
 10
-99.999999999999972
 20
215.0
 30
0.0
 11
-99.999999999999972
 21
292.35504200000008
 31
0.0
  0
LINE
  8
SIZE
  6
CONTINUOUS
 62
    30
 10
-125.0
 20
215.0
 30
0.0
 11
-125.0
 21
292.35504200000008
 31
0.0
  0
LINE
  8
SIZE
  6
CONTINUOUS
 62
    30
 10
-87.999999999999972
 20
272.35504200000003
 30
0.0
 11
-75.999999999999972
 21
272.35504200000003
 31
0.0
  0
LINE
  8
SIZE
  6
CONTINUOUS
 62
    30
 10
-137.0
 20
272.35504200000003
 30
0.0
 11
-149.0
 21
272.35504200000003
 31
0.0
  0
LINE
  8
SIZE
  6
CONTINUOUS
 62
    30
 10
-360.35673999999989
 20
272.35504200000003
 30
0.0
 11
-125.0
 21
272.35504200000003
 31
0.0
  0
TEXT
  8
SIZE
  6
CONTINUOUS
 62
    30
 10
-335.35674042857141
 20
297.35504200000008
 30
0.0
 40
64.0
  1
25
 41
0.9
 72
     1
 11
-288.72816899999998
 21
297.35504200000008
 31
0.0
  0
LINE
  8
SIZE
  6
CONTINUOUS
 62
    30
 10
-99.999999999999972
 20
272.35504200000003
 30
0.0
 11
-125.0
 21
272.35504200000003
 31
0.0
  0
LINE
  8
SIZE
  6
CONTINUOUS
 62
    30
 10
-99.999999999999972
 20
272.35504200000003
 30
0.0
 11
-125.0
 21
272.35504200000003
 31
0.0
  0
CIRCLE
  8
SIZE
  6
CONTINUOUS
 62
    30
 10
-99.999999999999972
 20
272.35504200000003
 30
0.0
 40
6.0
  0
LINE
  8
SIZE
  6
CONTINUOUS
 62
    30
 10
-99.999999999999972
 20
272.35504200000003
 30
0.0
 11
-87.999999999999972
 21
272.35504200000003
 31
0.0
  0
CIRCLE
  8
SIZE
  6
CONTINUOUS
 62
    30
 10
-125.0
 20
272.35504200000003
 30
0.0
 40
6.0
  0
LINE
  8
SIZE
  6
CONTINUOUS
 62
    30
 10
-125.0
 20
272.35504200000003
 30
0.0
 11
-137.0
 21
272.35504200000003
 31
0.0
  0
LINE
  8
SIZE
  6
CONTINUOUS
 62
    30
 10
100.0
 20
215.0
 30
0.0
 11
100.0
 21
292.35504200000008
 31
0.0
  0
LINE
  8
SIZE
  6
CONTINUOUS
 62
    30
 10
125.0
 20
215.0
 30
0.0
 11
125.0
 21
292.35504200000008
 31
0.0
  0
LINE
  8
SIZE
  6
CONTINUOUS
 62
    30
 10
88.000000000000028
 20
272.35504200000003
 30
0.0
 11
76.000000000000028
 21
272.35504200000003
 31
0.0
  0
LINE
  8
SIZE
  6
CONTINUOUS
 62
    30
 10
137.0
 20
272.35504200000003
 30
0.0
 11
149.0
 21
272.35504200000003
 31
0.0
  0
TEXT
  8
SIZE
  6
CONTINUOUS
 62
    30
 10
168.5434925714286
 20
296.68591099999998
 30
0.0
 40
64.0
  1
25
 41
0.9
 72
     1
 11
215.17206400000001
 21
296.68591099999998
 31
0.0
  0
LINE
  8
SIZE
  6
CONTINUOUS
 62
    30
 10
100.0
 20
272.35504200000003
 30
0.0
 11
125.0
 21
272.35504200000003
 31
0.0
  0
LINE
  8
SIZE
  6
CONTINUOUS
 62
    30
 10
100.0
 20
272.35504200000003
 30
0.0
 11
125.0
 21
272.35504200000003
 31
0.0
  0
CIRCLE
  8
SIZE
  6
CONTINUOUS
 62
    30
 10
100.0
 20
272.35504200000003
 30
0.0
 40
6.0
  0
LINE
  8
SIZE
  6
CONTINUOUS
 62
    30
 10
100.0
 20
272.35504200000003
 30
0.0
 11
88.000000000000028
 21
272.35504200000003
 31
0.0
  0
CIRCLE
  8
SIZE
  6
CONTINUOUS
 62
    30
 10
125.0
 20
272.35504200000003
 30
0.0
 40
6.0
  0
LINE
  8
SIZE
  6
CONTINUOUS
 62
    30
 10
125.0
 20
272.35504200000003
 30
0.0
 11
137.0
 21
272.35504200000003
 31
0.0
  0
LINE
  8
SIZE
  6
CONTINUOUS
 62
    30
 10
-115.0
 20
235.0
 30
0.0
 11
-115.0
 21
379.43270400000011
 31
0.0
  0
LINE
  8
SIZE
  6
CONTINUOUS
 62
    30
 10
115.0
 20
235.0
 30
0.0
 11
115.0
 21
379.43270400000011
 31
0.0
  0
LINE
  8
SIZE
  6
CONTINUOUS
 62
    30
 10
-103.0
 20
359.43270400000011
 30
0.0
 11
103.0
 21
359.43270400000011
 31
0.0
  0
TEXT
  8
SIZE
  6
CONTINUOUS
 62
    30
 10
-74.057142857142836
 20
383.186328
 30
0.0
 40
64.0
  1
230
 41
0.9
 72
     1
 11
0.0000000000000284
 21
383.186328
 31
0.0
  0
CIRCLE
  8
SIZE
  6
CONTINUOUS
 62
    30
 10
-115.0
 20
359.43270400000011
 30
0.0
 40
6.0
  0
LINE
  8
SIZE
  6
CONTINUOUS
 62
    30
 10
-115.0
 20
359.43270400000011
 30
0.0
 11
-103.0
 21
359.43270400000011
 31
0.0
  0
CIRCLE
  8
SIZE
  6
CONTINUOUS
 62
    30
 10
115.0
 20
359.43270400000011
 30
0.0
 40
6.0
  0
LINE
  8
SIZE
  6
CONTINUOUS
 62
    30
 10
115.0
 20
359.43270400000011
 30
0.0
 11
103.0
 21
359.43270400000011
 31
0.0
  0
LINE
  8
SIZE
  6
CONTINUOUS
 62
    30
 10
125.0
 20
215.0
 30
0.0
 11
125.0
 21
605.11595199999999
 31
0.0
  0
LINE
  8
SIZE
  6
CONTINUOUS
 62
    30
 10
-194.5
 20
99.035709999999995
 30
0.0
 11
-194.5
 21
605.11595199999999
 31
0.0
  0
LINE
  8
SIZE
  6
CONTINUOUS
 62
    30
 10
113.0
 20
585.11595199999988
 30
0.0
 11
-182.5
 21
585.11595199999988
 31
0.0
  0
TEXT
  8
SIZE
  6
CONTINUOUS
 62
    30
 10
-144.31428571428569
 20
615.66630499999997
 30
0.0
 40
64.0
  1
319.5
 41
0.9
 72
     1
 11
-34.599999999999987
 21
615.66630499999997
 31
0.0
  0
CIRCLE
  8
SIZE
  6
CONTINUOUS
 62
    30
 10
125.0
 20
585.11595199999988
 30
0.0
 40
6.0
  0
LINE
  8
SIZE
  6
CONTINUOUS
 62
    30
 10
125.0
 20
585.11595199999988
 30
0.0
 11
113.0
 21
585.11595199999988
 31
0.0
  0
CIRCLE
  8
SIZE
  6
CONTINUOUS
 62
    30
 10
-194.5
 20
585.11595199999988
 30
0.0
 40
6.0
  0
LINE
  8
SIZE
  6
CONTINUOUS
 62
    30
 10
-194.5
 20
585.11595199999988
 30
0.0
 11
-182.5
 21
585.11595199999988
 31
0.0
  0
LINE
  8
SIZE
  6
CONTINUOUS
 62
    30
 10
-125.0
 20
272.35504200000003
 30
0.0
 11
-339.38116500000001
 21
272.35504200000003
 31
0.0
  0
LINE
  8
SIZE
  6
CONTINUOUS
 62
    30
 10
125.0
 20
272.35504200000003
 30
0.0
 11
272.05396000000002
 21
272.35504200000003
 31
0.0
  0
LINE
  8
SIZE
  6
CONTINUOUS
 62
    30
 10
-125.0
 20
215.0
 30
0.0
 11
-125.0
 21
490.0709139999999
 31
0.0
  0
LINE
  8
SIZE
  6
CONTINUOUS
 62
    30
 10
125.0
 20
215.0
 30
0.0
 11
125.0
 21
490.0709139999999
 31
0.0
  0
LINE
  8
SIZE
  6
CONTINUOUS
 62
    30
 10
-113.0
 20
470.0709139999999
 30
0.0
 11
113.0
 21
470.0709139999999
 31
0.0
  0
CIRCLE
  8
SIZE
  6
CONTINUOUS
 62
    30
 10
-125.0
 20
470.0709139999999
 30
0.0
 40
6.0
  0
LINE
  8
SIZE
  6
CONTINUOUS
 62
    30
 10
-125.0
 20
470.0709139999999
 30
0.0
 11
-113.0
 21
470.0709139999999
 31
0.0
  0
CIRCLE
  8
SIZE
  6
CONTINUOUS
 62
    30
 10
125.0
 20
470.0709139999999
 30
0.0
 40
6.0
  0
LINE
  8
SIZE
  6
CONTINUOUS
 62
    30
 10
125.0
 20
470.0709139999999
 30
0.0
 11
113.0
 21
470.0709139999999
 31
0.0
  0
TEXT
  8
SIZE
  6
CONTINUOUS
 62
    30
 10
-74.057142857142821
 20
495.0709139999999
 30
0.0
 40
64.0
  1
250
 41
0.9
 72
     1
 11
0.0000000000000284
 21
495.0709139999999
 31
0.0
  0
LINE
  8
SIZE
  6
CONTINUOUS
 62
    30
 10
-140.0
 20
-220.80000000000001
 30
0.0
 11
-140.0
 21
-494.11390299999999
 31
0.0
  0
LINE
  8
SIZE
  6
CONTINUOUS
 62
    30
 10
140.0
 20
-218.80000000000001
 30
0.0
 11
140.0
 21
-494.11390299999999
 31
0.0
  0
LINE
  8
SIZE
  6
CONTINUOUS
 62
    30
 10
-128.0
 20
-474.11390299999999
 30
0.0
 11
128.0
 21
-474.11390299999999
 31
0.0
  0
TEXT
  8
SIZE
  6
CONTINUOUS
 62
    30
 10
-107.8946134285715
 20
-449.38908399999991
 30
0.0
 40
64.0
  1
φ280
 41
0.9
 72
     1
 11
-3.6660420000000329
 21
-449.38908399999991
 31
0.0
  0
CIRCLE
  8
SIZE
  6
CONTINUOUS
 62
    30
 10
-140.0
 20
-474.11390299999999
 30
0.0
 40
6.0
  0
LINE
  8
SIZE
  6
CONTINUOUS
 62
    30
 10
-140.0
 20
-474.11390299999999
 30
0.0
 11
-128.0
 21
-474.11390299999999
 31
0.0
  0
CIRCLE
  8
SIZE
  6
CONTINUOUS
 62
    30
 10
140.0
 20
-474.11390299999999
 30
0.0
 40
6.0
  0
LINE
  8
SIZE
  6
CONTINUOUS
 62
    30
 10
140.0
 20
-474.11390299999999
 30
0.0
 11
128.0
 21
-474.11390299999999
 31
0.0
  0
LINE
  8
OUTLINE
  6
CONTINUOUS
 62
     3
 10
-131.19999999999999
 20
157.5
 30
0.0
 11
-125.0
 21
157.5
 31
0.0
  0
ARC
  8
OUTLINE
  6
CONTINUOUS
 62
     3
 10
-131.19999999999999
 20
149.5
 30
0.0
 40
8.0
 50
90.0
 51
180.0
  0
LINE
  8
OUTLINE
  6
CONTINUOUS
 62
     3
 10
-139.19999999999999
 20
-154.5
 30
0.0
 11
-139.1999999999999
 21
-81.5
 31
0.0
  0
LINE
  8
OUTLINE
  6
CONTINUOUS
 62
     3
 10
-139.1999999999999
 20
81.535709999999995
 30
0.0
 11
-139.19999999999999
 21
149.5
 31
0.0
  0
ARC
  8
OUTLINE
  6
CONTINUOUS
 62
     3
 10
-131.19999999999999
 20
-154.5
 30
0.0
 40
8.0
 50
180.0
 51
270.0
  0
LINE
  8
OUTLINE
  6
CONTINUOUS
 62
     3
 10
-131.19999999999999
 20
-162.5
 30
0.0
 11
-125.0
 21
-162.5
 31
0.0
  0
LINE
  8
OUTLINE
  6
CONTINUOUS
 62
     3
 10
100.0
 20
170.0
 30
0.0
 11
100.0
 21
195.0
 31
0.0
  0
LINE
  8
OUTLINE
  6
CONTINUOUS
 62
     3
 10
-99.999999999999972
 20
170.0
 30
0.0
 11
-99.999999999999972
 21
195.0
 31
0.0
  0
LINE
  8
OUTLINE
  6
CONTINUOUS
 62
     3
 10
100.0
 20
195.0
 30
0.0
 11
125.0
 21
195.0
 31
0.0
  0
LINE
  8
OUTLINE
  6
CONTINUOUS
 62
     3
 10
-99.999999999999972
 20
170.0
 30
0.0
 11
100.0
 21
170.0
 31
0.0
  0
LINE
  8
OUTLINE
  6
CONTINUOUS
 62
     3
 10
-125.0
 20
-200.0
 30
0.0
 11
-125.0
 21
-162.5
 31
0.0
  0
LINE
  8
OUTLINE
  6
CONTINUOUS
 62
     3
 10
-125.0
 20
157.5
 30
0.0
 11
-125.0
 21
195.0
 31
0.0
  0
LINE
  8
OUTLINE
  6
CONTINUOUS
 62
     3
 10
-125.0
 20
195.0
 30
0.0
 11
-99.999999999999972
 21
195.0
 31
0.0
  0
LINE
  8
OUTLINE
  6
CONTINUOUS
 62
     3
 10
-125.0
 20
-200.0
 30
0.0
 11
-140.0
 21
-200.0
 31
0.0
  0
LINE
  8
OUTLINE
  6
CONTINUOUS
 62
     3
 10
125.0
 20
-200.0
 30
0.0
 11
140.0
 21
-200.0
 31
0.0
  0
LINE
  8
OUTLINE
  6
CONTINUOUS
 62
     3
 10
125.0
 20
-200.0
 30
0.0
 11
125.0
 21
195.0
 31
0.0
  0
TEXT
  8
NOTE
  6
CONTINUOUS
 62
     4
 10
254.93289400000009
 20
-59.001760999999988
 30
0.0
 40
64.0
  1
入口
 50
90.0
 41
0.9
  0
TEXT
  8
NOTE
  6
CONTINUOUS
 62
     4
 10
-57.232101999999912
 20
-325.86445900000001
 30
0.0
 40
64.0
  1
出口
 41
0.9
  0
LINE
  8
OUTLINE
  6
CONTINUOUS
 62
     3
 10
-194.5
 20
-78.964290000000005
 30
0.0
 11
-194.5
 21
79.035709999999995
 31
0.0
  0
LINE
  8
OUTLINE
  6
CONTINUOUS
 62
     3
 10
-139.19999999999999
 20
-81.5
 30
0.0
 11
-192.0
 21
-81.5
 31
0.0
  0
ARC
  8
OUTLINE
  6
CONTINUOUS
 62
     3
 10
-192.0
 20
-78.964290000000005
 30
0.0
 40
2.5
 50
180.0
 51
270.0
  0
LINE
  8
OUTLINE
  6
CONTINUOUS
 62
     3
 10
-139.19999999999999
 20
81.535709999999995
 30
0.0
 11
-192.0
 21
81.535709999999995
 31
0.0
  0
ARC
  8
OUTLINE
  6
CONTINUOUS
 62
     3
 10
-192.0
 20
79.035709999999995
 30
0.0
 40
2.5
 50
90.0
 51
180.0
  0
LINE
  8
BASIS
  6
DASHDOT
 62
     6
 10
-214.80160599999999
 20
0.0
 30
0.0
 11
150.1360696840475
 21
0.0
 31
0.0
  0
LINE
  8
DETAIL
  6
CONTINUOUS
 62
     5
 10
-194.5
 20
-78.964290000000005
 30
0.0
 11
-194.5
 21
0.0
 31
0.0
  0
LINE
  8
DETAIL
  6
CONTINUOUS
 62
     5
 10
-139.19999999999999
 20
-81.5
 30
0.0
 11
-192.0
 21
-81.5
 31
0.0
  0
ARC
  8
DETAIL
  6
CONTINUOUS
 62
     5
 10
-192.0
 20
-78.964290000000005
 30
0.0
 40
2.5
 50
180.0
 51
270.0
  0
ARC
  8
DETAIL
  6
CONTINUOUS
 62
     5
 10
-192.0
 20
79.035709999999995
 30
0.0
 40
2.5
 50
90.0
 51
180.0
  0
LINE
  8
DETAIL
  6
CONTINUOUS
 62
     5
 10
-194.5
 20
79.035709999999995
 30
0.0
 11
-194.5
 21
0.0
 31
0.0
  0
LINE
  8
DETAIL
  6
CONTINUOUS
 62
     5
 10
-139.19999999999999
 20
81.535709999999995
 30
0.0
 11
-192.0
 21
81.535709999999995
 31
0.0
  0
TEXT
  8
ETC
  6
CONTINUOUS
 62
    61
 10
500.83382956788569
 20
518.8313637024894
 30
0.0
 40
64.0
  1
産業扇
 41
0.9
  0
TEXT
  8
ETC
  6
CONTINUOUS
 62
    61
 10
496.00156156788557
 20
630.17599370248956
 30
0.0
 40
64.0
  1
BF-28T5_1
 41
0.9
  0
TEXT
  8
ETC
  6
CONTINUOUS
 62
    61
 10
584.69777167543407
 20
408.97756247613069
 30
0.0
 40
64.0
  1
BF-28T5
 41
0.9
  0
LINE
  8
OUTLINE
  6
CONTINUOUS
 62
     3
 10
-140.0
 20
-200.80000000000001
 30
0.0
 11
140.0
 21
-200.80000000000001
 31
0.0
  0
LINE
  8
OUTLINE
  6
CONTINUOUS
 62
     3
 10
140.0
 20
-200.80000000000001
 30
0.0
 11
140.0
 21
-200.0
 31
0.0
  0
LINE
  8
OUTLINE
  6
CONTINUOUS
 62
     3
 10
-140.0
 20
-200.80000000000001
 30
0.0
 11
-140.0
 21
-200.0
 31
0.0
  0
LINE
  8
SIZE
  6
CONTINUOUS
 62
    30
 10
170.07404299999999
 20
-0.5000000000000114
 30
0.0
 11
435.18565637596203
 21
-0.5000000000000865
 31
0.0
  0
LINE
  8
SIZE
  6
CONTINUOUS
 62
    30
 10
160.0
 20
-200.0
 30
0.0
 11
435.18565637596203
 21
-200.00000000000011
 31
0.0
  0
LINE
  8
SIZE
  6
CONTINUOUS
 62
    30
 10
415.18565637596203
 20
-188.00000000000011
 30
0.0
 11
415.18565637596203
 21
-12.50000000000008
 31
0.0
  0
LINE
  8
SIZE
  6
CONTINUOUS
 62
    30
 10
415.18565637596203
 20
-0.5000000000000808
 30
0.0
 11
415.18565637596208
 21
463.63388044944008
 31
0.0
  0
CIRCLE
  8
SIZE
  6
CONTINUOUS
 62
    30
 10
415.18565637596203
 20
-200.00000000000011
 30
0.0
 40
6.0
  0
LINE
  8
SIZE
  6
CONTINUOUS
 62
    30
 10
415.18565637596203
 20
-200.00000000000011
 30
0.0
 11
415.18565637596203
 21
-188.00000000000011
 31
0.0
  0
CIRCLE
  8
SIZE
  6
CONTINUOUS
 62
    30
 10
415.18565637596203
 20
-0.5000000000000808
 30
0.0
 40
6.0
  0
LINE
  8
SIZE
  6
CONTINUOUS
 62
    30
 10
415.18565637596203
 20
-0.5000000000000808
 30
0.0
 11
415.18565637596203
 21
-12.500000000000082
 31
0.0
  0
TEXT
  8
SIZE
  6
CONTINUOUS
 62
    30
 10
390.18565637596203
 20
213.71959473515449
 30
0.0
 40
64.0
  1
199.5
 50
90.0
 41
0.9
 51
0.0
  7
STANDARD
 71
     0
 72
     1
 11
390.18565637596203
 21
328.91959473515448
 31
0.0
210
0.0
220
0.0
230
1.0
  0
POINT
  8
DEFPOINTS
  6
CONTINUOUS
 62
    30
 10
150.07404299999999
 20
-0.5000000000000058
 30
0.0
  0
POINT
  8
DEFPOINTS
  6
CONTINUOUS
 62
    30
 10
140.0
 20
-200.0
 30
0.0
  0
POINT
  8
DEFPOINTS
  6
CONTINUOUS
 62
    30
 10
415.18565637596203
 20
-200.00000000000011
 30
0.0
  0
ENDSEC
  0
EOF
