  0
SECTION
  2
HEADER
  9
$ACADVER
  1
AC1009
  9
$DWGCODEPAGE
  3
dos932
  9
$INSBASE
 10
0.0
 20
0.0
 30
0.0
  9
$EXTMIN
 10
-890.51054283104713
 20
-638.94652172334827
 30
-0.0000000349181948
  9
$EXTMAX
 10
933.56324388128996
 20
638.30567213974973
 30
0.0000000814935746
  9
$LIMMIN
 10
-2970.0
 20
-2100.0
  9
$LIMMAX
 10
2970.0
 20
2100.0
  9
$ORTHOMODE
 70
     1
  9
$REGENMODE
 70
     1
  9
$FILLMODE
 70
     1
  9
$QTEXTMODE
 70
     0
  9
$MIRRTEXT
 70
     0
  9
$LTSCALE
 40
20.0
  9
$ATTMODE
 70
     1
  9
$TEXTSIZE
 40
64.0
  9
$TRACEWID
 40
0.05
  9
$TEXTSTYLE
  7
STANDARD
  9
$CLAYER
  8
SIZE
  9
$CELTYPE
  6
CONTINUOUS
  9
$CECOLOR
 62
     7
  9
$DIMSCALE
 40
1.0
  9
$DIMASZ
 40
12.0
  9
$DIMEXO
 40
20.0
  9
$DIMDLI
 40
200.0
  9
$DIMRND
 40
0.0
  9
$DIMDLE
 40
0.0
  9
$DIMEXE
 40
20.0
  9
$DIMTP
 40
0.0
  9
$DIMTM
 40
0.0
  9
$DIMTXT
 40
64.0
  9
$DIMCEN
 40
0.09
  9
$DIMTSZ
 40
0.0
  9
$DIMTOL
 70
     0
  9
$DIMLIM
 70
     0
  9
$DIMTIH
 70
     0
  9
$DIMTOH
 70
     0
  9
$DIMSE1
 70
     0
  9
$DIMSE2
 70
     0
  9
$DIMTAD
 70
     1
  9
$DIMZIN
 70
     8
  9
$DIMBLK
  1

  9
$DIMASO
 70
     1
  9
$DIMSHO
 70
     0
  9
$DIMPOST
  1

  9
$DIMAPOST
  1

  9
$DIMALT
 70
     0
  9
$DIMALTD
 70
     2
  9
$DIMALTF
 40
25.399999999999999
  9
$DIMLFAC
 40
1.0
  9
$DIMTOFL
 70
     1
  9
$DIMTVP
 40
0.0
  9
$DIMTIX
 70
     1
  9
$DIMSOXD
 70
     0
  9
$DIMSAH
 70
     0
  9
$DIMBLK1
  1

  9
$DIMBLK2
  1

  9
$DIMSTYLE
  2
STANDARD
  9
$DIMCLRD
 70
     7
  9
$DIMCLRE
 70
     7
  9
$DIMCLRT
 70
     7
  9
$DIMTFAC
 40
1.0
  9
$DIMGAP
 40
25.0
  9
$LUNITS
 70
     2
  9
$LUPREC
 70
     4
  9
$SKETCHINC
 40
0.1
  9
$FILLETRAD
 40
3.0
  9
$AUNITS
 70
     1
  9
$AUPREC
 70
     3
  9
$MENU
  1
ACAD
  9
$ELEVATION
 40
0.0
  9
$PELEVATION
 40
0.0
  9
$THICKNESS
 40
50.0
  9
$LIMCHECK
 70
     0
  9
$CHAMFERA
 40
0.0
  9
$CHAMFERB
 40
0.0
  9
$SKPOLY
 70
     0
  9
$TDCREATE
 40
2453019.62301037
  9
$TDUPDATE
 40
2458911.470223009
  9
$TDINDWG
 40
1.7312766667
  9
$TDUSRTIMER
 40
1.7312766667
  9
$USRTIMER
 70
     1
  9
$ANGBASE
 50
0.0
  9
$ANGDIR
 70
     0
  9
$PDMODE
 70
     3
  9
$PDSIZE
 40
-2.0
  9
$PLINEWID
 40
0.0
  9
$SPLFRAME
 70
     0
  9
$SPLINETYPE
 70
     6
  9
$SPLINESEGS
 70
     8
  9
$SURFTAB1
 70
     6
  9
$SURFTAB2
 70
     6
  9
$SURFTYPE
 70
     6
  9
$SURFU
 70
     6
  9
$SURFV
 70
     6
  9
$UCSNAME
  2

  9
$UCSORG
 10
0.0
 20
0.0
 30
0.0
  9
$UCSXDIR
 10
1.0
 20
0.0
 30
0.0
  9
$UCSYDIR
 10
0.0
 20
1.0
 30
0.0
  9
$PUCSNAME
  2

  9
$PUCSORG
 10
0.0
 20
0.0
 30
0.0
  9
$PUCSXDIR
 10
1.0
 20
0.0
 30
0.0
  9
$PUCSYDIR
 10
0.0
 20
1.0
 30
0.0
  9
$USERI1
 70
     0
  9
$USERI2
 70
     0
  9
$USERI3
 70
     0
  9
$USERI4
 70
     0
  9
$USERI5
 70
     0
  9
$USERR1
 40
20.0
  9
$USERR2
 40
0.0
  9
$USERR3
 40
0.0
  9
$USERR4
 40
0.0
  9
$USERR5
 40
0.0
  9
$WORLDVIEW
 70
     1
  9
$SHADEDGE
 70
     3
  9
$SHADEDIF
 70
    70
  9
$TILEMODE
 70
     1
  9
$MAXACTVP
 70
    48
  9
$PINSBASE
 10
0.0
 20
0.0
 30
0.0
  9
$PLIMCHECK
 70
     0
  9
$PEXTMIN
 10
-100000000000000000000.0
 20
-100000000000000000000.0
 30
-100000000000000000000.0
  9
$PEXTMAX
 10
100000000000000000000.0
 20
100000000000000000000.0
 30
100000000000000000000.0
  9
$PLIMMIN
 10
0.0
 20
0.0
  9
$PLIMMAX
 10
12.0
 20
9.0
  9
$UNITMODE
 70
     0
  9
$VISRETAIN
 70
     0
  9
$PLINEGEN
 70
     0
  9
$PSLTSCALE
 70
     0
  9
$TREEDEPTH
 70
  3020
  9
$ATTDIA
 70
     0
  9
$ATTREQ
 70
     1
  9
$BLIPMODE
 70
     1
  9
$COORDS
 70
     1
  9
$DRAGMODE
 70
     2
  9
$OSMODE
 70
     0
  9
$HANDLING
 70
     0
  9
$HANDSEED
  5
E79A
  0
ENDSEC
  0
SECTION
  2
TABLES
  0
TABLE
  2
LTYPE
 70
     2
  0
LTYPE
  2
CONTINUOUS
 70
     0
  3
実線
 72
    65
 73
     0
 40
0.0
  0
LTYPE
  2
DASHDOT
 70
     0
  3
____ _ ____ _ ____ _ ____ _ ____ _ ____ _ ____
 72
    65
 73
     4
 40
5.5
 49
4.0
 49
-0.6
 49
0.3
 49
-0.6
  0
ENDTAB
  0
TABLE
  2
LAYER
 70
    12
  0
LAYER
  2
0
 70
     0
 62
     7
  6
CONTINUOUS
  0
LAYER
  2
BASIS
 70
     0
 62
     6
  6
DASHDOT
  0
LAYER
  2
OUTLINE
 70
     0
 62
     3
  6
CONTINUOUS
  0
LAYER
  2
DETAIL
 70
     0
 62
     5
  6
CONTINUOUS
  0
LAYER
  2
SIZE
 70
     0
 62
    30
  6
CONTINUOUS
  0
LAYER
  2
ARRANGE
 70
     0
 62
     1
  6
CONTINUOUS
  0
LAYER
  2
DEFPOINTS
 70
     0
 62
     7
  6
CONTINUOUS
  0
LAYER
  2
ETC
 70
     0
 62
    61
  6
CONTINUOUS
  0
LAYER
  2
FIX
 70
     0
 62
    11
  6
CONTINUOUS
  0
LAYER
  2
NOTE
 70
     0
 62
     4
  6
CONTINUOUS
  0
LAYER
  2
SERVICESPACE
 70
    64
 62
     2
  6
DASHDOT
  0
LAYER
  2
SYMBOLLINE
 70
    64
 62
    15
  6
CONTINUOUS
  0
ENDTAB
  0
TABLE
  2
STYLE
 70
     1
  0
STYLE
  2
STANDARD
 70
     0
 40
64.0
 41
0.9
 50
0.0
 71
     0
 42
64.0
  3
SIMPLEX.shx
  4
BIGFONT.shx
  0
ENDTAB
  0
TABLE
  2
APPID
 70
    16
  0
APPID
  2
ACAD
 70
     0
  0
APPID
  2
AUTOCAD_POSTSCRIPT_FIGURE
 70
     0
  0
APPID
  2
ACAD_EXEMPT_FROM_CAD_STANDARDS
 70
     0
  0
APPID
  2
ACAD_PSEXT
 70
     0
  0
APPID
  2
ACAUTHENVIRON
 70
     0
  0
APPID
  2
GENIUS_GENOENT_13
 70
     0
  0
APPID
  2
GENIUS_GENCFG_13
 70
     0
  0
APPID
  2
GENIUS_GENCFG0_13
 70
     0
  0
APPID
  2
GENIUS_GENCFG1_13
 70
     0
  0
APPID
  2
GENIUS_GENCFG2_13
 70
     0
  0
APPID
  2
GENIUS_GENCFG3_13
 70
     0
  0
APPID
  2
GENIUS_GENCFG4_13
 70
     0
  0
APPID
  2
GENIUS_GEVCFG0_13
 70
     0
  0
APPID
  2
CONTENTBLOCKICON
 70
     0
  0
APPID
  2
CONTENTBLOCKDESCRIPTION
 70
     0
  0
APPID
  2
ACAD_NAV_VCDISPLAY
 70
     0
  0
ENDTAB
  0
TABLE
  2
DIMSTYLE
 70
     1
  0
DIMSTYLE
  2
STANDARD
 70
     0
  3

  4

  5
_ORIGIN
  6

  7

 40
1.0
 41
12.0
 42
20.0
 43
200.0
 44
20.0
 45
0.0
 46
0.0
 47
0.0
 48
0.0
140
64.0
141
0.09
142
0.0
143
25.399999999999999
144
1.0
145
0.0
146
1.0
147
25.0
 71
     0
 72
     0
 73
     0
 74
     0
 75
     0
 76
     0
 77
     1
 78
     8
170
     0
171
     2
172
     1
173
     0
174
     1
175
     0
176
     7
177
     7
178
     7
  0
ENDTAB
  0
TABLE
  2
VIEW
 70
     1
  0
VIEW
  2
ALL
 70
     0
 40
4282.6198079999986
 10
0.0
 20
41.309904000000003
 41
5940.0
 11
0.0
 21
0.0
 31
1.0
 12
0.0
 22
0.0
 32
0.0
 42
50.0
 43
0.0
 44
0.0
 50
0.0
 71
     0
  0
ENDTAB
  0
TABLE
  2
UCS
 70
     0
  0
ENDTAB
  0
TABLE
  2
VPORT
 70
     1
  0
VPORT
  2
*ACTIVE
 70
     0
 10
0.0
 20
0.0
 11
1.0
 21
1.0
 12
21.526350525121529
 22
-0.3204247917992689
 13
0.0
 23
0.0
 14
1.0
 24
1.0
 15
0.0
 25
0.0
 16
0.0
 26
0.0
 36
1.0
 17
0.0
 27
0.0
 37
0.0
 40
1286.3971976377741
 41
1.7980884109916371
 42
50.0
 43
0.0
 44
0.0
 50
0.0
 51
0.0
 71
     0
 72
  1000
 73
     1
 74
     3
 75
     0
 76
     0
 77
     0
 78
     0
  0
ENDTAB
  0
ENDSEC
  0
SECTION
  2
BLOCKS
  0
BLOCK
  8
0
  2
_ORIGIN
 70
     0
 10
0.0
 20
0.0
 30
0.0
  3
_ORIGIN
  1
_ORIGIN
  0
CIRCLE
  8
0
  6
CONTINUOUS
 62
     7
 10
0.0
 20
0.0
 30
0.0
 40
0.5
  0
LINE
  8
0
  6
CONTINUOUS
 62
     7
 10
0.0
 20
0.0
 30
0.0
 11
-1.0
 21
0.0
 31
0.0
  0
ENDBLK
  8
0
  0
ENDSEC
  0
SECTION
  2
ENTITIES
  0
TEXT
  8
NOTE
  6
CONTINUOUS
 62
     4
 10
-867.77873899999986
 20
459.77956399999988
 30
0.0
 40
64.0
  1
AH 12-φ20×12
 41
0.9
  0
LINE
  8
NOTE
  6
CONTINUOUS
 62
     4
 10
-207.924598
 20
424.03536500000001
 30
0.0
 11
-890.26974600000005
 21
424.03536500000001
 31
0.0
  0
LINE
  8
DETAIL
  6
CONTINUOUS
 62
     5
 10
-138.1188159999999
 20
-82.0
 30
0.0
 11
-138.1188159999999
 21
-81.5
 31
0.0
  0
LINE
  8
DETAIL
  6
CONTINUOUS
 62
     5
 10
-125.0
 20
-82.0
 30
0.0
 11
-138.1188159999999
 21
-82.0
 31
0.0
  0
LINE
  8
DETAIL
  6
CONTINUOUS
 62
     5
 10
-138.1188159999999
 20
-81.5
 30
0.0
 11
-164.40000000000001
 21
-81.5
 31
0.0
  0
ARC
  8
DETAIL
  6
CONTINUOUS
 62
     5
 10
-192.0
 20
-78.964290000000005
 30
0.0
 40
2.5
 50
180.0
 51
270.0
  0
LINE
  8
DETAIL
  6
CONTINUOUS
 62
     5
 10
-194.5
 20
-78.964290000000005
 30
0.0
 11
-194.5
 21
0.0
 31
0.0
  0
ARC
  8
DETAIL
  6
CONTINUOUS
 62
     5
 10
-192.0
 20
79.035709999999995
 30
0.0
 40
2.5
 50
90.0
 51
180.0
  0
LINE
  8
DETAIL
  6
CONTINUOUS
 62
     5
 10
-194.5
 20
79.035709999999995
 30
0.0
 11
-194.5
 21
0.0
 31
0.0
  0
LINE
  8
DETAIL
  6
CONTINUOUS
 62
     5
 10
-138.1188159999999
 20
81.535709999999995
 30
0.0
 11
-192.0
 21
81.535709999999995
 31
0.0
  0
LINE
  8
DETAIL
  6
CONTINUOUS
 62
     5
 10
-138.1188159999999
 20
41.24006
 30
0.0
 11
-138.1188159999999
 21
-0.0357250000000136
 31
0.0
  0
LINE
  8
DETAIL
  6
CONTINUOUS
 62
     5
 10
-138.1188159999999
 20
-81.5
 30
0.0
 11
-138.1188159999999
 21
-0.035695000000004
 31
0.0
  0
LINE
  8
DETAIL
  6
CONTINUOUS
 62
     5
 10
-129.29157000000001
 20
82.0
 30
0.0
 11
-138.1188159999999
 21
82.0
 31
0.0
  0
LINE
  8
DETAIL
  6
CONTINUOUS
 62
     5
 10
-138.1188159999999
 20
82.0
 30
0.0
 11
-138.1188159999999
 21
0.035695000000004
 31
0.0
  0
LINE
  8
DETAIL
  6
CONTINUOUS
 62
     5
 10
-174.0
 20
-168.855966
 30
0.0
 11
-174.0
 21
-75.208799999999997
 31
0.0
  0
LINE
  8
DETAIL
  6
CONTINUOUS
 62
     5
 10
-164.40000000000001
 20
-168.855966
 30
0.0
 11
-164.40000000000001
 21
-75.208799999999997
 31
0.0
  0
LINE
  8
DETAIL
  6
CONTINUOUS
 62
     5
 10
-164.40000000000001
 20
-168.855966
 30
0.0
 11
-174.0
 21
-168.855966
 31
0.0
  0
LINE
  8
DETAIL
  6
CONTINUOUS
 62
     5
 10
125.0
 20
228.5
 30
0.0
 11
125.0
 21
198.54760099999999
 31
0.0
  0
LINE
  8
DETAIL
  6
CONTINUOUS
 62
     5
 10
104.647026
 20
228.5
 30
0.0
 11
125.0
 21
228.5
 31
0.0
  0
LINE
  8
DETAIL
  6
CONTINUOUS
 62
     5
 10
-107.17797899999999
 20
-166.5
 30
0.0
 11
-125.0
 21
-166.5
 31
0.0
  0
CIRCLE
  8
DETAIL
  6
CONTINUOUS
 62
     5
 10
0.0
 20
135.5
 30
0.0
 40
140.0
  0
LINE
  8
DETAIL
  6
CONTINUOUS
 62
     5
 10
100.0
 20
228.5
 30
0.0
 11
100.0
 21
-166.5
 31
0.0
  0
LINE
  8
DETAIL
  6
CONTINUOUS
 62
     5
 10
-100.0
 20
228.5
 30
0.0
 11
-100.0
 21
-166.5
 31
0.0
  0
LINE
  8
DETAIL
  6
CONTINUOUS
 62
     5
 10
-44.024307999999991
 20
77.260218000000009
 30
0.0
 11
73.152963
 21
77.260218000000009
 31
0.0
  0
LINE
  8
DETAIL
  6
CONTINUOUS
 62
     5
 10
-44.024307999999991
 20
101.200219
 30
0.0
 11
73.152963
 21
101.200219
 31
0.0
  0
LINE
  8
DETAIL
  6
CONTINUOUS
 62
     5
 10
-44.024307999999991
 20
90.940218000000016
 30
0.0
 11
73.152963
 21
90.940218000000016
 31
0.0
  0
LINE
  8
DETAIL
  6
CONTINUOUS
 62
     5
 10
-44.024307999999991
 20
108.04021899999999
 30
0.0
 11
73.152963
 21
108.04021899999999
 31
0.0
  0
LINE
  8
DETAIL
  6
CONTINUOUS
 62
     5
 10
-44.024307999999991
 20
111.460219
 30
0.0
 11
73.152963
 21
111.460219
 31
0.0
  0
LINE
  8
DETAIL
  6
CONTINUOUS
 62
     5
 10
73.152963
 20
72.148012999999992
 30
0.0
 11
73.152963
 21
111.460219
 31
0.0
  0
LINE
  8
DETAIL
  6
CONTINUOUS
 62
     5
 10
73.152963
 20
108.895219
 30
0.0
 11
74.520941999999991
 21
108.895219
 31
0.0
  0
LINE
  8
DETAIL
  6
CONTINUOUS
 62
     5
 10
74.520941999999991
 20
108.895219
 30
0.0
 11
74.520941999999991
 21
72.148012999999992
 31
0.0
  0
LINE
  8
DETAIL
  6
CONTINUOUS
 62
     5
 10
-46.418297999999993
 20
72.148012999999992
 30
0.0
 11
-46.418297999999993
 21
94.756981999999994
 31
0.0
  0
LINE
  8
DETAIL
  6
CONTINUOUS
 62
     5
 10
-46.247312999999991
 20
106.44027699999999
 30
0.0
 11
-45.392313000000001
 21
106.44027699999999
 31
0.0
  0
LINE
  8
DETAIL
  6
CONTINUOUS
 62
     5
 10
-46.247312999999991
 20
101.266389
 30
0.0
 11
-45.392313000000001
 21
101.266389
 31
0.0
  0
LINE
  8
DETAIL
  6
CONTINUOUS
 62
     5
 10
-45.392313000000001
 20
108.895219
 30
0.0
 11
-44.024307999999991
 21
108.895219
 31
0.0
  0
LINE
  8
DETAIL
  6
CONTINUOUS
 62
     5
 10
-45.39238499999999
 20
96.992244000000028
 30
0.0
 11
-46.189253000000008
 21
95.61197199999998
 31
0.0
  0
LINE
  8
DETAIL
  6
CONTINUOUS
 62
     5
 10
-44.024307999999991
 20
72.148012999999992
 30
0.0
 11
-44.024307999999991
 21
111.460219
 31
0.0
  0
LINE
  8
DETAIL
  6
CONTINUOUS
 62
     5
 10
-45.392313000000001
 20
72.148012999999992
 30
0.0
 11
-45.392313000000001
 21
108.895219
 31
0.0
  0
ARC
  8
DETAIL
  6
CONTINUOUS
 62
     5
 10
-44.708350000000003
 20
94.756981999999994
 30
0.0
 40
1.7099999999999991
 50
150.00009699999961
 51
179.99998099999939
  0
LINE
  8
DETAIL
  6
CONTINUOUS
 62
     5
 10
-46.247312999999991
 20
101.266389
 30
0.0
 11
-46.247312999999991
 21
106.44027699999999
 31
0.0
  0
LINE
  8
DETAIL
  6
CONTINUOUS
 62
     5
 10
74.520941999999991
 20
72.148012999999992
 30
0.0
 11
74.520941999999991
 21
101.07135100000001
 31
0.0
  0
ARC
  8
DETAIL
  6
CONTINUOUS
 62
     5
 10
73.714049999999986
 20
127.721085
 30
0.0
 40
26.661946
 50
271.73425299999951
 51
350.36624499999931
  0
LINE
  8
DETAIL
  6
CONTINUOUS
 62
     5
 10
100.0
 20
71.826596999999992
 30
0.0
 11
-100.0
 21
71.826596999999992
 31
0.0
  0
LINE
  8
BASIS
  6
DASHDOT
 62
     6
 10
-214.80160599999999
 20
0.0
 30
0.0
 11
145.9533322824764
 21
0.0
 31
0.0
  0
LINE
  8
BASIS
  6
DASHDOT
 62
     6
 10
0.0
 20
316.99196000000001
 30
0.0
 11
0.0
 21
-196.03272699999999
 31
0.0
  0
LINE
  8
DETAIL
  6
CONTINUOUS
 62
     5
 10
-100.0
 20
-37.605164000000002
 30
0.0
 11
100.0
 21
-37.605164000000002
 31
0.0
  0
LINE
  8
DETAIL
  6
CONTINUOUS
 62
     5
 10
-125.0
 20
-38.120902000000001
 30
0.0
 11
-125.0
 21
-166.5
 31
0.0
  0
LINE
  8
DETAIL
  6
CONTINUOUS
 62
     5
 10
-100.0
 20
-166.5
 30
0.0
 11
-125.0
 21
-166.5
 31
0.0
  0
LINE
  8
DETAIL
  6
CONTINUOUS
 62
     5
 10
-125.0
 20
228.5
 30
0.0
 11
-125.0
 21
198.54760099999999
 31
0.0
  0
LINE
  8
DETAIL
  6
CONTINUOUS
 62
     5
 10
-125.0
 20
72.452398999999986
 30
0.0
 11
-125.0
 21
-38.120902000000001
 31
0.0
  0
LINE
  8
DETAIL
  6
CONTINUOUS
 62
     5
 10
100.0
 20
-166.5
 30
0.0
 11
125.0
 21
-166.5
 31
0.0
  0
LINE
  8
DETAIL
  6
CONTINUOUS
 62
     5
 10
125.0
 20
-164.69999999999999
 30
0.0
 11
125.0
 21
-165.5
 31
0.0
  0
LINE
  8
DETAIL
  6
CONTINUOUS
 62
     5
 10
125.0
 20
72.452398999999986
 30
0.0
 11
125.0
 21
-166.5
 31
0.0
  0
LINE
  8
DETAIL
  6
CONTINUOUS
 62
     5
 10
-100.0
 20
-162.610929
 30
0.0
 11
100.0
 21
-162.610929
 31
0.0
  0
LINE
  8
BASIS
  6
DASHDOT
 62
     6
 10
-158.853093
 20
135.5
 30
0.0
 11
160.69179
 21
135.5
 31
0.0
  0
LINE
  8
DETAIL
  6
CONTINUOUS
 62
     5
 10
-104.647026
 20
228.5
 30
0.0
 11
-125.0
 21
228.5
 31
0.0
  0
LINE
  8
DETAIL
  6
CONTINUOUS
 62
     5
 10
98.763667999999996
 20
-48.591669999999979
 30
0.0
 11
98.763667999999996
 21
-37.590598
 31
0.0
  0
LINE
  8
DETAIL
  6
CONTINUOUS
 62
     5
 10
-98.908463999999995
 20
-38.790598000000003
 30
0.0
 11
98.763667999999996
 21
-38.790598000000003
 31
0.0
  0
LINE
  8
DETAIL
  6
CONTINUOUS
 62
     5
 10
-98.908463999999995
 20
-48.591669999999979
 30
0.0
 11
-98.908463999999995
 21
-37.590598
 31
0.0
  0
LINE
  8
DETAIL
  6
CONTINUOUS
 62
     5
 10
-98.908463999999995
 20
-48.591669999999979
 30
0.0
 11
98.763667999999996
 21
-48.591669999999979
 31
0.0
  0
POINT
  8
ARRANGE
  6
CONTINUOUS
 62
     1
 10
0.0
 20
0.0
 30
0.0
  0
CIRCLE
  8
ARRANGE
  6
CONTINUOUS
 62
     1
 10
0.0
 20
0.0
 30
0.0
 40
40.0
  0
CIRCLE
  8
FIX
  6
CONTINUOUS
 62
    11
 10
-115.0
 20
-166.5
 30
0.0
 40
6.0
  0
LINE
  8
NOTE
  6
CONTINUOUS
 62
     4
 10
-115.0
 20
-186.5
 30
0.0
 11
-115.0
 21
-146.5
 31
0.0
  0
LINE
  8
NOTE
  6
CONTINUOUS
 62
     4
 10
-135.0
 20
-166.5
 30
0.0
 11
-95.0
 21
-166.5
 31
0.0
  0
CIRCLE
  8
FIX
  6
CONTINUOUS
 62
    11
 10
115.0
 20
-166.5
 30
0.0
 40
6.0
  0
LINE
  8
NOTE
  6
CONTINUOUS
 62
     4
 10
115.0
 20
-186.5
 30
0.0
 11
115.0
 21
-146.5
 31
0.0
  0
LINE
  8
NOTE
  6
CONTINUOUS
 62
     4
 10
95.0
 20
-166.5
 30
0.0
 11
135.0
 21
-166.5
 31
0.0
  0
LINE
  8
NOTE
  6
CONTINUOUS
 62
     4
 10
-115.0
 20
248.5
 30
0.0
 11
-115.0
 21
208.5
 31
0.0
  0
LINE
  8
NOTE
  6
CONTINUOUS
 62
     4
 10
-135.0
 20
228.5
 30
0.0
 11
-95.0
 21
228.5
 31
0.0
  0
CIRCLE
  8
FIX
  6
CONTINUOUS
 62
    11
 10
-115.0
 20
228.5
 30
0.0
 40
6.0
  0
LINE
  8
NOTE
  6
CONTINUOUS
 62
     4
 10
115.0
 20
248.5
 30
0.0
 11
115.0
 21
208.5
 31
0.0
  0
LINE
  8
NOTE
  6
CONTINUOUS
 62
     4
 10
95.0
 20
228.5
 30
0.0
 11
135.0
 21
228.5
 31
0.0
  0
CIRCLE
  8
FIX
  6
CONTINUOUS
 62
    11
 10
115.0
 20
228.5
 30
0.0
 40
6.0
  0
LINE
  8
DETAIL
  6
CONTINUOUS
 62
     5
 10
-168.40000000000001
 20
-71.208799999999997
 30
0.0
 11
-170.0
 21
-71.208799999999997
 31
0.0
  0
LINE
  8
DETAIL
  6
CONTINUOUS
 62
     5
 10
-174.0
 20
-81.5
 30
0.0
 11
-192.0
 21
-81.5
 31
0.0
  0
ARC
  8
DETAIL
  6
CONTINUOUS
 62
     5
 10
-170.0
 20
-75.208799999999997
 30
0.0
 40
4.0
 50
90.0
 51
180.0
  0
ARC
  8
DETAIL
  6
CONTINUOUS
 62
     5
 10
-168.40000000000001
 20
-75.208799999999997
 30
0.0
 40
4.0
 50
0.0
 51
90.0
  0
LINE
  8
NOTE
  6
CONTINUOUS
 62
     4
 10
-169.19999999999999
 20
-91.208799999999997
 30
0.0
 11
-169.19999999999999
 21
-51.208799999999982
 31
0.0
  0
LINE
  8
NOTE
  6
CONTINUOUS
 62
     4
 10
-189.19999999999999
 20
-71.208799999999997
 30
0.0
 11
-149.19999999999999
 21
-71.208799999999997
 31
0.0
  0
LINE
  8
SIZE
  6
CONTINUOUS
 62
    30
 10
-212.0
 20
81.535709999999995
 30
0.0
 11
-481.21668899999992
 21
81.535709999999995
 31
0.0
  0
LINE
  8
SIZE
  6
CONTINUOUS
 62
    30
 10
-212.0
 20
-81.464290000000005
 30
0.0
 11
-481.21668899999992
 21
-81.464290000000005
 31
0.0
  0
LINE
  8
SIZE
  6
CONTINUOUS
 62
    30
 10
-461.21668899999997
 20
69.535709999999995
 30
0.0
 11
-461.21668899999997
 21
-69.464290000000005
 31
0.0
  0
LINE
  8
SIZE
  6
CONTINUOUS
 62
    30
 10
-461.21668899999997
 20
-339.15036900000001
 30
0.0
 11
-461.21668899999997
 21
-81.464290000000005
 31
0.0
  0
TEXT
  8
SIZE
  6
CONTINUOUS
 62
    30
 10
-486.21668899999997
 20
-315.52179814285722
 30
0.0
 40
64.0
  1
φ163
 50
90.0
 41
0.9
 72
     1
 11
-486.21668899999997
 21
-216.778941
 31
0.0
  0
CIRCLE
  8
SIZE
  6
CONTINUOUS
 62
    30
 10
-461.21668899999997
 20
81.535709999999995
 30
0.0
 40
6.0
  0
LINE
  8
SIZE
  6
CONTINUOUS
 62
    30
 10
-461.21668899999997
 20
81.535709999999995
 30
0.0
 11
-461.21668899999997
 21
69.535709999999995
 31
0.0
  0
CIRCLE
  8
SIZE
  6
CONTINUOUS
 62
    30
 10
-461.21668899999997
 20
-81.464290000000005
 30
0.0
 40
6.0
  0
LINE
  8
SIZE
  6
CONTINUOUS
 62
    30
 10
-461.21668899999997
 20
-81.464290000000005
 30
0.0
 11
-461.21668899999997
 21
-69.464290000000005
 31
0.0
  0
LINE
  8
SIZE
  6
CONTINUOUS
 62
    30
 10
-145.0
 20
228.5
 30
0.0
 11
-615.13976200000002
 21
228.5
 31
0.0
  0
LINE
  8
SIZE
  6
CONTINUOUS
 62
    30
 10
-234.80160599999999
 20
0.0
 30
0.0
 11
-615.13976200000002
 21
0.0
 31
0.0
  0
LINE
  8
SIZE
  6
CONTINUOUS
 62
    30
 10
-595.13976200000002
 20
216.5
 30
0.0
 11
-595.13976200000002
 21
12.0
 31
0.0
  0
TEXT
  8
SIZE
  6
CONTINUOUS
 62
    30
 10
-613.61054799999999
 20
-245.501724
 30
0.0
 40
64.0
  1
228.5
 50
90.0
 41
0.9
 72
     1
 11
-613.61054799999999
 21
-130.30172400000001
 31
0.0
  0
CIRCLE
  8
SIZE
  6
CONTINUOUS
 62
    30
 10
-595.13976200000002
 20
228.5
 30
0.0
 40
6.0
  0
LINE
  8
SIZE
  6
CONTINUOUS
 62
    30
 10
-595.13976200000002
 20
228.5
 30
0.0
 11
-595.13976200000002
 21
216.5
 31
0.0
  0
CIRCLE
  8
SIZE
  6
CONTINUOUS
 62
    30
 10
-595.13976200000002
 20
0.0
 30
0.0
 40
6.0
  0
LINE
  8
SIZE
  6
CONTINUOUS
 62
    30
 10
-595.13976200000002
 20
0.0
 30
0.0
 11
-595.13976200000002
 21
12.0
 31
0.0
  0
LINE
  8
SIZE
  6
CONTINUOUS
 62
    30
 10
-145.0
 20
228.5
 30
0.0
 11
-478.75852599999979
 21
228.5
 31
0.0
  0
LINE
  8
SIZE
  6
CONTINUOUS
 62
    30
 10
-178.853093
 20
135.5
 30
0.0
 11
-478.75852599999979
 21
135.5
 31
0.0
  0
LINE
  8
SIZE
  6
CONTINUOUS
 62
    30
 10
-458.75852599999979
 20
216.5
 30
0.0
 11
-458.75852599999979
 21
147.5
 31
0.0
  0
LINE
  8
SIZE
  6
CONTINUOUS
 62
    30
 10
-458.75852599999979
 20
399.53759100000002
 30
0.0
 11
-458.75852599999979
 21
228.5
 31
0.0
  0
TEXT
  8
SIZE
  6
CONTINUOUS
 62
    30
 10
-483.75852599999979
 20
281.28044857142862
 30
0.0
 40
64.0
  1
93
 50
90.0
 41
0.9
 72
     1
 11
-483.75852599999979
 21
327.90902
 31
0.0
  0
CIRCLE
  8
SIZE
  6
CONTINUOUS
 62
    30
 10
-458.75852599999979
 20
228.5
 30
0.0
 40
6.0
  0
LINE
  8
SIZE
  6
CONTINUOUS
 62
    30
 10
-458.75852599999979
 20
228.5
 30
0.0
 11
-458.75852599999979
 21
216.5
 31
0.0
  0
CIRCLE
  8
SIZE
  6
CONTINUOUS
 62
    30
 10
-458.75852599999979
 20
135.5
 30
0.0
 40
6.0
  0
LINE
  8
SIZE
  6
CONTINUOUS
 62
    30
 10
-458.75852599999979
 20
135.5
 30
0.0
 11
-458.75852599999979
 21
147.5
 31
0.0
  0
LINE
  8
SIZE
  6
CONTINUOUS
 62
    30
 10
-595.13976200000002
 20
-1.8921369999999911
 30
0.0
 11
-595.13976200000002
 21
-247.78509399999999
 31
0.0
  0
LINE
  8
SIZE
  6
CONTINUOUS
 62
    30
 10
125.0
 20
248.5
 30
0.0
 11
125.0
 21
406.998786
 31
0.0
  0
LINE
  8
SIZE
  6
CONTINUOUS
 62
    30
 10
-125.0
 20
248.5
 30
0.0
 11
-125.0
 21
406.998786
 31
0.0
  0
LINE
  8
SIZE
  6
CONTINUOUS
 62
    30
 10
113.0
 20
386.998786
 30
0.0
 11
-113.0
 21
386.998786
 31
0.0
  0
TEXT
  8
SIZE
  6
CONTINUOUS
 62
    30
 10
-74.05714285714285
 20
413.71643300000011
 30
0.0
 40
64.0
  1
250
 41
0.9
 72
     1
 11
0.0
 21
413.71643300000011
 31
0.0
  0
CIRCLE
  8
SIZE
  6
CONTINUOUS
 62
    30
 10
125.0
 20
386.998786
 30
0.0
 40
6.0
  0
LINE
  8
SIZE
  6
CONTINUOUS
 62
    30
 10
125.0
 20
386.998786
 30
0.0
 11
113.0
 21
386.998786
 31
0.0
  0
CIRCLE
  8
SIZE
  6
CONTINUOUS
 62
    30
 10
-125.0
 20
386.998786
 30
0.0
 40
6.0
  0
LINE
  8
SIZE
  6
CONTINUOUS
 62
    30
 10
-125.0
 20
386.998786
 30
0.0
 11
-113.0
 21
386.998786
 31
0.0
  0
LINE
  8
SIZE
  6
CONTINUOUS
 62
    30
 10
140.0
 20
155.5
 30
0.0
 11
140.0
 21
525.44338800000003
 31
0.0
  0
LINE
  8
SIZE
  6
CONTINUOUS
 62
    30
 10
-140.0
 20
155.5
 30
0.0
 11
-140.0
 21
525.44338800000003
 31
0.0
  0
LINE
  8
SIZE
  6
CONTINUOUS
 62
    30
 10
128.0
 20
505.44338799999991
 30
0.0
 11
-128.0
 21
505.44338799999991
 31
0.0
  0
CIRCLE
  8
SIZE
  6
CONTINUOUS
 62
    30
 10
140.0
 20
505.44338799999991
 30
0.0
 40
6.0
  0
LINE
  8
SIZE
  6
CONTINUOUS
 62
    30
 10
140.0
 20
505.44338799999991
 30
0.0
 11
128.0
 21
505.44338799999991
 31
0.0
  0
CIRCLE
  8
SIZE
  6
CONTINUOUS
 62
    30
 10
-140.0
 20
505.44338799999991
 30
0.0
 40
6.0
  0
LINE
  8
SIZE
  6
CONTINUOUS
 62
    30
 10
-140.0
 20
505.44338799999991
 30
0.0
 11
-128.0
 21
505.44338799999991
 31
0.0
  0
TEXT
  8
SIZE
  6
CONTINUOUS
 62
    30
 10
-104.2285714285714
 20
530.44338799999991
 30
0.0
 40
64.0
  1
φ280
 41
0.9
 72
     1
 11
0.0
 21
530.44338799999991
 31
0.0
  0
LINE
  8
SIZE
  6
CONTINUOUS
 62
    30
 10
125.0
 20
-184.69999999999999
 30
0.0
 11
125.0
 21
-361.87072750770773
 31
0.0
  0
LINE
  8
SIZE
  6
CONTINUOUS
 62
    30
 10
100.0
 20
-182.610929
 30
0.0
 11
100.0
 21
-361.87072750770773
 31
0.0
  0
LINE
  8
SIZE
  6
CONTINUOUS
 62
    30
 10
137.0
 20
-341.87072750770778
 30
0.0
 11
149.0
 21
-341.87072750770778
 31
0.0
  0
LINE
  8
SIZE
  6
CONTINUOUS
 62
    30
 10
88.0
 20
-341.87072750770778
 30
0.0
 11
76.0
 21
-341.87072750770778
 31
0.0
  0
TEXT
  8
SIZE
  6
CONTINUOUS
 62
    30
 10
146.9792085714285
 20
-317.39446150770777
 30
0.0
 40
64.0
  1
25
 41
0.9
 72
     1
 11
193.60777999999991
 21
-317.39446150770777
 31
0.0
  0
LINE
  8
SIZE
  6
CONTINUOUS
 62
    30
 10
125.0
 20
-341.87072750770778
 30
0.0
 11
100.0
 21
-341.87072750770778
 31
0.0
  0
LINE
  8
SIZE
  6
CONTINUOUS
 62
    30
 10
125.0
 20
-341.87072750770778
 30
0.0
 11
100.0
 21
-341.87072750770778
 31
0.0
  0
CIRCLE
  8
SIZE
  6
CONTINUOUS
 62
    30
 10
125.0
 20
-341.87072750770778
 30
0.0
 40
6.0
  0
LINE
  8
SIZE
  6
CONTINUOUS
 62
    30
 10
125.0
 20
-341.87072750770778
 30
0.0
 11
137.0
 21
-341.87072750770778
 31
0.0
  0
CIRCLE
  8
SIZE
  6
CONTINUOUS
 62
    30
 10
100.0
 20
-341.87072750770778
 30
0.0
 40
6.0
  0
LINE
  8
SIZE
  6
CONTINUOUS
 62
    30
 10
100.0
 20
-341.87072750770778
 30
0.0
 11
88.0
 21
-341.87072750770778
 31
0.0
  0
LINE
  8
SIZE
  6
CONTINUOUS
 62
    30
 10
-100.0
 20
-186.5
 30
0.0
 11
-100.0
 21
-361.87072750770773
 31
0.0
  0
LINE
  8
SIZE
  6
CONTINUOUS
 62
    30
 10
-125.0
 20
-186.5
 30
0.0
 11
-125.0
 21
-361.87072750770773
 31
0.0
  0
LINE
  8
SIZE
  6
CONTINUOUS
 62
    30
 10
-88.0
 20
-341.87072750770778
 30
0.0
 11
-76.0
 21
-341.87072750770778
 31
0.0
  0
LINE
  8
SIZE
  6
CONTINUOUS
 62
    30
 10
-137.0
 20
-341.87072750770778
 30
0.0
 11
-149.0
 21
-341.87072750770778
 31
0.0
  0
LINE
  8
SIZE
  6
CONTINUOUS
 62
    30
 10
-339.10236500000002
 20
-341.87072750770778
 30
0.0
 11
-125.0
 21
-341.87072750770778
 31
0.0
  0
TEXT
  8
SIZE
  6
CONTINUOUS
 62
    30
 10
-314.10236442857138
 20
-316.87072750770778
 30
0.0
 40
64.0
  1
25
 41
0.9
 72
     1
 11
-267.473793
 21
-316.87072750770778
 31
0.0
  0
LINE
  8
SIZE
  6
CONTINUOUS
 62
    30
 10
-100.0
 20
-341.87072750770778
 30
0.0
 11
-125.0
 21
-341.87072750770778
 31
0.0
  0
LINE
  8
SIZE
  6
CONTINUOUS
 62
    30
 10
-100.0
 20
-341.87072750770778
 30
0.0
 11
-125.0
 21
-341.87072750770778
 31
0.0
  0
CIRCLE
  8
SIZE
  6
CONTINUOUS
 62
    30
 10
-100.0
 20
-341.87072750770778
 30
0.0
 40
6.0
  0
LINE
  8
SIZE
  6
CONTINUOUS
 62
    30
 10
-100.0
 20
-341.87072750770778
 30
0.0
 11
-88.0
 21
-341.87072750770778
 31
0.0
  0
CIRCLE
  8
SIZE
  6
CONTINUOUS
 62
    30
 10
-125.0
 20
-341.87072750770778
 30
0.0
 40
6.0
  0
LINE
  8
SIZE
  6
CONTINUOUS
 62
    30
 10
-125.0
 20
-341.87072750770778
 30
0.0
 11
-137.0
 21
-341.87072750770778
 31
0.0
  0
LINE
  8
SIZE
  6
CONTINUOUS
 62
    30
 10
115.0
 20
-206.5
 30
0.0
 11
115.0
 21
-496.70404085559949
 31
0.0
  0
LINE
  8
SIZE
  6
CONTINUOUS
 62
    30
 10
-115.0
 20
-206.5
 30
0.0
 11
-115.0
 21
-496.70404085559949
 31
0.0
  0
LINE
  8
SIZE
  6
CONTINUOUS
 62
    30
 10
103.0
 20
-476.70404085559949
 30
0.0
 11
-103.0
 21
-476.70404085559949
 31
0.0
  0
TEXT
  8
SIZE
  6
CONTINUOUS
 62
    30
 10
-74.057142857142864
 20
-447.55647185559951
 30
0.0
 40
64.0
  1
230
 41
0.9
 72
     1
 11
0.0
 21
-447.55647185559951
 31
0.0
  0
CIRCLE
  8
SIZE
  6
CONTINUOUS
 62
    30
 10
115.0
 20
-476.70404085559949
 30
0.0
 40
6.0
  0
LINE
  8
SIZE
  6
CONTINUOUS
 62
    30
 10
115.0
 20
-476.70404085559949
 30
0.0
 11
103.0
 21
-476.70404085559949
 31
0.0
  0
CIRCLE
  8
SIZE
  6
CONTINUOUS
 62
    30
 10
-115.0
 20
-476.70404085559949
 30
0.0
 40
6.0
  0
LINE
  8
SIZE
  6
CONTINUOUS
 62
    30
 10
-115.0
 20
-476.70404085559949
 30
0.0
 11
-103.0
 21
-476.70404085559949
 31
0.0
  0
LINE
  8
SIZE
  6
CONTINUOUS
 62
    30
 10
125.0
 20
-341.87072750770778
 30
0.0
 11
248.04738
 21
-341.87072750770778
 31
0.0
  0
LINE
  8
SIZE
  6
CONTINUOUS
 62
    30
 10
-125.0
 20
-341.87072750770778
 30
0.0
 11
-338.53566899999998
 21
-341.87072750770778
 31
0.0
  0
LINE
  8
SIZE
  6
CONTINUOUS
 62
    30
 10
145.0
 20
228.5
 30
0.0
 11
484.9144058411207
 21
228.5
 31
0.0
  0
LINE
  8
SIZE
  6
CONTINUOUS
 62
    30
 10
145.0
 20
-166.5
 30
0.0
 11
484.9144058411207
 21
-166.5
 31
0.0
  0
LINE
  8
SIZE
  6
CONTINUOUS
 62
    30
 10
464.9144058411207
 20
216.5
 30
0.0
 11
464.9144058411207
 21
-154.5
 31
0.0
  0
CIRCLE
  8
SIZE
  6
CONTINUOUS
 62
    30
 10
464.9144058411207
 20
228.5
 30
0.0
 40
6.0
  0
LINE
  8
SIZE
  6
CONTINUOUS
 62
    30
 10
464.9144058411207
 20
228.5
 30
0.0
 11
464.9144058411207
 21
216.5
 31
0.0
  0
CIRCLE
  8
SIZE
  6
CONTINUOUS
 62
    30
 10
464.9144058411207
 20
-166.5
 30
0.0
 40
6.0
  0
LINE
  8
SIZE
  6
CONTINUOUS
 62
    30
 10
464.9144058411207
 20
-166.5
 30
0.0
 11
464.9144058411207
 21
-154.5
 31
0.0
  0
TEXT
  8
SIZE
  6
CONTINUOUS
 62
    30
 10
439.9144058411207
 20
-43.05714285714285
 30
0.0
 40
64.0
  1
395
 50
90.0
 41
0.9
 72
     1
 11
439.9144058411207
 21
31.0
 31
0.0
  0
LINE
  8
NOTE
  6
CONTINUOUS
 62
     4
 10
-115.0
 20
228.5
 30
0.0
 11
-207.924598
 21
424.03536500000001
 31
0.0
  0
LINE
  8
NOTE
  6
CONTINUOUS
 62
     4
 10
-141.738517
 20
258.249819
 30
0.0
 11
-115.0
 21
228.5
 31
0.0
  0
LINE
  8
NOTE
  6
CONTINUOUS
 62
     4
 10
-115.0
 20
228.5
 30
0.0
 11
-123.281325
 21
267.63335699999999
 31
0.0
  0
TEXT
  8
NOTE
  6
CONTINUOUS
 62
     4
 10
-380.46592800000002
 20
-202.36597499999999
 30
0.0
 40
64.0
  1
EL
 41
0.9
  0
LINE
  8
NOTE
  6
CONTINUOUS
 62
     4
 10
-284.64906400000001
 20
-225.51794699999999
 30
0.0
 11
-389.98284999999998
 21
-225.51794699999999
 31
0.0
  0
LINE
  8
NOTE
  6
CONTINUOUS
 62
     4
 10
-170.00000199999999
 20
-71.208798999999999
 30
0.0
 11
-284.64906400000001
 21
-225.51794699999999
 31
0.0
  0
LINE
  8
NOTE
  6
CONTINUOUS
 62
     4
 10
-201.64446799999999
 20
-95.675669999999997
 30
0.0
 11
-170.00000199999999
 21
-71.208798999999999
 31
0.0
  0
LINE
  8
NOTE
  6
CONTINUOUS
 62
     4
 10
-170.00000199999999
 20
-71.208798999999999
 30
0.0
 11
-185.17147800000001
 21
-108.219964
 31
0.0
  0
LINE
  8
OUTLINE
  6
CONTINUOUS
 62
     3
 10
-138.1188159999999
 20
-81.5
 30
0.0
 11
-192.0
 21
-81.5
 31
0.0
  0
LINE
  8
OUTLINE
  6
CONTINUOUS
 62
     3
 10
-104.647026
 20
228.5
 30
0.0
 11
-125.0
 21
228.5
 31
0.0
  0
LINE
  8
OUTLINE
  6
CONTINUOUS
 62
     3
 10
-100.0
 20
-162.610929
 30
0.0
 11
100.0
 21
-162.610929
 31
0.0
  0
LINE
  8
OUTLINE
  6
CONTINUOUS
 62
     3
 10
125.0
 20
72.452398999999986
 30
0.0
 11
125.0
 21
-166.5
 31
0.0
  0
LINE
  8
OUTLINE
  6
CONTINUOUS
 62
     3
 10
125.0
 20
-164.69999999999999
 30
0.0
 11
125.0
 21
-165.5
 31
0.0
  0
LINE
  8
OUTLINE
  6
CONTINUOUS
 62
     3
 10
100.0
 20
-166.5
 30
0.0
 11
125.0
 21
-166.5
 31
0.0
  0
LINE
  8
OUTLINE
  6
CONTINUOUS
 62
     3
 10
-125.0
 20
228.5
 30
0.0
 11
-125.0
 21
198.54760099999999
 31
0.0
  0
LINE
  8
OUTLINE
  6
CONTINUOUS
 62
     3
 10
-100.0
 20
-166.5
 30
0.0
 11
-125.0
 21
-166.5
 31
0.0
  0
LINE
  8
OUTLINE
  6
CONTINUOUS
 62
     3
 10
-125.0
 20
-82.0
 30
0.0
 11
-125.0
 21
-166.5
 31
0.0
  0
LINE
  8
OUTLINE
  6
CONTINUOUS
 62
     3
 10
-100.0
 20
-162.610929
 30
0.0
 11
-100.0
 21
-166.5
 31
0.0
  0
LINE
  8
OUTLINE
  6
CONTINUOUS
 62
     3
 10
100.0
 20
-162.610929
 30
0.0
 11
100.0
 21
-166.5
 31
0.0
  0
ARC
  8
OUTLINE
  6
CONTINUOUS
 62
     3
 10
0.0
 20
135.5
 30
0.0
 40
140.0
 50
153.23449899999929
 51
202.4664794737588
  0
LINE
  8
OUTLINE
  6
CONTINUOUS
 62
     3
 10
-107.17797899999999
 20
-166.5
 30
0.0
 11
-125.0
 21
-166.5
 31
0.0
  0
LINE
  8
OUTLINE
  6
CONTINUOUS
 62
     3
 10
104.647026
 20
228.5
 30
0.0
 11
125.0
 21
228.5
 31
0.0
  0
LINE
  8
OUTLINE
  6
CONTINUOUS
 62
     3
 10
125.0
 20
228.5
 30
0.0
 11
125.0
 21
198.54760099999999
 31
0.0
  0
LINE
  8
OUTLINE
  6
CONTINUOUS
 62
     3
 10
-138.1188159999999
 20
82.0
 30
0.0
 11
-138.1188159999999
 21
81.535709999999995
 31
0.0
  0
LINE
  8
OUTLINE
  6
CONTINUOUS
 62
     3
 10
-129.29157000000001
 20
82.0
 30
0.0
 11
-138.1188159999999
 21
82.0
 31
0.0
  0
LINE
  8
OUTLINE
  6
CONTINUOUS
 62
     3
 10
-138.1188159999999
 20
81.535709999999995
 30
0.0
 11
-192.0
 21
81.535709999999995
 31
0.0
  0
LINE
  8
OUTLINE
  6
CONTINUOUS
 62
     3
 10
-194.5
 20
79.035709999999995
 30
0.0
 11
-194.5
 21
0.0
 31
0.0
  0
ARC
  8
OUTLINE
  6
CONTINUOUS
 62
     3
 10
-192.0
 20
79.035709999999995
 30
0.0
 40
2.5
 50
90.0
 51
180.0
  0
LINE
  8
OUTLINE
  6
CONTINUOUS
 62
     3
 10
-194.5
 20
-78.964290000000005
 30
0.0
 11
-194.5
 21
0.0
 31
0.0
  0
ARC
  8
OUTLINE
  6
CONTINUOUS
 62
     3
 10
-192.0
 20
-78.964290000000005
 30
0.0
 40
2.5
 50
180.0
 51
270.0
  0
LINE
  8
OUTLINE
  6
CONTINUOUS
 62
     3
 10
-125.0
 20
-82.0
 30
0.0
 11
-138.1188159999999
 21
-82.0
 31
0.0
  0
LINE
  8
OUTLINE
  6
CONTINUOUS
 62
     3
 10
-138.1188159999999
 20
-82.0
 30
0.0
 11
-138.1188159999999
 21
-81.5
 31
0.0
  0
ARC
  8
OUTLINE
  6
CONTINUOUS
 62
     3
 10
0.0
 20
135.5
 30
0.0
 40
140.0
 50
41.627550999999293
 51
138.3724490000007
  0
ARC
  8
OUTLINE
  6
CONTINUOUS
 62
     3
 10
0.0
 20
135.5
 30
0.0
 40
140.0
 50
333.23449900000088
 51
26.765500999999091
  0
TEXT
  8
NOTE
  6
CONTINUOUS
 62
     4
 10
-61.019834000000003
 20
142.63274899999999
 30
0.0
 40
64.0
  1
出口
 41
0.9
  0
LINE
  8
DETAIL
  6
CONTINUOUS
 62
     5
 10
-100.0
 20
228.5
 30
0.0
 11
100.0
 21
228.5
 31
0.0
  0
LINE
  8
DETAIL
  6
CONTINUOUS
 62
     5
 10
100.0
 20
56.138276999999988
 30
0.0
 11
-100.0
 21
56.138276999999988
 31
0.0
  0
LINE
  8
DETAIL
  6
CONTINUOUS
 62
     5
 10
100.0
 20
46.212747999999998
 30
0.0
 11
-100.0
 21
46.212747999999998
 31
0.0
  0
LINE
  8
BASIS
  6
DASHDOT
 62
     6
 10
112.289981
 20
5.0
 30
0.0
 11
145.08262099999999
 21
5.0
 31
0.0
  0
LINE
  8
SIZE
  6
CONTINUOUS
 62
    30
 10
125.0
 20
-186.5
 30
0.0
 11
125.0
 21
-638.75581385559951
 31
0.0
  0
LINE
  8
SIZE
  6
CONTINUOUS
 62
    30
 10
-194.5
 20
-98.964290000000005
 30
0.0
 11
-194.5
 21
-638.75581385559951
 31
0.0
  0
LINE
  8
SIZE
  6
CONTINUOUS
 62
    30
 10
113.0
 20
-618.75581385559951
 30
0.0
 11
-182.5
 21
-618.75581385559951
 31
0.0
  0
CIRCLE
  8
SIZE
  6
CONTINUOUS
 62
    30
 10
125.0
 20
-618.75581385559951
 30
0.0
 40
6.0
  0
LINE
  8
SIZE
  6
CONTINUOUS
 62
    30
 10
125.0
 20
-618.75581385559951
 30
0.0
 11
113.0
 21
-618.75581385559951
 31
0.0
  0
CIRCLE
  8
SIZE
  6
CONTINUOUS
 62
    30
 10
-194.5
 20
-618.75581385559951
 30
0.0
 40
6.0
  0
LINE
  8
SIZE
  6
CONTINUOUS
 62
    30
 10
-194.5
 20
-618.75581385559951
 30
0.0
 11
-182.5
 21
-618.75581385559951
 31
0.0
  0
TEXT
  8
SIZE
  6
CONTINUOUS
 62
    30
 10
-144.46428571428569
 20
-593.75581385559951
 30
0.0
 40
64.0
  1
319.5
 41
0.9
 72
     1
 11
-34.75
 21
-593.75581385559951
 31
0.0
  0
TEXT
  8
ETC
  6
CONTINUOUS
 62
    61
 10
441.494166018935
 20
462.85194231239899
 30
0.0
 40
64.0
  1
産業扇
 41
0.9
  0
TEXT
  8
ETC
  6
CONTINUOUS
 62
    61
 10
436.66189801893501
 20
574.1965723123991
 30
0.0
 40
64.0
  1
BF-28T5_2
 41
0.9
  0
TEXT
  8
ETC
  6
CONTINUOUS
 62
    61
 10
525.35810812648333
 20
352.99814108604028
 30
0.0
 40
64.0
  1
BF-28T5
 41
0.9
  0
LINE
  8
SIZE
  6
CONTINUOUS
 62
    30
 10
145.0
 20
228.5
 30
0.0
 11
348.72262486741607
 21
228.49999999999989
 31
0.0
  0
LINE
  8
SIZE
  6
CONTINUOUS
 62
    30
 10
165.08262099999999
 20
4.9999999999999947
 30
0.0
 11
348.72262486741602
 21
4.9999999999999423
 31
0.0
  0
LINE
  8
SIZE
  6
CONTINUOUS
 62
    30
 10
328.72262486741602
 20
16.99999999999995
 30
0.0
 11
328.72262486741607
 21
216.49999999999989
 31
0.0
  0
LINE
  8
SIZE
  6
CONTINUOUS
 62
    30
 10
328.72262486741607
 20
228.49999999999989
 30
0.0
 11
328.72262486741607
 21
520.89999999999998
 31
0.0
  0
CIRCLE
  8
SIZE
  6
CONTINUOUS
 62
    30
 10
328.72262486741602
 20
4.9999999999999476
 30
0.0
 40
6.0
  0
LINE
  8
SIZE
  6
CONTINUOUS
 62
    30
 10
328.72262486741602
 20
4.9999999999999476
 30
0.0
 11
328.72262486741602
 21
16.999999999999947
 31
0.0
  0
CIRCLE
  8
SIZE
  6
CONTINUOUS
 62
    30
 10
328.72262486741607
 20
228.49999999999989
 30
0.0
 40
6.0
  0
LINE
  8
SIZE
  6
CONTINUOUS
 62
    30
 10
328.72262486741607
 20
228.49999999999989
 30
0.0
 11
328.72262486741607
 21
216.49999999999989
 31
0.0
  0
TEXT
  8
SIZE
  6
CONTINUOUS
 62
    30
 10
303.72262486741602
 20
259.74000000000001
 30
0.0
 40
64.0
  1
223.5
 50
90.0
 41
0.9
 51
0.0
  7
STANDARD
 71
     0
 72
     1
 11
303.72262486741602
 21
380.69999999999999
 31
0.0
210
0.0
220
0.0
230
1.0
  0
POINT
  8
DEFPOINTS
  6
CONTINUOUS
 62
    30
 10
125.0
 20
228.5
 30
0.0
  0
POINT
  8
DEFPOINTS
  6
CONTINUOUS
 62
    30
 10
145.08262099999999
 20
5.0
 30
0.0
  0
POINT
  8
DEFPOINTS
  6
CONTINUOUS
 62
    30
 10
328.72262486741602
 20
4.9999999999999476
 30
0.0
  0
ENDSEC
  0
EOF
