  0
SECTION
  2
HEADER
  9
$ACADVER
  1
AC1009
  9
$DWGCODEPAGE
  3
dos932
  9
$INSBASE
 10
0.0
 20
0.0
 30
0.0
  9
$EXTMIN
 10
-1546.3380522470429
 20
-716.83219595904939
 30
0.0
  9
$EXTMAX
 10
1172.666045805232
 20
864.2735887546894
 30
50.0
  9
$LIMMIN
 10
-2970.0
 20
-2100.0
  9
$LIMMAX
 10
2970.0
 20
2100.0
  9
$ORTHOMODE
 70
     1
  9
$REGENMODE
 70
     1
  9
$FILLMODE
 70
     1
  9
$QTEXTMODE
 70
     0
  9
$MIRRTEXT
 70
     0
  9
$LTSCALE
 40
20.0
  9
$ATTMODE
 70
     1
  9
$TEXTSIZE
 40
64.0
  9
$TRACEWID
 40
0.05
  9
$TEXTSTYLE
  7
STANDARD
  9
$CLAYER
  8
SIZE
  9
$CELTYPE
  6
CONTINUOUS
  9
$CECOLOR
 62
     7
  9
$DIMSCALE
 40
1.0
  9
$DIMASZ
 40
12.0
  9
$DIMEXO
 40
20.0
  9
$DIMDLI
 40
200.0
  9
$DIMRND
 40
0.0
  9
$DIMDLE
 40
0.0
  9
$DIMEXE
 40
20.0
  9
$DIMTP
 40
0.0
  9
$DIMTM
 40
0.0
  9
$DIMTXT
 40
64.0
  9
$DIMCEN
 40
0.09
  9
$DIMTSZ
 40
0.0
  9
$DIMTOL
 70
     0
  9
$DIMLIM
 70
     0
  9
$DIMTIH
 70
     0
  9
$DIMTOH
 70
     0
  9
$DIMSE1
 70
     0
  9
$DIMSE2
 70
     0
  9
$DIMTAD
 70
     1
  9
$DIMZIN
 70
     8
  9
$DIMBLK
  1

  9
$DIMASO
 70
     1
  9
$DIMSHO
 70
     0
  9
$DIMPOST
  1

  9
$DIMAPOST
  1

  9
$DIMALT
 70
     0
  9
$DIMALTD
 70
     2
  9
$DIMALTF
 40
25.399999999999999
  9
$DIMLFAC
 40
1.0
  9
$DIMTOFL
 70
     1
  9
$DIMTVP
 40
0.0
  9
$DIMTIX
 70
     1
  9
$DIMSOXD
 70
     0
  9
$DIMSAH
 70
     0
  9
$DIMBLK1
  1

  9
$DIMBLK2
  1

  9
$DIMSTYLE
  2
STANDARD
  9
$DIMCLRD
 70
     7
  9
$DIMCLRE
 70
     7
  9
$DIMCLRT
 70
     7
  9
$DIMTFAC
 40
1.0
  9
$DIMGAP
 40
25.0
  9
$LUNITS
 70
     2
  9
$LUPREC
 70
     4
  9
$SKETCHINC
 40
0.1
  9
$FILLETRAD
 40
3.0
  9
$AUNITS
 70
     1
  9
$AUPREC
 70
     3
  9
$MENU
  1
ACAD
  9
$ELEVATION
 40
0.0
  9
$PELEVATION
 40
0.0
  9
$THICKNESS
 40
50.0
  9
$LIMCHECK
 70
     0
  9
$CHAMFERA
 40
0.0
  9
$CHAMFERB
 40
0.0
  9
$SKPOLY
 70
     0
  9
$TDCREATE
 40
2453019.62301037
  9
$TDUPDATE
 40
2457484.800857396
  9
$TDINDWG
 40
1.8085912847
  9
$TDUSRTIMER
 40
1.8085912847
  9
$USRTIMER
 70
     1
  9
$ANGBASE
 50
0.0
  9
$ANGDIR
 70
     0
  9
$PDMODE
 70
     3
  9
$PDSIZE
 40
-2.0
  9
$PLINEWID
 40
0.0
  9
$SPLFRAME
 70
     0
  9
$SPLINETYPE
 70
     6
  9
$SPLINESEGS
 70
     8
  9
$SURFTAB1
 70
     6
  9
$SURFTAB2
 70
     6
  9
$SURFTYPE
 70
     6
  9
$SURFU
 70
     6
  9
$SURFV
 70
     6
  9
$UCSNAME
  2

  9
$UCSORG
 10
0.0
 20
0.0
 30
0.0
  9
$UCSXDIR
 10
1.0
 20
0.0
 30
0.0
  9
$UCSYDIR
 10
0.0
 20
1.0
 30
0.0
  9
$PUCSNAME
  2

  9
$PUCSORG
 10
0.0
 20
0.0
 30
0.0
  9
$PUCSXDIR
 10
1.0
 20
0.0
 30
0.0
  9
$PUCSYDIR
 10
0.0
 20
1.0
 30
0.0
  9
$USERI1
 70
     0
  9
$USERI2
 70
     0
  9
$USERI3
 70
     0
  9
$USERI4
 70
     0
  9
$USERI5
 70
     0
  9
$USERR1
 40
20.0
  9
$USERR2
 40
0.0
  9
$USERR3
 40
0.0
  9
$USERR4
 40
0.0
  9
$USERR5
 40
0.0
  9
$WORLDVIEW
 70
     1
  9
$SHADEDGE
 70
     3
  9
$SHADEDIF
 70
    70
  9
$TILEMODE
 70
     1
  9
$MAXACTVP
 70
    48
  9
$PINSBASE
 10
0.0
 20
0.0
 30
0.0
  9
$PLIMCHECK
 70
     0
  9
$PEXTMIN
 10
-100000000000000000000.0
 20
-100000000000000000000.0
 30
-100000000000000000000.0
  9
$PEXTMAX
 10
100000000000000000000.0
 20
100000000000000000000.0
 30
100000000000000000000.0
  9
$PLIMMIN
 10
0.0
 20
0.0
  9
$PLIMMAX
 10
12.0
 20
9.0
  9
$UNITMODE
 70
     0
  9
$VISRETAIN
 70
     0
  9
$PLINEGEN
 70
     0
  9
$PSLTSCALE
 70
     0
  9
$TREEDEPTH
 70
  3020
  9
$ATTDIA
 70
     0
  9
$ATTREQ
 70
     1
  9
$BLIPMODE
 70
     1
  9
$COORDS
 70
     1
  9
$DRAGMODE
 70
     2
  9
$OSMODE
 70
     0
  9
$HANDLING
 70
     0
  9
$HANDSEED
  5
12EF5
  0
ENDSEC
  0
SECTION
  2
TABLES
  0
TABLE
  2
LTYPE
 70
     3
  0
LTYPE
  2
CONTINUOUS
 70
     0
  3
実線
 72
    65
 73
     0
 40
0.0
  0
LTYPE
  2
DASHDOT
 70
     0
  3
____ _ ____ _ ____ _ ____ _ ____ _ ____ _ ____
 72
    65
 73
     4
 40
5.5
 49
4.0
 49
-0.6
 49
0.3
 49
-0.6
  0
LTYPE
  2
CENTER
 70
     0
  3
Center ____ _ ____ _ ____ _ ____ _ ____ _ ____
 72
    65
 73
     4
 40
1.0
 49
0.5
 49
-0.25
 49
0.0
 49
-0.25
  0
ENDTAB
  0
TABLE
  2
LAYER
 70
    12
  0
LAYER
  2
0
 70
     0
 62
     7
  6
CONTINUOUS
  0
LAYER
  2
BASIS
 70
     0
 62
     6
  6
DASHDOT
  0
LAYER
  2
OUTLINE
 70
     0
 62
     3
  6
CONTINUOUS
  0
LAYER
  2
DETAIL
 70
     0
 62
     5
  6
CONTINUOUS
  0
LAYER
  2
SIZE
 70
     0
 62
    30
  6
CONTINUOUS
  0
LAYER
  2
ARRANGE
 70
     0
 62
     1
  6
CONTINUOUS
  0
LAYER
  2
DEFPOINTS
 70
     0
 62
     7
  6
CONTINUOUS
  0
LAYER
  2
ETC
 70
     0
 62
    61
  6
CONTINUOUS
  0
LAYER
  2
FIX
 70
     0
 62
    11
  6
CONTINUOUS
  0
LAYER
  2
NOTE
 70
     0
 62
     4
  6
CONTINUOUS
  0
LAYER
  2
SERVICESPACE
 70
    64
 62
     2
  6
DASHDOT
  0
LAYER
  2
SYMBOLLINE
 70
    64
 62
    15
  6
CONTINUOUS
  0
ENDTAB
  0
TABLE
  2
STYLE
 70
     1
  0
STYLE
  2
STANDARD
 70
     0
 40
64.0
 41
0.9
 50
0.0
 71
     0
 42
64.0
  3
SIMPLEX.shx
  4
BIGFONT.shx
  0
ENDTAB
  0
TABLE
  2
APPID
 70
    15
  0
APPID
  2
ACAD
 70
     0
  0
APPID
  2
AUTOCAD_POSTSCRIPT_FIGURE
 70
     0
  0
APPID
  2
ACAD_EXEMPT_FROM_CAD_STANDARDS
 70
     0
  0
APPID
  2
ACAD_PSEXT
 70
     0
  0
APPID
  2
ACAUTHENVIRON
 70
     0
  0
APPID
  2
GENIUS_GENOENT_13
 70
     0
  0
APPID
  2
GENIUS_GENCFG_13
 70
     0
  0
APPID
  2
GENIUS_GENCFG0_13
 70
     0
  0
APPID
  2
GENIUS_GENCFG1_13
 70
     0
  0
APPID
  2
GENIUS_GENCFG2_13
 70
     0
  0
APPID
  2
GENIUS_GENCFG3_13
 70
     0
  0
APPID
  2
GENIUS_GENCFG4_13
 70
     0
  0
APPID
  2
GENIUS_GEVCFG0_13
 70
     0
  0
APPID
  2
CONTENTBLOCKICON
 70
     0
  0
APPID
  2
CONTENTBLOCKDESCRIPTION
 70
     0
  0
ENDTAB
  0
TABLE
  2
DIMSTYLE
 70
     1
  0
DIMSTYLE
  2
STANDARD
 70
     0
  3

  4

  5
_ORIGIN
  6

  7

 40
1.0
 41
12.0
 42
20.0
 43
200.0
 44
20.0
 45
0.0
 46
0.0
 47
0.0
 48
0.0
140
64.0
141
0.09
142
0.0
143
25.399999999999999
144
1.0
145
0.0
146
1.0
147
25.0
 71
     0
 72
     0
 73
     0
 74
     0
 75
     0
 76
     0
 77
     1
 78
     8
170
     0
171
     2
172
     1
173
     0
174
     1
175
     0
176
     7
177
     7
178
     7
  0
ENDTAB
  0
TABLE
  2
VIEW
 70
     1
  0
VIEW
  2
ALL
 70
     0
 40
4282.6198079999986
 10
0.0
 20
41.309904000000003
 41
5940.0
 11
0.0
 21
0.0
 31
1.0
 12
0.0
 22
0.0
 32
0.0
 42
50.0
 43
0.0
 44
0.0
 50
0.0
 71
     0
  0
ENDTAB
  0
TABLE
  2
UCS
 70
     0
  0
ENDTAB
  0
TABLE
  2
VPORT
 70
     1
  0
VPORT
  2
*ACTIVE
 70
     0
 10
0.0
 20
0.0
 11
1.0
 21
1.0
 12
617.95317816059037
 22
-354.45930844759141
 13
0.0
 23
0.0
 14
1.0
 24
1.0
 15
0.0
 25
0.0
 16
0.0
 26
0.0
 36
1.0
 17
0.0
 27
0.0
 37
0.0
 40
2088.5749412028699
 41
1.2797385620915029
 42
50.0
 43
0.0
 44
0.0
 50
0.0
 51
0.0
 71
     0
 72
  1000
 73
     1
 74
     3
 75
     0
 76
     0
 77
     0
 78
     0
  0
ENDTAB
  0
ENDSEC
  0
SECTION
  2
BLOCKS
  0
BLOCK
  8
0
  2
_ORIGIN
 70
     0
 10
0.0
 20
0.0
 30
0.0
  3
_ORIGIN
  1

  0
CIRCLE
  8
0
  6
CONTINUOUS
 62
     7
 10
0.0
 20
0.0
 30
0.0
 40
0.5
  0
LINE
  8
0
  6
CONTINUOUS
 62
     7
 10
0.0
 20
0.0
 30
0.0
 11
-1.0
 21
0.0
 31
0.0
  0
ENDBLK
  8
0
  0
ENDSEC
  0
SECTION
  2
ENTITIES
  0
TEXT
  8
ETC
  6
CONTINUOUS
 62
    61
 10
214.83786478455019
 20
800.27358875468894
 30
0.0
 40
64.0
  1
BFS-1000TX2_3
 41
0.9
  0
TEXT
  8
ETC
  6
CONTINUOUS
 62
    61
 10
210.6518707845498
 20
682.31827873985776
 30
0.0
 40
64.0
  1
産業扇
 41
0.9
  0
TEXT
  8
ETC
  6
CONTINUOUS
 62
    61
 10
261.35326903310579
 20
574.16950585363247
 30
0.0
 40
40.0
  1
BFS-1000TX2
 50
0.0
 41
0.9
 51
0.0
  7
STANDARD
 71
     0
 11
0.0
 21
0.0
 31
0.0
210
0.0
220
0.0
230
1.0
  0
CIRCLE
  8
ARRANGE
  6
CONTINUOUS
 62
     1
 10
0.0
 20
0.0
 30
0.0
 40
40.0
  0
LINE
  8
BASIS
  6
DASHDOT
 62
     6
 39
50.0
 10
0.0
 20
-108.2854010143146
 30
0.0
 11
0.0
 21
110.28540101431371
 31
0.0
  0
LINE
  8
BASIS
  6
DASHDOT
 62
     6
 39
50.0
 10
-125.4561247050906
 20
0.0
 30
0.0
 11
125.4561247050906
 21
0.0
 31
0.0
  0
LINE
  8
DETAIL
  6
CONTINUOUS
 62
     5
 10
566.54892705199927
 20
-507.40398945499959
 30
0.0
 11
566.55425029749858
 21
-507.30408480400001
 31
0.0
  0
LINE
  8
DETAIL
  6
CONTINUOUS
 62
     5
 10
567.70167343199864
 20
-507.43025988300002
 30
0.0
 11
567.22802426824239
 21
-528.21398518930027
 31
0.0
  0
LINE
  8
DETAIL
  6
CONTINUOUS
 62
     5
 10
566.55425029749858
 20
-507.30408480400001
 30
0.0
 11
566.65221939100047
 21
-503.00520098900012
 31
0.0
  0
LINE
  8
DETAIL
  6
CONTINUOUS
 62
     5
 10
544.859883137
 20
-506.80968263549988
 30
0.0
 11
544.95785223049825
 21
-502.51079881999982
 31
0.0
  0
LINE
  8
DETAIL
  6
CONTINUOUS
 62
     5
 10
543.70790330049931
 20
-506.88345564149989
 30
0.0
 11
543.23133844548715
 21
-527.79512148020183
 31
0.0
  0
LINE
  8
DETAIL
  6
CONTINUOUS
 62
     5
 10
575.81367010649819
 20
-503.21398518930027
 30
0.0
 11
575.81367010649819
 21
-463.19999999999982
 31
0.0
  0
LINE
  8
DETAIL
  6
CONTINUOUS
 62
     5
 10
565.19999999999891
 20
-463.19999999999982
 30
0.0
 11
565.19999999999891
 21
-412.79999999999973
 31
0.0
  0
LINE
  8
DETAIL
  6
CONTINUOUS
 62
     5
 10
616.0
 20
-0.9999999999995453
 30
0.0
 11
544.0
 21
-0.9999999999995453
 31
0.0
  0
LINE
  8
DETAIL
  6
CONTINUOUS
 62
     5
 10
544.0
 20
-0.9999999999995453
 30
0.0
 11
540.59999999999991
 21
-0.9999999999995453
 31
0.0
  0
LINE
  8
DETAIL
  6
CONTINUOUS
 62
     5
 10
540.59999999999991
 20
-3.3000000000006371
 30
0.0
 11
544.0
 21
-3.3000000000006371
 31
0.0
  0
LINE
  8
DETAIL
  6
CONTINUOUS
 62
     5
 10
536.0
 20
-5.5999999999999091
 30
0.0
 11
538.30000000000018
 21
-5.5999999999999091
 31
0.0
  0
LINE
  8
DETAIL
  6
CONTINUOUS
 62
     5
 10
531.00000156850001
 20
-7.3000000000006366
 30
0.0
 11
542.0
 21
-7.3000000000006366
 31
0.0
  0
LINE
  8
DETAIL
  6
CONTINUOUS
 62
     5
 10
552.60999999999876
 20
-70.999999999999545
 30
0.0
 11
552.60999999999876
 21
-412.79999999999973
 31
0.0
  0
LINE
  8
DETAIL
  6
CONTINUOUS
 62
     5
 10
541.0
 20
-27.500000000001361
 30
0.0
 11
576.0
 21
-27.500000000001361
 31
0.0
  0
LINE
  8
DETAIL
  6
CONTINUOUS
 62
     5
 10
541.0
 20
-29.80000000000064
 30
0.0
 11
576.0
 21
-29.80000000000064
 31
0.0
  0
LINE
  8
DETAIL
  6
CONTINUOUS
 62
     5
 10
576.0
 20
-42.200000000000273
 30
0.0
 11
541.0
 21
-42.200000000000273
 31
0.0
  0
LINE
  8
DETAIL
  6
CONTINUOUS
 62
     5
 10
576.0
 20
-44.500000000001357
 30
0.0
 11
541.0
 21
-44.500000000001357
 31
0.0
  0
LINE
  8
DETAIL
  6
CONTINUOUS
 62
     5
 10
544.86064968049868
 20
-506.90972606949981
 30
0.0
 11
544.859883137
 21
-506.80968263549988
 31
0.0
  0
LINE
  8
DETAIL
  6
CONTINUOUS
 62
     5
 10
577.71572875250013
 20
-70.999999999999545
 30
0.0
 11
501.0
 21
-70.999999999999545
 31
0.0
  0
LINE
  8
DETAIL
  6
CONTINUOUS
 62
     5
 10
499.13083891450009
 20
-48.047308806498677
 30
0.0
 11
498.79942978249977
 21
-48.381273637001406
 31
0.0
  0
LINE
  8
DETAIL
  6
CONTINUOUS
 62
     5
 10
498.79942978249977
 20
-48.381273637001406
 30
0.0
 11
498.46509838050002
 21
-48.714991157999521
 31
0.0
  0
LINE
  8
DETAIL
  6
CONTINUOUS
 62
     5
 10
498.46509838050002
 20
-48.714991157999521
 30
0.0
 11
498.12786311599979
 21
-49.04846632950057
 31
0.0
  0
LINE
  8
DETAIL
  6
CONTINUOUS
 62
     5
 10
498.12786311599979
 20
-49.04846632950057
 30
0.0
 11
497.78766876700001
 21
-49.381684273000701
 31
0.0
  0
LINE
  8
DETAIL
  6
CONTINUOUS
 62
     5
 10
497.78766876700001
 20
-49.381684273000701
 30
0.0
 11
497.44446011150012
 21
-49.714630112500799
 31
0.0
  0
LINE
  8
DETAIL
  6
CONTINUOUS
 62
     5
 10
497.44446011150012
 20
-49.714630112500799
 30
0.0
 11
497.09825555650008
 21
-50.047308806500503
 31
0.0
  0
LINE
  8
DETAIL
  6
CONTINUOUS
 62
     5
 10
449.19999999999891
 20
-355.29999999999973
 30
0.0
 11
449.19999999999891
 21
-57.299999999999947
 31
0.0
  0
LINE
  8
DETAIL
  6
CONTINUOUS
 62
     5
 10
610.14213562350005
 20
-46.857864376000627
 30
0.0
 11
591.85786437649995
 21
-65.142135623501872
 31
0.0
  0
LINE
  8
DETAIL
  6
CONTINUOUS
 62
     5
 10
497.09825555650008
 20
-50.047308806500503
 30
0.0
 11
496.69213625700007
 21
-50.794635201001711
 31
0.0
  0
LINE
  8
DETAIL
  6
CONTINUOUS
 62
     5
 10
496.69213625700007
 20
-50.794635201001711
 30
0.0
 11
496.27055935750008
 21
-51.461479561501157
 31
0.0
  0
LINE
  8
DETAIL
  6
CONTINUOUS
 62
     5
 10
496.27055935750008
 20
-51.461479561501157
 30
0.0
 11
495.83773964000011
 21
-52.035551281001517
 31
0.0
  0
LINE
  8
DETAIL
  6
CONTINUOUS
 62
     5
 10
495.83773964000011
 20
-52.035551281001517
 30
0.0
 11
495.38103275700001
 21
-52.553722181999092
 31
0.0
  0
LINE
  8
DETAIL
  6
CONTINUOUS
 62
     5
 10
495.38103275700001
 20
-52.553722181999092
 30
0.0
 11
494.88779436200002
 21
-53.052864087999751
 31
0.0
  0
LINE
  8
DETAIL
  6
CONTINUOUS
 62
     5
 10
494.88779436200002
 20
-53.052864087999751
 30
0.0
 11
494.36223923749998
 21
-53.520686391000247
 31
0.0
  0
LINE
  8
DETAIL
  6
CONTINUOUS
 62
     5
 10
521.63496633449995
 20
-13.793414133000169
 30
0.0
 11
521.89170259150023
 21
-13.171913187000881
 31
0.0
  0
LINE
  8
DETAIL
  6
CONTINUOUS
 62
     5
 10
521.89170259150023
 20
-13.171913187000881
 30
0.0
 11
522.18924749149983
 21
-12.570239054000471
 31
0.0
  0
LINE
  8
DETAIL
  6
CONTINUOUS
 62
     5
 10
522.18924749149983
 20
-12.570239054000471
 30
0.0
 11
522.528839565
 21
-11.986384209499651
 31
0.0
  0
LINE
  8
DETAIL
  6
CONTINUOUS
 62
     5
 10
522.528839565
 20
-11.986384209499651
 30
0.0
 11
522.90676321950014
 21
-11.42637122550104
 31
0.0
  0
LINE
  8
DETAIL
  6
CONTINUOUS
 62
     5
 10
522.90676321950014
 20
-11.42637122550104
 30
0.0
 11
523.32007392900005
 21
-10.89540588599948
 31
0.0
  0
LINE
  8
DETAIL
  6
CONTINUOUS
 62
     5
 10
523.32007392900005
 20
-10.89540588599948
 30
0.0
 11
523.76769703050013
 21
-10.393931031499511
 31
0.0
  0
LINE
  8
DETAIL
  6
CONTINUOUS
 62
     5
 10
523.76769703050013
 20
-10.393931031499511
 30
0.0
 11
524.24811074599984
 21
-9.9235540139993645
 31
0.0
  0
LINE
  8
DETAIL
  6
CONTINUOUS
 62
     5
 10
524.24811074599984
 20
-9.9235540139993645
 30
0.0
 11
524.75971189450001
 21
-9.4859870849991239
 31
0.0
  0
LINE
  8
DETAIL
  6
CONTINUOUS
 62
     5
 10
524.75971189450001
 20
-9.4859870849991239
 30
0.0
 11
525.30204750749999
 21
-9.0824275050013057
 31
0.0
  0
LINE
  8
DETAIL
  6
CONTINUOUS
 62
     5
 10
525.30204750749999
 20
-9.0824275050013057
 30
0.0
 11
525.87014517350008
 21
-8.7160275985002045
 31
0.0
  0
LINE
  8
DETAIL
  6
CONTINUOUS
 62
     5
 10
525.87014517350008
 20
-8.7160275985002045
 30
0.0
 11
526.45930211299992
 21
-8.3903394610001669
 31
0.0
  0
LINE
  8
DETAIL
  6
CONTINUOUS
 62
     5
 10
526.45930211299992
 20
-8.3903394610001669
 30
0.0
 11
527.06825646349989
 21
-8.1053610395006217
 31
0.0
  0
LINE
  8
DETAIL
  6
CONTINUOUS
 62
     5
 10
527.06825646349989
 20
-8.1053610395006217
 30
0.0
 11
527.69486158400014
 21
-7.8619842655002694
 31
0.0
  0
LINE
  8
DETAIL
  6
CONTINUOUS
 62
     5
 10
527.69486158400014
 20
-7.8619842655002694
 30
0.0
 11
528.33706903050006
 21
-7.6610792780006696
 31
0.0
  0
LINE
  8
DETAIL
  6
CONTINUOUS
 62
     5
 10
528.33706903050006
 20
-7.6610792780006696
 30
0.0
 11
528.99408460150016
 21
-7.5035022210008719
 31
0.0
  0
LINE
  8
DETAIL
  6
CONTINUOUS
 62
     5
 10
528.99408460150016
 20
-7.5035022210008719
 30
0.0
 11
529.65999893150001
 21
-7.3901870080003391
 31
0.0
  0
LINE
  8
DETAIL
  6
CONTINUOUS
 62
     5
 10
529.65999893150001
 20
-7.3901870080003391
 30
0.0
 11
530.32786615799978
 21
-7.3225053460023446
 31
0.0
  0
LINE
  8
DETAIL
  6
CONTINUOUS
 62
     5
 10
530.32786615799978
 20
-7.3225053460023446
 30
0.0
 11
531.00000156850001
 21
-7.3000000000006366
 31
0.0
  0
LINE
  8
DETAIL
  6
CONTINUOUS
 62
     5
 10
521.63329989349995
 20
-13.79467247550156
 30
0.0
 11
520.51088965600002
 21
-16.65120798750058
 31
0.0
  0
LINE
  8
DETAIL
  6
CONTINUOUS
 62
     5
 10
520.51088965600002
 20
-16.65120798750058
 30
0.0
 11
519.31076780300009
 21
-19.447945684001301
 31
0.0
  0
LINE
  8
DETAIL
  6
CONTINUOUS
 62
     5
 10
519.31076780300009
 20
-19.447945684001301
 30
0.0
 11
518.03331025750003
 21
-22.183422765999691
 31
0.0
  0
LINE
  8
DETAIL
  6
CONTINUOUS
 62
     5
 10
518.03331025750003
 20
-22.183422765999691
 30
0.0
 11
516.677389253
 21
-24.862027631500951
 31
0.0
  0
LINE
  8
DETAIL
  6
CONTINUOUS
 62
     5
 10
516.677389253
 20
-24.862027631500951
 30
0.0
 11
515.24165986000025
 21
-27.48918087300035
 31
0.0
  0
LINE
  8
DETAIL
  6
CONTINUOUS
 62
     5
 10
515.24165986000025
 20
-27.48918087300035
 30
0.0
 11
513.72714949049987
 21
-30.060323110000809
 31
0.0
  0
LINE
  8
DETAIL
  6
CONTINUOUS
 62
     5
 10
513.72714949049987
 20
-30.060323110000809
 30
0.0
 11
512.13252392699997
 21
-32.575628441501522
 31
0.0
  0
LINE
  8
DETAIL
  6
CONTINUOUS
 62
     5
 10
512.13252392699997
 20
-32.575628441501522
 30
0.0
 11
510.46352313050011
 21
-35.026317019500773
 31
0.0
  0
LINE
  8
DETAIL
  6
CONTINUOUS
 62
     5
 10
510.46352313050011
 20
-35.026317019500773
 30
0.0
 11
508.72341297850022
 21
-37.405853873000069
 31
0.0
  0
LINE
  8
DETAIL
  6
CONTINUOUS
 62
     5
 10
508.72341297850022
 20
-37.405853873000069
 30
0.0
 11
506.91828149649967
 21
-39.707678465999827
 31
0.0
  0
LINE
  8
DETAIL
  6
CONTINUOUS
 62
     5
 10
506.91828149649967
 20
-39.707678465999827
 30
0.0
 11
505.05503324199981
 21
-41.922703059999087
 31
0.0
  0
LINE
  8
DETAIL
  6
CONTINUOUS
 62
     5
 10
505.05503324199981
 20
-41.922703059999087
 30
0.0
 11
503.13448449450021
 21
-44.051974288500332
 31
0.0
  0
LINE
  8
DETAIL
  6
CONTINUOUS
 62
     5
 10
503.13448449450021
 20
-44.051974288500332
 30
0.0
 11
501.16014277649992
 21
-46.093261710500428
 31
0.0
  0
LINE
  8
DETAIL
  6
CONTINUOUS
 62
     5
 10
501.16014277649992
 20
-46.093261710500428
 30
0.0
 11
499.13083891450009
 21
-48.047308806498677
 31
0.0
  0
LINE
  8
DETAIL
  6
CONTINUOUS
 62
     5
 10
543.70790330049931
 20
-506.88345564149989
 30
0.0
 11
567.70167343199864
 21
-507.43025988300002
 31
0.0
  0
LINE
  8
DETAIL
  6
CONTINUOUS
 62
     5
 10
575.81367010649819
 20
-503.21398518930027
 30
0.0
 11
135.81367010649731
 21
-493.18663787845247
 31
0.0
  0
LINE
  8
DETAIL
  6
CONTINUOUS
 62
     5
 10
135.81367010649771
 20
-463.19999999999982
 30
0.0
 11
575.81367010649819
 21
-463.19999999999982
 31
0.0
  0
LINE
  8
DETAIL
  6
CONTINUOUS
 62
     5
 10
565.19999999999891
 20
-457.79999999999973
 30
0.0
 11
-536.0
 21
-457.79999999999973
 31
0.0
  0
LINE
  8
DETAIL
  6
CONTINUOUS
 62
     5
 10
135.81367010649771
 20
-457.79999999999973
 30
0.0
 11
135.81367010649731
 21
-493.18663787845247
 31
0.0
  0
LINE
  8
DETAIL
  6
CONTINUOUS
 62
     5
 10
565.19999999999891
 20
-412.79999999999973
 30
0.0
 11
-536.0
 21
-412.79999999999973
 31
0.0
  0
LINE
  8
DETAIL
  6
CONTINUOUS
 62
     5
 10
449.19999999999891
 20
-355.29999999999973
 30
0.0
 11
-448.80000000000018
 21
-355.29999999999973
 31
0.0
  0
LINE
  8
DETAIL
  6
CONTINUOUS
 62
     5
 10
616.0
 20
-0.9999999999995453
 30
0.0
 11
616.0
 21
-32.715728752501953
 31
0.0
  0
LINE
  8
DETAIL
  6
CONTINUOUS
 62
     5
 10
-615.60000000000036
 20
-32.715728752498308
 30
0.0
 11
-615.60000000000036
 21
-0.9999999999995453
 31
0.0
  0
LINE
  8
DETAIL
  6
CONTINUOUS
 62
     5
 10
-575.60000000000036
 20
-27.49999999999773
 30
0.0
 11
-575.60000000000036
 21
-29.799999999998821
 31
0.0
  0
LINE
  8
DETAIL
  6
CONTINUOUS
 62
     5
 10
576.0
 20
-44.500000000001357
 30
0.0
 11
576.0
 21
-42.200000000000273
 31
0.0
  0
LINE
  8
DETAIL
  6
CONTINUOUS
 62
     5
 10
576.0
 20
-27.500000000001361
 30
0.0
 11
576.0
 21
-29.80000000000064
 31
0.0
  0
LINE
  8
DETAIL
  6
CONTINUOUS
 62
     5
 10
-575.60000000000036
 20
-44.499999999997733
 30
0.0
 11
-575.60000000000036
 21
-42.200000000000273
 31
0.0
  0
LINE
  8
DETAIL
  6
CONTINUOUS
 62
     5
 10
544.0
 20
-5.3000000000006366
 30
0.0
 11
544.0
 21
-0.9999999999995453
 31
0.0
  0
LINE
  8
DETAIL
  6
CONTINUOUS
 62
     5
 10
-543.60000000000036
 20
-5.2999999999988177
 30
0.0
 11
-543.60000000000036
 21
-0.9999999999995453
 31
0.0
  0
LINE
  8
DETAIL
  6
CONTINUOUS
 62
     5
 10
-540.60000000000036
 20
-27.49999999999773
 30
0.0
 11
-540.60000000000036
 21
-29.799999999998821
 31
0.0
  0
LINE
  8
DETAIL
  6
CONTINUOUS
 62
     5
 10
541.0
 20
-44.500000000001357
 30
0.0
 11
541.0
 21
-42.200000000000273
 31
0.0
  0
LINE
  8
DETAIL
  6
CONTINUOUS
 62
     5
 10
541.0
 20
-27.500000000001361
 30
0.0
 11
541.0
 21
-29.80000000000064
 31
0.0
  0
LINE
  8
DETAIL
  6
CONTINUOUS
 62
     5
 10
-540.60000000000036
 20
-44.499999999997733
 30
0.0
 11
-540.60000000000036
 21
-42.200000000000273
 31
0.0
  0
LINE
  8
DETAIL
  6
CONTINUOUS
 62
     5
 10
-540.10000000000036
 20
-1.0010870849978351
 30
0.0
 11
-540.10000000000036
 21
-3.302174941497924
 31
0.0
  0
LINE
  8
DETAIL
  6
CONTINUOUS
 62
     5
 10
540.5
 20
-1.001087085001473
 30
0.0
 11
540.5
 21
-3.3021749410013399
 31
0.0
  0
LINE
  8
DETAIL
  6
CONTINUOUS
 62
     5
 10
-537.89999999999964
 20
-5.5999999999999091
 30
0.0
 11
-537.89999999999964
 21
-7.2999999999988177
 31
0.0
  0
LINE
  8
DETAIL
  6
CONTINUOUS
 62
     5
 10
538.30000000000018
 20
-5.5999999999999091
 30
0.0
 11
538.30000000000018
 21
-7.3000000000006366
 31
0.0
  0
LINE
  8
DETAIL
  6
CONTINUOUS
 62
     5
 10
-535.60000000000036
 20
-5.5999999999999091
 30
0.0
 11
-535.60000000000036
 21
-7.2999999999988177
 31
0.0
  0
LINE
  8
DETAIL
  6
CONTINUOUS
 62
     5
 10
536.0
 20
-0.9999999999995453
 30
0.0
 11
536.0
 21
-7.3000000000006366
 31
0.0
  0
LINE
  8
DETAIL
  6
CONTINUOUS
 62
     5
 10
449.19999999999891
 20
-57.299999999999947
 30
0.0
 11
-448.80000000000109
 21
-57.299999999999947
 31
0.0
  0
LINE
  8
DETAIL
  6
CONTINUOUS
 62
     5
 10
536.0
 20
0.0
 30
0.0
 11
-536.0
 21
0.0
 31
0.0
  0
LINE
  8
DETAIL
  6
CONTINUOUS
 62
     5
 10
-521.23329989349986
 20
-13.79467247599996
 30
0.0
 11
-520.11088965599993
 21
-16.651207988000809
 31
0.0
  0
LINE
  8
DETAIL
  6
CONTINUOUS
 62
     5
 10
-520.11088965599993
 20
-16.651207988000809
 30
0.0
 11
-518.91076780300045
 21
-19.4479456844997
 31
0.0
  0
LINE
  8
DETAIL
  6
CONTINUOUS
 62
     5
 10
-518.91076780300045
 20
-19.4479456844997
 30
0.0
 11
-517.63331025749994
 21
-22.18342276649992
 31
0.0
  0
LINE
  8
DETAIL
  6
CONTINUOUS
 62
     5
 10
-517.63331025749994
 20
-22.18342276649992
 30
0.0
 11
-516.27738925300036
 21
-24.86202763199935
 31
0.0
  0
LINE
  8
DETAIL
  6
CONTINUOUS
 62
     5
 10
-516.27738925300036
 20
-24.86202763199935
 30
0.0
 11
-514.84165985999971
 21
-27.48918087349875
 31
0.0
  0
LINE
  8
DETAIL
  6
CONTINUOUS
 62
     5
 10
-514.84165985999971
 20
-27.48918087349875
 30
0.0
 11
-513.32714949050023
 21
-30.06032310999899
 31
0.0
  0
LINE
  8
DETAIL
  6
CONTINUOUS
 62
     5
 10
-513.32714949050023
 20
-30.06032310999899
 30
0.0
 11
-511.73252392700027
 21
-32.575628441998113
 31
0.0
  0
LINE
  8
DETAIL
  6
CONTINUOUS
 62
     5
 10
-511.73252392700027
 20
-32.575628441998113
 30
0.0
 11
-510.06352313050053
 21
-35.026317019498947
 31
0.0
  0
LINE
  8
DETAIL
  6
CONTINUOUS
 62
     5
 10
-510.06352313050053
 20
-35.026317019498947
 30
0.0
 11
-508.32341297849962
 21
-37.405853873500291
 31
0.0
  0
LINE
  8
DETAIL
  6
CONTINUOUS
 62
     5
 10
-508.32341297849962
 20
-37.405853873500291
 30
0.0
 11
-506.51828149650009
 21
-39.707678466500063
 31
0.0
  0
LINE
  8
DETAIL
  6
CONTINUOUS
 62
     5
 10
-506.51828149650009
 20
-39.707678466500063
 30
0.0
 11
-504.65503324200017
 21
-41.922703060499323
 31
0.0
  0
LINE
  8
DETAIL
  6
CONTINUOUS
 62
     5
 10
-504.65503324200017
 20
-41.922703060499323
 30
0.0
 11
-502.73448449450012
 21
-44.051974288496687
 31
0.0
  0
LINE
  8
DETAIL
  6
CONTINUOUS
 62
     5
 10
-502.73448449450012
 20
-44.051974288496687
 30
0.0
 11
-500.76014277650029
 21
-46.093261710998831
 31
0.0
  0
LINE
  8
DETAIL
  6
CONTINUOUS
 62
     5
 10
-500.76014277650029
 20
-46.093261710998831
 30
0.0
 11
-498.73083891450011
 21
-48.047308806498677
 31
0.0
  0
LINE
  8
DETAIL
  6
CONTINUOUS
 62
     5
 10
-521.23496633450031
 20
-13.793414133498571
 30
0.0
 11
-521.49170259150014
 21
-13.171913187499291
 31
0.0
  0
LINE
  8
DETAIL
  6
CONTINUOUS
 62
     5
 10
-521.49170259150014
 20
-13.171913187499291
 30
0.0
 11
-521.78924749149974
 21
-12.57023905449887
 31
0.0
  0
LINE
  8
DETAIL
  6
CONTINUOUS
 62
     5
 10
-521.78924749149974
 20
-12.57023905449887
 30
0.0
 11
-522.12883956499991
 21
-11.986384209999869
 31
0.0
  0
LINE
  8
DETAIL
  6
CONTINUOUS
 62
     5
 10
-522.12883956499991
 20
-11.986384209999869
 30
0.0
 11
-522.5067632195005
 21
-11.426371225997631
 31
0.0
  0
LINE
  8
DETAIL
  6
CONTINUOUS
 62
     5
 10
-522.5067632195005
 20
-11.426371225997631
 30
0.0
 11
-522.92007392899995
 21
-10.895405886499701
 31
0.0
  0
LINE
  8
DETAIL
  6
CONTINUOUS
 62
     5
 10
-522.92007392899995
 20
-10.895405886499701
 30
0.0
 11
-523.36769703050049
 21
-10.393931031499511
 31
0.0
  0
LINE
  8
DETAIL
  6
CONTINUOUS
 62
     5
 10
-523.36769703050049
 20
-10.393931031499511
 30
0.0
 11
-523.8481107460002
 21
-9.9235540144995866
 31
0.0
  0
LINE
  8
DETAIL
  6
CONTINUOUS
 62
     5
 10
-523.8481107460002
 20
-9.9235540144995866
 30
0.0
 11
-524.35971189449992
 21
-9.485987085497527
 31
0.0
  0
LINE
  8
DETAIL
  6
CONTINUOUS
 62
     5
 10
-524.35971189449992
 20
-9.485987085497527
 30
0.0
 11
-524.90204750750036
 21
-9.0824275054978898
 31
0.0
  0
LINE
  8
DETAIL
  6
CONTINUOUS
 62
     5
 10
-524.90204750750036
 20
-9.0824275054978898
 30
0.0
 11
-525.47014517349999
 21
-8.7160275989986076
 31
0.0
  0
LINE
  8
DETAIL
  6
CONTINUOUS
 62
     5
 10
-525.47014517349999
 20
-8.7160275989986076
 30
0.0
 11
-526.05930211299983
 21
-8.39033946149857
 31
0.0
  0
LINE
  8
DETAIL
  6
CONTINUOUS
 62
     5
 10
-526.05930211299983
 20
-8.39033946149857
 30
0.0
 11
-526.66825646350026
 21
-8.1053610400008438
 31
0.0
  0
LINE
  8
DETAIL
  6
CONTINUOUS
 62
     5
 10
-526.66825646350026
 20
-8.1053610400008438
 30
0.0
 11
-527.29486158399959
 21
-7.8619842659986716
 31
0.0
  0
LINE
  8
DETAIL
  6
CONTINUOUS
 62
     5
 10
-527.29486158399959
 20
-7.8619842659986716
 30
0.0
 11
-527.93706903050042
 21
-7.6610792784990744
 31
0.0
  0
LINE
  8
DETAIL
  6
CONTINUOUS
 62
     5
 10
-527.93706903050042
 20
-7.6610792784990744
 30
0.0
 11
-528.59408460150007
 21
-7.503502221501094
 31
0.0
  0
LINE
  8
DETAIL
  6
CONTINUOUS
 62
     5
 10
-528.59408460150007
 20
-7.503502221501094
 30
0.0
 11
-529.25999893150038
 21
-7.3901870084987422
 31
0.0
  0
LINE
  8
DETAIL
  6
CONTINUOUS
 62
     5
 10
-529.25999893150038
 20
-7.3901870084987422
 30
0.0
 11
-529.92786615800014
 21
-7.3225053464989287
 31
0.0
  0
LINE
  8
DETAIL
  6
CONTINUOUS
 62
     5
 10
-529.92786615800014
 20
-7.3225053464989287
 30
0.0
 11
-530.60000156850037
 21
-7.2999999999988177
 31
0.0
  0
LINE
  8
DETAIL
  6
CONTINUOUS
 62
     5
 10
-496.69825555649999
 20
-50.047308806998899
 30
0.0
 11
-496.29213625700049
 21
-50.794635200998073
 31
0.0
  0
LINE
  8
DETAIL
  6
CONTINUOUS
 62
     5
 10
-496.29213625700049
 20
-50.794635200998073
 30
0.0
 11
-495.87055935749959
 21
-51.461479561999568
 31
0.0
  0
LINE
  8
DETAIL
  6
CONTINUOUS
 62
     5
 10
-495.87055935749959
 20
-51.461479561999568
 30
0.0
 11
-495.43773964000047
 21
-52.035551280997879
 31
0.0
  0
LINE
  8
DETAIL
  6
CONTINUOUS
 62
     5
 10
-495.43773964000047
 20
-52.035551280997879
 30
0.0
 11
-494.98103275700032
 21
-52.553722182499307
 31
0.0
  0
LINE
  8
DETAIL
  6
CONTINUOUS
 62
     5
 10
-494.98103275700032
 20
-52.553722182499307
 30
0.0
 11
-494.48779436200039
 21
-53.052864088499973
 31
0.0
  0
LINE
  8
DETAIL
  6
CONTINUOUS
 62
     5
 10
-494.48779436200039
 20
-53.052864088499973
 30
0.0
 11
-493.9622392375004
 21
-53.520686391500483
 31
0.0
  0
LINE
  8
DETAIL
  6
CONTINUOUS
 62
     5
 10
-609.74213562349996
 20
-46.857864376499037
 30
0.0
 11
-591.45786437649986
 21
-65.142135623998456
 31
0.0
  0
LINE
  8
DETAIL
  6
CONTINUOUS
 62
     5
 10
-448.80000000000018
 20
-355.29999999999973
 30
0.0
 11
-448.80000000000109
 21
-57.299999999999947
 31
0.0
  0
LINE
  8
DETAIL
  6
CONTINUOUS
 62
     5
 10
-577.31572875250004
 20
-70.999999999999545
 30
0.0
 11
-500.60000000000042
 21
-70.999999999999545
 31
0.0
  0
LINE
  8
DETAIL
  6
CONTINUOUS
 62
     5
 10
-498.73083891450011
 20
-48.047308806498677
 30
0.0
 11
-498.39942978250019
 21
-48.381273637499817
 31
0.0
  0
LINE
  8
DETAIL
  6
CONTINUOUS
 62
     5
 10
-498.39942978250019
 20
-48.381273637499817
 30
0.0
 11
-498.06509838049988
 21
-48.714991158499743
 31
0.0
  0
LINE
  8
DETAIL
  6
CONTINUOUS
 62
     5
 10
-498.06509838049988
 20
-48.714991158499743
 30
0.0
 11
-497.72786311599981
 21
-49.048466329498751
 31
0.0
  0
LINE
  8
DETAIL
  6
CONTINUOUS
 62
     5
 10
-497.72786311599981
 20
-49.048466329498751
 30
0.0
 11
-497.38766876699992
 21
-49.381684273499097
 31
0.0
  0
LINE
  8
DETAIL
  6
CONTINUOUS
 62
     5
 10
-497.38766876699992
 20
-49.381684273499097
 30
0.0
 11
-497.04446011150048
 21
-49.714630112999203
 31
0.0
  0
LINE
  8
DETAIL
  6
CONTINUOUS
 62
     5
 10
-497.04446011150048
 20
-49.714630112999203
 30
0.0
 11
-496.69825555649999
 21
-50.047308806998899
 31
0.0
  0
LINE
  8
DETAIL
  6
CONTINUOUS
 62
     5
 10
-575.60000000000036
 20
-44.499999999997733
 30
0.0
 11
-540.60000000000036
 21
-44.499999999997733
 31
0.0
  0
LINE
  8
DETAIL
  6
CONTINUOUS
 62
     5
 10
-575.60000000000036
 20
-42.200000000000273
 30
0.0
 11
-540.60000000000036
 21
-42.200000000000273
 31
0.0
  0
LINE
  8
DETAIL
  6
CONTINUOUS
 62
     5
 10
-540.60000000000036
 20
-29.799999999998821
 30
0.0
 11
-575.60000000000036
 21
-29.799999999998821
 31
0.0
  0
LINE
  8
DETAIL
  6
CONTINUOUS
 62
     5
 10
-540.60000000000036
 20
-27.49999999999773
 30
0.0
 11
-575.60000000000036
 21
-27.49999999999773
 31
0.0
  0
LINE
  8
DETAIL
  6
CONTINUOUS
 62
     5
 10
-536.0
 20
-457.79999999999973
 30
0.0
 11
-536.0
 21
-70.999999999999545
 31
0.0
  0
LINE
  8
DETAIL
  6
CONTINUOUS
 62
     5
 10
-536.0
 20
-4.6181782224448398
 30
0.0
 11
-536.0
 21
0.0
 31
0.0
  0
LINE
  8
DETAIL
  6
CONTINUOUS
 62
     5
 10
-530.60000156850037
 20
-7.2999999999988177
 30
0.0
 11
-541.60000000000036
 21
-7.2999999999988177
 31
0.0
  0
LINE
  8
DETAIL
  6
CONTINUOUS
 62
     5
 10
-535.60000000000036
 20
-5.5999999999999091
 30
0.0
 11
-537.89999999999964
 21
-5.5999999999999091
 31
0.0
  0
LINE
  8
DETAIL
  6
CONTINUOUS
 62
     5
 10
-540.19999999999982
 20
-3.2999999999988181
 30
0.0
 11
-543.60000000000036
 21
-3.2999999999988181
 31
0.0
  0
LINE
  8
DETAIL
  6
CONTINUOUS
 62
     5
 10
-615.60000000000036
 20
-0.9999999999995453
 30
0.0
 11
-540.19999999999982
 21
-0.9999999999995453
 31
0.0
  0
ARC
  8
DETAIL
  6
CONTINUOUS
 62
     5
 10
577.71572875250013
 20
-50.999999999999552
 30
0.0
 40
20.0
 50
270.0
 51
315.00000000000921
  0
ARC
  8
DETAIL
  6
CONTINUOUS
 62
     5
 10
596.0
 20
-32.715728752501953
 30
0.0
 40
20.0
 50
315.00000000000921
 51
0.0000000000000064
  0
ARC
  8
DETAIL
  6
CONTINUOUS
 62
     5
 10
576.0
 20
-35.999999999999552
 30
0.0
 40
8.5
 50
270.0
 51
90.0
  0
ARC
  8
DETAIL
  6
CONTINUOUS
 62
     5
 10
576.0
 20
-35.999999999999552
 30
0.0
 40
6.2000000000000002
 50
270.0
 51
90.0
  0
ARC
  8
DETAIL
  6
CONTINUOUS
 62
     5
 10
501.0
 20
-60.999999999999552
 30
0.0
 40
10.0
 50
131.5884976778928
 51
270.0
  0
ARC
  8
DETAIL
  6
CONTINUOUS
 62
     5
 10
541.0
 20
-35.999999999999552
 30
0.0
 40
8.5
 50
90.0
 51
270.0
  0
ARC
  8
DETAIL
  6
CONTINUOUS
 62
     5
 10
541.0
 20
-35.999999999999552
 30
0.0
 40
6.2000000000000002
 50
90.0
 51
270.0
  0
ARC
  8
DETAIL
  6
CONTINUOUS
 62
     5
 10
540.59999999999991
 20
-5.5999999999999091
 30
0.0
 40
4.6000000000000014
 50
90.0
 51
180.0
  0
ARC
  8
DETAIL
  6
CONTINUOUS
 62
     5
 10
540.59999999999991
 20
-5.5999999999999091
 30
0.0
 40
2.2999999999999998
 50
90.0
 51
180.0
  0
ARC
  8
DETAIL
  6
CONTINUOUS
 62
     5
 10
542.0
 20
-5.3000000000006366
 30
0.0
 40
2.0
 50
270.0
 51
0.0000000000000064
  0
ARC
  8
DETAIL
  6
CONTINUOUS
 62
     5
 10
-595.60000000000036
 20
-32.715728752498308
 30
0.0
 40
20.0
 50
180.0
 51
224.99999999999079
  0
ARC
  8
DETAIL
  6
CONTINUOUS
 62
     5
 10
-577.31572875250004
 20
-50.999999999999552
 30
0.0
 40
20.0
 50
224.99999999999079
 51
270.0
  0
ARC
  8
DETAIL
  6
CONTINUOUS
 62
     5
 10
-575.60000000000036
 20
-35.999999999999552
 30
0.0
 40
8.5
 50
90.0
 51
270.0
  0
ARC
  8
DETAIL
  6
CONTINUOUS
 62
     5
 10
-575.60000000000036
 20
-35.999999999999552
 30
0.0
 40
6.2000000000000002
 50
90.0
 51
270.0
  0
ARC
  8
DETAIL
  6
CONTINUOUS
 62
     5
 10
-500.60000000000042
 20
-60.999999999999552
 30
0.0
 40
10.0
 50
270.0
 51
48.411502322070433
  0
ARC
  8
DETAIL
  6
CONTINUOUS
 62
     5
 10
-540.60000000000036
 20
-35.999999999999552
 30
0.0
 40
8.5
 50
270.0
 51
90.0
  0
ARC
  8
DETAIL
  6
CONTINUOUS
 62
     5
 10
-540.60000000000036
 20
-35.999999999999552
 30
0.0
 40
6.2000000000000002
 50
270.0
 51
90.0
  0
ARC
  8
DETAIL
  6
CONTINUOUS
 62
     5
 10
-540.19999999999982
 20
-5.5999999999999091
 30
0.0
 40
4.6000000000000014
 50
0.0000000000000064
 51
90.0
  0
ARC
  8
DETAIL
  6
CONTINUOUS
 62
     5
 10
-540.19999999999982
 20
-5.5999999999999091
 30
0.0
 40
2.2999999999999998
 50
0.0000000000000064
 51
90.0
  0
ARC
  8
DETAIL
  6
CONTINUOUS
 62
     5
 10
-541.60000000000036
 20
-5.2999999999988177
 30
0.0
 40
2.0
 50
180.0
 51
270.0
  0
LINE
  8
DETAIL
  6
CONTINUOUS
 62
     5
 39
50.0
 10
575.1999999999889
 20
-212.0
 30
0.0
 11
575.19999999999891
 21
-70.999999999999545
 31
0.0
  0
LINE
  8
DETAIL
  6
CONTINUOUS
 62
     5
 39
50.0
 10
552.60999999999876
 20
-212.0
 30
0.0
 11
575.1999999999889
 21
-212.0
 31
0.0
  0
LINE
  8
DETAIL
  6
CONTINUOUS
 62
     5
 39
50.0
 10
536.0
 20
0.0
 30
0.0
 11
536.0
 21
-0.9999999999995453
 31
0.0
  0
LINE
  8
OUTLINE
  6
CONTINUOUS
 62
     3
 10
566.54892705199927
 20
-507.40398945499959
 30
0.0
 11
566.55425029749858
 21
-507.30408480400001
 31
0.0
  0
LINE
  8
OUTLINE
  6
CONTINUOUS
 62
     3
 10
567.70167343199864
 20
-507.43025988300002
 30
0.0
 11
567.22802426824273
 21
-528.21398518930027
 31
0.0
  0
LINE
  8
OUTLINE
  6
CONTINUOUS
 62
     3
 10
566.55197194648235
 20
-507.40405884642701
 30
0.0
 11
566.65221939100047
 21
-503.00520098900012
 31
0.0
  0
LINE
  8
OUTLINE
  6
CONTINUOUS
 62
     3
 10
544.85760478598013
 20
-506.909656678072
 30
0.0
 11
544.95785223049825
 21
-502.51079881999982
 31
0.0
  0
LINE
  8
OUTLINE
  6
CONTINUOUS
 62
     3
 10
543.70790330049931
 20
-506.88345564149989
 30
0.0
 11
543.23133844548738
 21
-527.79512148020194
 31
0.0
  0
LINE
  8
OUTLINE
  6
CONTINUOUS
 62
     3
 10
575.81367010649819
 20
-503.21398518930027
 30
0.0
 11
575.81367010649819
 21
-463.19999999999982
 31
0.0
  0
LINE
  8
OUTLINE
  6
CONTINUOUS
 62
     3
 10
565.19999999999891
 20
-463.19999999999982
 30
0.0
 11
565.19999999999891
 21
-412.79999999999973
 31
0.0
  0
LINE
  8
OUTLINE
  6
CONTINUOUS
 62
     3
 10
616.0
 20
-0.9999999999995453
 30
0.0
 11
536.0
 21
-0.9999999999995453
 31
0.0
  0
LINE
  8
OUTLINE
  6
CONTINUOUS
 62
     3
 10
552.60999999999876
 20
-212.0
 30
0.0
 11
552.60999999999876
 21
-412.79999999999973
 31
0.0
  0
LINE
  8
OUTLINE
  6
CONTINUOUS
 62
     3
 10
544.86064968049868
 20
-506.90972606949981
 30
0.0
 11
544.859883137
 21
-506.80968263549988
 31
0.0
  0
LINE
  8
OUTLINE
  6
CONTINUOUS
 62
     3
 10
577.71572875250013
 20
-70.999999999999545
 30
0.0
 11
575.19999999999891
 21
-70.999999999999545
 31
0.0
  0
LINE
  8
OUTLINE
  6
CONTINUOUS
 62
     3
 10
610.14213562350005
 20
-46.857864376000627
 30
0.0
 11
591.85786437649995
 21
-65.142135623501872
 31
0.0
  0
LINE
  8
OUTLINE
  6
CONTINUOUS
 62
     3
 10
543.70790330049931
 20
-506.88345564149989
 30
0.0
 11
544.85760478598013
 21
-506.909656678072
 31
0.0
  0
LINE
  8
OUTLINE
  6
CONTINUOUS
 62
     3
 10
566.55197194648235
 20
-507.40405884642701
 30
0.0
 11
567.70167343199864
 21
-507.43025988300002
 31
0.0
  0
LINE
  8
OUTLINE
  6
CONTINUOUS
 62
     3
 10
575.81367010649819
 20
-503.21398518930027
 30
0.0
 11
566.65221939100365
 21
-503.0052009888559
 31
0.0
  0
LINE
  8
OUTLINE
  6
CONTINUOUS
 62
     3
 10
544.95785223049415
 20
-502.51079882020258
 30
0.0
 11
135.81367010649731
 21
-493.18663787845247
 31
0.0
  0
LINE
  8
OUTLINE
  6
CONTINUOUS
 62
     3
 10
135.8136701064968
 20
-457.80000000000001
 30
0.0
 11
-536.0
 21
-457.79999999999973
 31
0.0
  0
LINE
  8
OUTLINE
  6
CONTINUOUS
 62
     3
 10
135.8136701064968
 20
-457.80000000000001
 30
0.0
 11
135.81367010649731
 21
-493.18663787845247
 31
0.0
  0
LINE
  8
OUTLINE
  6
CONTINUOUS
 62
     3
 10
565.19999999999891
 20
-412.79999999999973
 30
0.0
 11
552.60999999999876
 21
-412.79999999999973
 31
0.0
  0
LINE
  8
OUTLINE
  6
CONTINUOUS
 62
     3
 10
616.0
 20
-0.9999999999995453
 30
0.0
 11
616.0
 21
-32.715728752501953
 31
0.0
  0
LINE
  8
OUTLINE
  6
CONTINUOUS
 62
     3
 10
-615.60000000000036
 20
-32.715728752498308
 30
0.0
 11
-615.60000000000036
 21
-0.9999999999995453
 31
0.0
  0
LINE
  8
OUTLINE
  6
CONTINUOUS
 62
     3
 10
536.0
 20
0.0
 30
0.0
 11
-536.0
 21
0.0
 31
0.0
  0
LINE
  8
OUTLINE
  6
CONTINUOUS
 62
     3
 10
-609.74213562349996
 20
-46.857864376499037
 30
0.0
 11
-591.45786437649986
 21
-65.142135623998456
 31
0.0
  0
LINE
  8
OUTLINE
  6
CONTINUOUS
 62
     3
 10
-577.31572875250004
 20
-70.999999999999545
 30
0.0
 11
-536.80000000000018
 21
-70.999999999999545
 31
0.0
  0
LINE
  8
OUTLINE
  6
CONTINUOUS
 62
     3
 10
-536.0
 20
-457.79999999999973
 30
0.0
 11
-535.99999999999909
 21
-70.999999999999545
 31
0.0
  0
LINE
  8
OUTLINE
  6
CONTINUOUS
 62
     3
 10
-536.0
 20
-0.9999999999995453
 30
0.0
 11
-536.0
 21
0.0
 31
0.0
  0
LINE
  8
OUTLINE
  6
CONTINUOUS
 62
     3
 10
-615.60000000000036
 20
-0.9999999999995453
 30
0.0
 11
-536.0
 21
-0.9999999999995453
 31
0.0
  0
ARC
  8
OUTLINE
  6
CONTINUOUS
 62
     3
 10
577.71572875250013
 20
-50.999999999999552
 30
0.0
 40
20.0
 50
270.0
 51
315.00000000000921
  0
ARC
  8
OUTLINE
  6
CONTINUOUS
 62
     3
 10
596.0
 20
-32.715728752501953
 30
0.0
 40
20.0
 50
315.00000000000921
 51
0.0000000000000064
  0
ARC
  8
OUTLINE
  6
CONTINUOUS
 62
     3
 10
-595.60000000000036
 20
-32.715728752498308
 30
0.0
 40
20.0
 50
180.0
 51
224.99999999999079
  0
ARC
  8
OUTLINE
  6
CONTINUOUS
 62
     3
 10
-577.31572875250004
 20
-50.999999999999552
 30
0.0
 40
20.0
 50
224.99999999999079
 51
270.0
  0
LINE
  8
OUTLINE
  6
CONTINUOUS
 62
     3
 39
50.0
 10
575.1999999999889
 20
-212.0
 30
0.0
 11
575.19999999999891
 21
-70.999999999999545
 31
0.0
  0
LINE
  8
OUTLINE
  6
CONTINUOUS
 62
     3
 39
50.0
 10
552.60999999999876
 20
-212.0
 30
0.0
 11
575.1999999999889
 21
-212.0
 31
0.0
  0
LINE
  8
OUTLINE
  6
CONTINUOUS
 62
     3
 39
50.0
 10
536.0
 20
0.0
 30
0.0
 11
536.0
 21
-0.9999999999995453
 31
0.0
  0
LINE
  8
OUTLINE
  6
CONTINUOUS
 62
     3
 39
50.0
 10
575.81367010649819
 20
-463.19999999999982
 30
0.0
 11
565.19999999999891
 21
-463.19999999999982
 31
0.0
  0
LINE
  8
BASIS
  6
DASHDOT
 62
     6
 10
0.0
 20
146.32559193781029
 30
0.0
 11
0.0
 21
-597.93496994601219
 31
0.0
  0
LINE
  8
NOTE
  6
CENTER
 62
     4
 10
-569.0
 20
51.631926644668511
 30
0.0
 11
-569.0
 21
-91.83469564511006
 31
0.0
  0
LINE
  8
NOTE
  6
CENTER
 62
     4
 10
569.0
 20
41.002207029349393
 30
0.0
 11
569.0
 21
-92.35648967185216
 31
0.0
  0
LINE
  8
SIZE
  6
CONTINUOUS
 62
    30
 10
569.0
 20
61.002207029349393
 30
0.0
 11
569.0
 21
402.29078343995627
 31
0.0
  0
LINE
  8
SIZE
  6
CONTINUOUS
 62
    30
 10
-569.0
 20
71.631926644668511
 30
0.0
 11
-569.0
 21
402.29078343995627
 31
0.0
  0
LINE
  8
SIZE
  6
CONTINUOUS
 62
    30
 10
557.0
 20
382.29078343995627
 30
0.0
 11
-557.0
 21
382.29078343995627
 31
0.0
  0
CIRCLE
  8
SIZE
  6
CONTINUOUS
 62
    30
 10
569.0
 20
382.29078343995627
 30
0.0
 40
6.0
  0
LINE
  8
SIZE
  6
CONTINUOUS
 62
    30
 10
569.0
 20
382.29078343995627
 30
0.0
 11
557.0
 21
382.29078343995627
 31
0.0
  0
CIRCLE
  8
SIZE
  6
CONTINUOUS
 62
    30
 10
-569.0
 20
382.29078343995627
 30
0.0
 40
6.0
  0
LINE
  8
SIZE
  6
CONTINUOUS
 62
    30
 10
-569.0
 20
382.29078343995627
 30
0.0
 11
-557.0
 21
382.29078343995627
 31
0.0
  0
TEXT
  8
SIZE
  6
CONTINUOUS
 62
    30
 10
-95.616000000000014
 20
407.29078343995627
 30
0.0
 40
64.0
  1
1138
 50
0.0
 41
0.9
 51
0.0
  7
STANDARD
 71
     0
 72
     1
 11
0.0
 21
407.29078343995627
 31
0.0
210
0.0
220
0.0
230
1.0
  0
POINT
  8
DEFPOINTS
  6
CONTINUOUS
 62
    30
 10
569.0
 20
41.002207029349393
 30
0.0
  0
POINT
  8
DEFPOINTS
  6
CONTINUOUS
 62
    30
 10
-569.0
 20
51.631926644668511
 30
0.0
  0
POINT
  8
DEFPOINTS
  6
CONTINUOUS
 62
    30
 10
-569.0
 20
382.29078343995627
 30
0.0
  0
CIRCLE
  8
FIX
  6
CONTINUOUS
 62
    11
 39
50.0
 10
569.0
 20
-0.9999999999995453
 30
0.0
 40
10.0
  0
CIRCLE
  8
FIX
  6
CONTINUOUS
 62
    11
 39
50.0
 10
-569.0
 20
-0.9999999999995453
 30
0.0
 40
10.0
  0
LINE
  8
SIZE
  6
CONTINUOUS
 62
    30
 10
449.19999999999891
 20
-37.299999999999947
 30
0.0
 11
449.19999999999891
 21
169.5268956388104
 31
0.0
  0
LINE
  8
SIZE
  6
CONTINUOUS
 62
    30
 10
-448.80000000000109
 20
-37.299999999999947
 30
0.0
 11
-448.80000000000109
 21
169.5268956388104
 31
0.0
  0
LINE
  8
SIZE
  6
CONTINUOUS
 62
    30
 10
437.19999999999891
 20
149.5268956388104
 30
0.0
 11
-436.80000000000109
 21
149.5268956388104
 31
0.0
  0
CIRCLE
  8
SIZE
  6
CONTINUOUS
 62
    30
 10
449.19999999999891
 20
149.5268956388104
 30
0.0
 40
6.0
  0
LINE
  8
SIZE
  6
CONTINUOUS
 62
    30
 10
449.19999999999891
 20
149.5268956388104
 30
0.0
 11
437.19999999999891
 21
149.5268956388104
 31
0.0
  0
CIRCLE
  8
SIZE
  6
CONTINUOUS
 62
    30
 10
-448.80000000000109
 20
149.5268956388104
 30
0.0
 40
6.0
  0
LINE
  8
SIZE
  6
CONTINUOUS
 62
    30
 10
-448.80000000000109
 20
149.5268956388104
 30
0.0
 11
-436.80000000000109
 21
149.5268956388104
 31
0.0
  0
TEXT
  8
SIZE
  6
CONTINUOUS
 62
    30
 10
-80.152000000001095
 20
174.5268956388104
 30
0.0
 40
64.0
  1
898
 50
0.0
 41
0.9
 51
0.0
  7
STANDARD
 71
     0
 72
     1
 11
0.1999999999989086
 21
174.5268956388104
 31
0.0
210
0.0
220
0.0
230
1.0
  0
POINT
  8
DEFPOINTS
  6
CONTINUOUS
 62
    30
 10
449.19999999999891
 20
-57.299999999999947
 30
0.0
  0
POINT
  8
DEFPOINTS
  6
CONTINUOUS
 62
    30
 10
-448.80000000000109
 20
-57.299999999999947
 30
0.0
  0
POINT
  8
DEFPOINTS
  6
CONTINUOUS
 62
    30
 10
-448.80000000000109
 20
149.5268956388104
 30
0.0
  0
LINE
  8
SIZE
  6
CONTINUOUS
 62
    30
 10
616.0
 20
19.000000000000451
 30
0.0
 11
616.0
 21
518.07744521429117
 31
0.0
  0
LINE
  8
SIZE
  6
CONTINUOUS
 62
    30
 10
-615.60000000000036
 20
19.000000000000451
 30
0.0
 11
-615.60000000000036
 21
518.07744521429117
 31
0.0
  0
LINE
  8
SIZE
  6
CONTINUOUS
 62
    30
 10
604.0
 20
498.07744521429112
 30
0.0
 11
-603.60000000000036
 21
498.07744521429112
 31
0.0
  0
CIRCLE
  8
SIZE
  6
CONTINUOUS
 62
    30
 10
616.0
 20
498.07744521429112
 30
0.0
 40
6.0
  0
LINE
  8
SIZE
  6
CONTINUOUS
 62
    30
 10
616.0
 20
498.07744521429112
 30
0.0
 11
604.0
 21
498.07744521429112
 31
0.0
  0
CIRCLE
  8
SIZE
  6
CONTINUOUS
 62
    30
 10
-615.60000000000036
 20
498.07744521429112
 30
0.0
 40
6.0
  0
LINE
  8
SIZE
  6
CONTINUOUS
 62
    30
 10
-615.60000000000036
 20
498.07744521429112
 30
0.0
 11
-603.60000000000036
 21
498.07744521429112
 31
0.0
  0
TEXT
  8
SIZE
  6
CONTINUOUS
 62
    30
 10
-101.1760000000002
 20
523.07744521429117
 30
0.0
 40
64.0
  1
1232
 50
0.0
 41
0.9
 51
0.0
  7
STANDARD
 71
     0
 72
     1
 11
0.1999999999998181
 21
523.07744521429117
 31
0.0
210
0.0
220
0.0
230
1.0
  0
POINT
  8
DEFPOINTS
  6
CONTINUOUS
 62
    30
 10
616.0
 20
-0.9999999999995453
 30
0.0
  0
POINT
  8
DEFPOINTS
  6
CONTINUOUS
 62
    30
 10
-615.60000000000036
 20
-0.9999999999995453
 30
0.0
  0
POINT
  8
DEFPOINTS
  6
CONTINUOUS
 62
    30
 10
-615.60000000000036
 20
498.07744521429112
 30
0.0
  0
LINE
  8
SIZE
  6
CONTINUOUS
 62
    30
 10
575.81367010649819
 20
-523.21398518930027
 30
0.0
 11
575.81367010649819
 21
-688.88503115248886
 31
0.0
  0
LINE
  8
SIZE
  6
CONTINUOUS
 62
    30
 10
135.81367010649731
 20
-513.18663787845253
 30
0.0
 11
135.81367010649731
 21
-688.88503115248886
 31
0.0
  0
LINE
  8
SIZE
  6
CONTINUOUS
 62
    30
 10
563.81367010649819
 20
-668.88503115248886
 30
0.0
 11
147.81367010649731
 21
-668.88503115248886
 31
0.0
  0
CIRCLE
  8
SIZE
  6
CONTINUOUS
 62
    30
 10
575.81367010649819
 20
-668.88503115248886
 30
0.0
 40
6.0
  0
LINE
  8
SIZE
  6
CONTINUOUS
 62
    30
 10
575.81367010649819
 20
-668.88503115248886
 30
0.0
 11
563.81367010649819
 21
-668.88503115248886
 31
0.0
  0
CIRCLE
  8
SIZE
  6
CONTINUOUS
 62
    30
 10
135.81367010649731
 20
-668.88503115248886
 30
0.0
 40
6.0
  0
LINE
  8
SIZE
  6
CONTINUOUS
 62
    30
 10
135.81367010649731
 20
-668.88503115248886
 30
0.0
 11
147.81367010649731
 21
-668.88503115248886
 31
0.0
  0
TEXT
  8
SIZE
  6
CONTINUOUS
 62
    30
 10
273.7336701064977
 20
-643.88503115248886
 30
0.0
 40
64.0
  1
440
 50
0.0
 41
0.9
 51
0.0
  7
STANDARD
 71
     0
 72
     1
 11
355.81367010649768
 21
-643.88503115248886
 31
0.0
210
0.0
220
0.0
230
1.0
  0
POINT
  8
DEFPOINTS
  6
CONTINUOUS
 62
    30
 10
575.81367010649819
 20
-503.21398518930027
 30
0.0
  0
POINT
  8
DEFPOINTS
  6
CONTINUOUS
 62
    30
 10
135.81367010649731
 20
-493.18663787845247
 30
0.0
  0
POINT
  8
DEFPOINTS
  6
CONTINUOUS
 62
    30
 10
135.81367010649731
 20
-668.88503115248886
 30
0.0
  0
LINE
  8
SIZE
  6
CONTINUOUS
 62
    30
 10
469.19999999999891
 20
-57.299999999999962
 30
0.0
 11
952.08218986760039
 21
-57.300000000000097
 31
0.0
  0
LINE
  8
SIZE
  6
CONTINUOUS
 62
    30
 10
469.19999999999891
 20
-355.29999999999973
 30
0.0
 11
952.08218986760028
 21
-355.2999999999999
 31
0.0
  0
LINE
  8
SIZE
  6
CONTINUOUS
 62
    30
 10
932.08218986760039
 20
-69.300000000000097
 30
0.0
 11
932.08218986760028
 21
-343.2999999999999
 31
0.0
  0
CIRCLE
  8
SIZE
  6
CONTINUOUS
 62
    30
 10
932.08218986760039
 20
-57.30000000000009
 30
0.0
 40
6.0
  0
LINE
  8
SIZE
  6
CONTINUOUS
 62
    30
 10
932.08218986760039
 20
-57.30000000000009
 30
0.0
 11
932.08218986760039
 21
-69.300000000000097
 31
0.0
  0
CIRCLE
  8
SIZE
  6
CONTINUOUS
 62
    30
 10
932.08218986760028
 20
-355.2999999999999
 30
0.0
 40
6.0
  0
LINE
  8
SIZE
  6
CONTINUOUS
 62
    30
 10
932.08218986760028
 20
-355.2999999999999
 30
0.0
 11
932.08218986760028
 21
-343.2999999999999
 31
0.0
  0
TEXT
  8
SIZE
  6
CONTINUOUS
 62
    30
 10
907.08218986760039
 20
-286.6519999999997
 30
0.0
 40
64.0
  1
298
 50
90.0
 41
0.9
 51
0.0
  7
STANDARD
 71
     0
 72
     1
 11
907.08218986760039
 21
-206.2999999999997
 31
0.0
210
0.0
220
0.0
230
1.0
  0
POINT
  8
DEFPOINTS
  6
CONTINUOUS
 62
    30
 10
449.19999999999891
 20
-57.299999999999947
 30
0.0
  0
POINT
  8
DEFPOINTS
  6
CONTINUOUS
 62
    30
 10
449.19999999999891
 20
-355.29999999999973
 30
0.0
  0
POINT
  8
DEFPOINTS
  6
CONTINUOUS
 62
    30
 10
932.08218986760028
 20
-355.2999999999999
 30
0.0
  0
LINE
  8
DETAIL
  6
CONTINUOUS
 62
     5
 39
50.0
 10
543.23133844548715
 20
-527.79512148020183
 30
0.0
 11
567.22802426824239
 21
-528.21398518930027
 31
0.0
  0
LINE
  8
OUTLINE
  6
CONTINUOUS
 62
     3
 39
50.0
 10
567.22802426824273
 20
-528.21398518930027
 30
0.0
 11
543.23133844548738
 21
-527.79512148020194
 31
0.0
  0
LINE
  8
SIZE
  6
CONTINUOUS
 62
    30
 10
595.81367010649819
 20
-503.21398518930027
 30
0.0
 11
1172.666045805232
 21
-503.2139851893005
 31
0.0
  0
LINE
  8
SIZE
  6
CONTINUOUS
 62
    30
 10
587.22802426824273
 20
-528.21398518930027
 30
0.0
 11
1172.666045805232
 21
-528.21398518930039
 31
0.0
  0
LINE
  8
SIZE
  6
CONTINUOUS
 62
    30
 10
1152.666045805232
 20
-491.2139851893005
 30
0.0
 11
1152.666045805232
 21
-479.2139851893005
 31
0.0
  0
LINE
  8
SIZE
  6
CONTINUOUS
 62
    30
 10
1152.666045805232
 20
-540.21398518930039
 30
0.0
 11
1152.666045805232
 21
-695.47112804644325
 31
0.0
  0
LINE
  8
SIZE
  6
CONTINUOUS
 62
    30
 10
1152.666045805232
 20
-503.2139851893005
 30
0.0
 11
1152.666045805232
 21
-528.21398518930039
 31
0.0
  0
CIRCLE
  8
SIZE
  6
CONTINUOUS
 62
    30
 10
1152.666045805232
 20
-503.2139851893005
 30
0.0
 40
6.0
  0
LINE
  8
SIZE
  6
CONTINUOUS
 62
    30
 10
1152.666045805232
 20
-503.2139851893005
 30
0.0
 11
1152.666045805232
 21
-491.2139851893005
 31
0.0
  0
CIRCLE
  8
SIZE
  6
CONTINUOUS
 62
    30
 10
1152.666045805232
 20
-528.21398518930039
 30
0.0
 40
6.0
  0
LINE
  8
SIZE
  6
CONTINUOUS
 62
    30
 10
1152.666045805232
 20
-528.21398518930039
 30
0.0
 11
1152.666045805232
 21
-540.21398518930039
 31
0.0
  0
TEXT
  8
SIZE
  6
CONTINUOUS
 62
    30
 10
1127.666045805232
 20
-677.41055661787163
 30
0.0
 40
64.0
  1
25
 50
90.0
 41
0.9
 51
0.0
  7
STANDARD
 71
     0
 72
     1
 11
1127.666045805232
 21
-623.84255661787165
 31
0.0
210
0.0
220
0.0
230
1.0
  0
POINT
  8
DEFPOINTS
  6
CONTINUOUS
 62
    30
 10
575.81367010649819
 20
-503.21398518930027
 30
0.0
  0
POINT
  8
DEFPOINTS
  6
CONTINUOUS
 62
    30
 10
567.22802426824273
 20
-528.21398518930027
 30
0.0
  0
POINT
  8
DEFPOINTS
  6
CONTINUOUS
 62
    30
 10
1152.666045805232
 20
-528.21398518930039
 30
0.0
  0
LINE
  8
SIZE
  6
CONTINUOUS
 62
    30
 10
595.81367010649819
 20
-503.21398518930027
 30
0.0
 11
1172.666045805232
 21
-503.2139851893005
 31
0.0
  0
LINE
  8
SIZE
  6
CONTINUOUS
 62
    30
 10
636.0
 20
-0.9999999999995509
 30
0.0
 11
1172.666045805232
 21
-0.9999999999997029
 31
0.0
  0
LINE
  8
SIZE
  6
CONTINUOUS
 62
    30
 10
1152.666045805232
 20
-491.2139851893005
 30
0.0
 11
1152.666045805232
 21
-12.9999999999997
 31
0.0
  0
CIRCLE
  8
SIZE
  6
CONTINUOUS
 62
    30
 10
1152.666045805232
 20
-503.2139851893005
 30
0.0
 40
6.0
  0
LINE
  8
SIZE
  6
CONTINUOUS
 62
    30
 10
1152.666045805232
 20
-503.2139851893005
 30
0.0
 11
1152.666045805232
 21
-491.2139851893005
 31
0.0
  0
CIRCLE
  8
SIZE
  6
CONTINUOUS
 62
    30
 10
1152.666045805232
 20
-0.9999999999996972
 30
0.0
 40
6.0
  0
LINE
  8
SIZE
  6
CONTINUOUS
 62
    30
 10
1152.666045805232
 20
-0.9999999999996972
 30
0.0
 11
1152.666045805232
 21
-12.999999999999698
 31
0.0
  0
TEXT
  8
SIZE
  6
CONTINUOUS
 62
    30
 10
1127.666045805232
 20
-333.03499259464951
 30
0.0
 40
64.0
  1
502
 50
90.0
 41
0.9
 51
0.0
  7
STANDARD
 71
     0
 72
     1
 11
1127.666045805232
 21
-252.10699259464951
 31
0.0
210
0.0
220
0.0
230
1.0
  0
POINT
  8
DEFPOINTS
  6
CONTINUOUS
 62
    30
 10
575.81367010649819
 20
-503.21398518930027
 30
0.0
  0
POINT
  8
DEFPOINTS
  6
CONTINUOUS
 62
    30
 10
616.0
 20
-0.9999999999995453
 30
0.0
  0
POINT
  8
DEFPOINTS
  6
CONTINUOUS
 62
    30
 10
1152.666045805232
 20
-0.9999999999996972
 30
0.0
  0
TEXT
  8
NOTE
  6
CONTINUOUS
 62
     4
 10
712.69983526269698
 20
-251.87505849898889
 30
0.0
 40
64.0
  1
EL
 41
0.9
  0
LINE
  8
NOTE
  6
CONTINUOUS
 62
     4
 10
808.28263591954783
 20
-278.40631449898859
 30
0.0
 11
700.32604526269643
 21
-278.40631449898859
 31
0.0
  0
LINE
  8
NOTE
  6
CONTINUOUS
 62
     4
 10
575.9310211501197
 20
-137.30018602226349
 30
0.0
 11
700.32604526269643
 21
-278.40631449898859
 31
0.0
  0
LINE
  8
NOTE
  6
CONTINUOUS
 62
     4
 10
575.9310211501197
 20
-137.30018602226349
 30
0.0
 11
589.52550931924816
 21
-175.93358379466741
 31
0.0
  0
LINE
  8
NOTE
  6
CONTINUOUS
 62
     4
 10
610.33169726286906
 20
-156.59299873897729
 30
0.0
 11
575.9310211501197
 21
-137.30018602226349
 31
0.0
  0
LINE
  8
NOTE
  6
CENTER
 62
     4
 10
631.02832671661781
 20
-279.19999999999999
 30
0.0
 11
524.66063496118113
 21
-279.19999999999999
 31
0.0
  0
TEXT
  8
NOTE
  6
CONTINUOUS
 62
     4
 10
681.88126383412998
 20
-441.59657264656198
 30
0.0
 40
64.0
  1
GE
 41
0.9
  0
LINE
  8
NOTE
  6
CONTINUOUS
 62
     4
 10
785.69263591955223
 20
-468.12782864656168
 30
0.0
 11
677.73604526270083
 21
-468.12782864656168
 31
0.0
  0
LINE
  8
NOTE
  6
CONTINUOUS
 62
     4
 10
553.34102115012411
 20
-279.30018602226352
 30
0.0
 11
677.73604526270083
 21
-468.12782864656168
 31
0.0
  0
LINE
  8
NOTE
  6
CONTINUOUS
 62
     4
 10
553.34102115012411
 20
-279.30018602226352
 30
0.0
 11
563.16647155708961
 21
-317.93358379466741
 31
0.0
  0
LINE
  8
NOTE
  6
CONTINUOUS
 62
     4
 10
587.74169726287346
 20
-305.30419775673141
 30
0.0
 11
553.34102115012411
 21
-279.30018602226352
 31
0.0
  0
TEXT
  8
NOTE
  6
CONTINUOUS
 62
     4
 10
-1522.591669978241
 20
157.41258593902461
 30
0.0
 40
64.0
  1
AH 4-(13.5×22)
 41
0.9
  0
LINE
  8
NOTE
  6
CONTINUOUS
 62
     4
 10
-1546.3380522470429
 20
140.1061275630602
 30
0.0
 11
-693.39502283538422
 21
140.1061275630602
 31
0.0
  0
LINE
  8
NOTE
  6
CONTINUOUS
 62
     4
 10
-568.9999987228075
 20
-1.0000009136649619
 30
0.0
 11
-693.39502283538422
 21
140.1061275630602
 31
0.0
  0
LINE
  8
NOTE
  6
CONTINUOUS
 62
     4
 10
-568.9999987228075
 20
-1.0000009136649619
 30
0.0
 11
-582.59448689193596
 21
37.633396858738926
 31
0.0
  0
LINE
  8
NOTE
  6
CONTINUOUS
 62
     4
 10
-603.40067483555686
 20
18.292811803048831
 30
0.0
 11
-568.9999987228075
 21
-1.0000009136649619
 31
0.0
  0
TEXT
  8
NOTE
  6
CONTINUOUS
 62
     4
 10
683.76992404087093
 20
-690.30093995904963
 30
0.0
 40
64.0
  1
D R1/2
 41
0.9
  0
LINE
  8
NOTE
  6
CONTINUOUS
 62
     4
 10
1002.307734771563
 20
-716.83219595904939
 30
0.0
 11
679.62470546944178
 21
-716.83219595904939
 31
0.0
  0
LINE
  8
NOTE
  6
CONTINUOUS
 62
     4
 10
555.22968135686506
 20
-528.00455333475111
 30
0.0
 11
679.62470546944178
 21
-716.83219595904939
 31
0.0
  0
LINE
  8
NOTE
  6
CONTINUOUS
 62
     4
 10
555.22968135686506
 20
-528.00455333475111
 30
0.0
 11
565.05513176383056
 21
-566.637951107155
 31
0.0
  0
LINE
  8
NOTE
  6
CONTINUOUS
 62
     4
 10
589.63035746961441
 20
-554.008565069219
 30
0.0
 11
555.22968135686506
 21
-528.00455333475111
 31
0.0
  0
POINT
  8
ARRANGE
  6
CONTINUOUS
 62
     1
 10
0.0
 20
0.0
 30
0.0
 39
50.0
  0
LINE
  8
SIZE
  6
CONTINUOUS
 62
    30
 10
-536.0
 20
20.0
 30
0.0
 11
-536.0
 21
280.19950273737641
 31
0.0
  0
LINE
  8
SIZE
  6
CONTINUOUS
 62
    30
 10
536.0
 20
20.0
 30
0.0
 11
536.0
 21
280.19950273737641
 31
0.0
  0
LINE
  8
SIZE
  6
CONTINUOUS
 62
    30
 10
-524.0
 20
260.19950273737641
 30
0.0
 11
524.0
 21
260.19950273737641
 31
0.0
  0
CIRCLE
  8
SIZE
  6
CONTINUOUS
 62
    30
 10
-536.0
 20
260.19950273737641
 30
0.0
 40
6.0
  0
LINE
  8
SIZE
  6
CONTINUOUS
 62
    30
 10
-536.0
 20
260.19950273737641
 30
0.0
 11
-524.0
 21
260.19950273737641
 31
0.0
  0
CIRCLE
  8
SIZE
  6
CONTINUOUS
 62
    30
 10
536.0
 20
260.19950273737641
 30
0.0
 40
6.0
  0
LINE
  8
SIZE
  6
CONTINUOUS
 62
    30
 10
536.0
 20
260.19950273737641
 30
0.0
 11
524.0
 21
260.19950273737641
 31
0.0
  0
TEXT
  8
SIZE
  6
CONTINUOUS
 62
    30
 10
-101.952
 20
285.19950273737641
 30
0.0
 40
64.0
  1
1072
 50
0.0
 41
0.9
 51
0.0
  7
STANDARD
 71
     0
 72
     1
 11
0.0
 21
285.19950273737641
 31
0.0
210
0.0
220
0.0
230
1.0
  0
POINT
  8
DEFPOINTS
  6
CONTINUOUS
 62
    30
 10
-536.0
 20
0.0
 30
0.0
  0
POINT
  8
DEFPOINTS
  6
CONTINUOUS
 62
    30
 10
536.0
 20
0.0
 30
0.0
  0
POINT
  8
DEFPOINTS
  6
CONTINUOUS
 62
    30
 10
536.0
 20
260.19950273737641
 30
0.0
  0
TEXT
  8
NOTE
  6
CONTINUOUS
 62
     4
 10
-47.935882550404131
 20
-243.87264353029511
 30
0.0
 40
64.0
  1
RA
 50
0.0
 41
0.9
 51
0.0
  7
STANDARD
 71
     0
 11
0.0
 21
0.0
 31
0.0
210
0.0
220
0.0
230
1.0
  0
ENDSEC
  0
EOF
