  0
SECTION
  2
HEADER
  9
$ACADVER
  1
AC1009
  9
$DWGCODEPAGE
  3
dos932
  9
$INSBASE
 10
0.0
 20
0.0
 30
0.0
  9
$EXTMIN
 10
-2033.7064329810769
 20
-1410.980948612741
 30
0.0
  9
$EXTMAX
 10
1703.158084314513
 20
1426.44667735598
 30
50.0
  9
$LIMMIN
 10
-2970.0
 20
-2100.0
  9
$LIMMAX
 10
2970.0
 20
2100.0
  9
$ORTHOMODE
 70
     1
  9
$REGENMODE
 70
     1
  9
$FILLMODE
 70
     1
  9
$QTEXTMODE
 70
     0
  9
$MIRRTEXT
 70
     0
  9
$LTSCALE
 40
20.0
  9
$ATTMODE
 70
     1
  9
$TEXTSIZE
 40
64.0
  9
$TRACEWID
 40
0.05
  9
$TEXTSTYLE
  7
STANDARD
  9
$CLAYER
  8
SIZE
  9
$CELTYPE
  6
CONTINUOUS
  9
$CECOLOR
 62
     7
  9
$DIMSCALE
 40
1.0
  9
$DIMASZ
 40
12.0
  9
$DIMEXO
 40
20.0
  9
$DIMDLI
 40
200.0
  9
$DIMRND
 40
0.0
  9
$DIMDLE
 40
0.0
  9
$DIMEXE
 40
20.0
  9
$DIMTP
 40
0.0
  9
$DIMTM
 40
0.0
  9
$DIMTXT
 40
64.0
  9
$DIMCEN
 40
0.09
  9
$DIMTSZ
 40
0.0
  9
$DIMTOL
 70
     0
  9
$DIMLIM
 70
     0
  9
$DIMTIH
 70
     0
  9
$DIMTOH
 70
     0
  9
$DIMSE1
 70
     0
  9
$DIMSE2
 70
     0
  9
$DIMTAD
 70
     1
  9
$DIMZIN
 70
     8
  9
$DIMBLK
  1

  9
$DIMASO
 70
     1
  9
$DIMSHO
 70
     0
  9
$DIMPOST
  1

  9
$DIMAPOST
  1

  9
$DIMALT
 70
     0
  9
$DIMALTD
 70
     2
  9
$DIMALTF
 40
25.399999999999999
  9
$DIMLFAC
 40
1.0
  9
$DIMTOFL
 70
     1
  9
$DIMTVP
 40
0.0
  9
$DIMTIX
 70
     1
  9
$DIMSOXD
 70
     0
  9
$DIMSAH
 70
     0
  9
$DIMBLK1
  1

  9
$DIMBLK2
  1

  9
$DIMSTYLE
  2
STANDARD
  9
$DIMCLRD
 70
     7
  9
$DIMCLRE
 70
     7
  9
$DIMCLRT
 70
     7
  9
$DIMTFAC
 40
1.0
  9
$DIMGAP
 40
25.0
  9
$LUNITS
 70
     2
  9
$LUPREC
 70
     4
  9
$SKETCHINC
 40
0.1
  9
$FILLETRAD
 40
3.0
  9
$AUNITS
 70
     1
  9
$AUPREC
 70
     3
  9
$MENU
  1
ACAD
  9
$ELEVATION
 40
0.0
  9
$PELEVATION
 40
0.0
  9
$THICKNESS
 40
50.0
  9
$LIMCHECK
 70
     0
  9
$CHAMFERA
 40
0.0
  9
$CHAMFERB
 40
0.0
  9
$SKPOLY
 70
     0
  9
$TDCREATE
 40
2453019.62301037
  9
$TDUPDATE
 40
2457476.73718566
  9
$TDINDWG
 40
1.7684186343
  9
$TDUSRTIMER
 40
1.7684186343
  9
$USRTIMER
 70
     1
  9
$ANGBASE
 50
0.0
  9
$ANGDIR
 70
     0
  9
$PDMODE
 70
     3
  9
$PDSIZE
 40
-2.0
  9
$PLINEWID
 40
0.0
  9
$SPLFRAME
 70
     0
  9
$SPLINETYPE
 70
     6
  9
$SPLINESEGS
 70
     8
  9
$SURFTAB1
 70
     6
  9
$SURFTAB2
 70
     6
  9
$SURFTYPE
 70
     6
  9
$SURFU
 70
     6
  9
$SURFV
 70
     6
  9
$UCSNAME
  2

  9
$UCSORG
 10
0.0
 20
0.0
 30
0.0
  9
$UCSXDIR
 10
1.0
 20
0.0
 30
0.0
  9
$UCSYDIR
 10
0.0
 20
1.0
 30
0.0
  9
$PUCSNAME
  2

  9
$PUCSORG
 10
0.0
 20
0.0
 30
0.0
  9
$PUCSXDIR
 10
1.0
 20
0.0
 30
0.0
  9
$PUCSYDIR
 10
0.0
 20
1.0
 30
0.0
  9
$USERI1
 70
     0
  9
$USERI2
 70
     0
  9
$USERI3
 70
     0
  9
$USERI4
 70
     0
  9
$USERI5
 70
     0
  9
$USERR1
 40
20.0
  9
$USERR2
 40
0.0
  9
$USERR3
 40
0.0
  9
$USERR4
 40
0.0
  9
$USERR5
 40
0.0
  9
$WORLDVIEW
 70
     1
  9
$SHADEDGE
 70
     3
  9
$SHADEDIF
 70
    70
  9
$TILEMODE
 70
     1
  9
$MAXACTVP
 70
    48
  9
$PINSBASE
 10
0.0
 20
0.0
 30
0.0
  9
$PLIMCHECK
 70
     0
  9
$PEXTMIN
 10
-100000000000000000000.0
 20
-100000000000000000000.0
 30
-100000000000000000000.0
  9
$PEXTMAX
 10
100000000000000000000.0
 20
100000000000000000000.0
 30
100000000000000000000.0
  9
$PLIMMIN
 10
0.0
 20
0.0
  9
$PLIMMAX
 10
12.0
 20
9.0
  9
$UNITMODE
 70
     0
  9
$VISRETAIN
 70
     0
  9
$PLINEGEN
 70
     0
  9
$PSLTSCALE
 70
     0
  9
$TREEDEPTH
 70
  3020
  9
$ATTDIA
 70
     0
  9
$ATTREQ
 70
     1
  9
$BLIPMODE
 70
     1
  9
$COORDS
 70
     1
  9
$DRAGMODE
 70
     2
  9
$OSMODE
 70
     0
  9
$HANDLING
 70
     0
  9
$HANDSEED
  5
12CEF
  0
ENDSEC
  0
SECTION
  2
TABLES
  0
TABLE
  2
LTYPE
 70
     3
  0
LTYPE
  2
CONTINUOUS
 70
     0
  3
実線
 72
    65
 73
     0
 40
0.0
  0
LTYPE
  2
DASHDOT
 70
     0
  3
____ _ ____ _ ____ _ ____ _ ____ _ ____ _ ____
 72
    65
 73
     4
 40
5.5
 49
4.0
 49
-0.6
 49
0.3
 49
-0.6
  0
LTYPE
  2
CENTER
 70
     0
  3
Center ____ _ ____ _ ____ _ ____ _ ____ _ ____
 72
    65
 73
     4
 40
1.0
 49
0.5
 49
-0.25
 49
0.0
 49
-0.25
  0
ENDTAB
  0
TABLE
  2
LAYER
 70
    12
  0
LAYER
  2
0
 70
     0
 62
     7
  6
CONTINUOUS
  0
LAYER
  2
BASIS
 70
     0
 62
     6
  6
DASHDOT
  0
LAYER
  2
OUTLINE
 70
     0
 62
     3
  6
CONTINUOUS
  0
LAYER
  2
DETAIL
 70
     0
 62
     5
  6
CONTINUOUS
  0
LAYER
  2
SIZE
 70
     0
 62
    30
  6
CONTINUOUS
  0
LAYER
  2
ARRANGE
 70
     0
 62
     1
  6
CONTINUOUS
  0
LAYER
  2
DEFPOINTS
 70
     0
 62
     7
  6
CONTINUOUS
  0
LAYER
  2
ETC
 70
     0
 62
    61
  6
CONTINUOUS
  0
LAYER
  2
FIX
 70
     0
 62
    11
  6
CONTINUOUS
  0
LAYER
  2
NOTE
 70
     0
 62
     4
  6
CONTINUOUS
  0
LAYER
  2
SERVICESPACE
 70
     0
 62
     2
  6
DASHDOT
  0
LAYER
  2
SYMBOLLINE
 70
    64
 62
    15
  6
CONTINUOUS
  0
ENDTAB
  0
TABLE
  2
STYLE
 70
     1
  0
STYLE
  2
STANDARD
 70
     0
 40
64.0
 41
0.9
 50
0.0
 71
     0
 42
64.0
  3
SIMPLEX.shx
  4
BIGFONT.shx
  0
ENDTAB
  0
TABLE
  2
APPID
 70
    15
  0
APPID
  2
ACAD
 70
     0
  0
APPID
  2
AUTOCAD_POSTSCRIPT_FIGURE
 70
     0
  0
APPID
  2
ACAD_EXEMPT_FROM_CAD_STANDARDS
 70
     0
  0
APPID
  2
ACAD_PSEXT
 70
     0
  0
APPID
  2
ACAUTHENVIRON
 70
     0
  0
APPID
  2
GENIUS_GENOENT_13
 70
     0
  0
APPID
  2
GENIUS_GENCFG_13
 70
     0
  0
APPID
  2
GENIUS_GENCFG0_13
 70
     0
  0
APPID
  2
GENIUS_GENCFG1_13
 70
     0
  0
APPID
  2
GENIUS_GENCFG2_13
 70
     0
  0
APPID
  2
GENIUS_GENCFG3_13
 70
     0
  0
APPID
  2
GENIUS_GENCFG4_13
 70
     0
  0
APPID
  2
GENIUS_GEVCFG0_13
 70
     0
  0
APPID
  2
CONTENTBLOCKICON
 70
     0
  0
APPID
  2
CONTENTBLOCKDESCRIPTION
 70
     0
  0
ENDTAB
  0
TABLE
  2
DIMSTYLE
 70
     1
  0
DIMSTYLE
  2
STANDARD
 70
     0
  3

  4

  5
_ORIGIN
  6

  7

 40
1.0
 41
12.0
 42
20.0
 43
200.0
 44
20.0
 45
0.0
 46
0.0
 47
0.0
 48
0.0
140
64.0
141
0.09
142
0.0
143
25.399999999999999
144
1.0
145
0.0
146
1.0
147
25.0
 71
     0
 72
     0
 73
     0
 74
     0
 75
     0
 76
     0
 77
     1
 78
     8
170
     0
171
     2
172
     1
173
     0
174
     1
175
     0
176
     7
177
     7
178
     7
  0
ENDTAB
  0
TABLE
  2
VIEW
 70
     1
  0
VIEW
  2
ALL
 70
     0
 40
4282.6198079999986
 10
0.0
 20
41.309904000000003
 41
5940.0
 11
0.0
 21
0.0
 31
1.0
 12
0.0
 22
0.0
 32
0.0
 42
50.0
 43
0.0
 44
0.0
 50
0.0
 71
     0
  0
ENDTAB
  0
TABLE
  2
UCS
 70
     0
  0
ENDTAB
  0
TABLE
  2
VPORT
 70
     1
  0
VPORT
  2
*ACTIVE
 70
     0
 10
0.0
 20
0.0
 11
1.0
 21
1.0
 12
131.71581859854589
 22
139.86598046840851
 13
0.0
 23
0.0
 14
1.0
 24
1.0
 15
0.0
 25
0.0
 16
0.0
 26
0.0
 36
1.0
 17
0.0
 27
0.0
 37
0.0
 40
4115.459864911345
 41
1.2797385620915029
 42
50.0
 43
0.0
 44
0.0
 50
0.0
 51
0.0
 71
     0
 72
  1000
 73
     1
 74
     3
 75
     0
 76
     0
 77
     0
 78
     0
  0
ENDTAB
  0
ENDSEC
  0
SECTION
  2
BLOCKS
  0
BLOCK
  8
0
  2
_ORIGIN
 70
     0
 10
0.0
 20
0.0
 30
0.0
  3
_ORIGIN
  1

  0
CIRCLE
  8
0
  6
CONTINUOUS
 62
     7
 10
0.0
 20
0.0
 30
0.0
 40
0.5
  0
LINE
  8
0
  6
CONTINUOUS
 62
     7
 10
0.0
 20
0.0
 30
0.0
 11
-1.0
 21
0.0
 31
0.0
  0
ENDBLK
  8
0
  0
ENDSEC
  0
SECTION
  2
ENTITIES
  0
TEXT
  8
ETC
  6
CONTINUOUS
 62
    61
 10
1055.843798600227
 20
349.07565229407032
 30
0.0
 40
64.0
  1
BFS-1000TX2_6
 41
0.9
  0
TEXT
  8
ETC
  6
CONTINUOUS
 62
    61
 10
1051.6578046002271
 20
231.12034227923911
 30
0.0
 40
64.0
  1
産業扇
 41
0.9
  0
TEXT
  8
ETC
  6
CONTINUOUS
 62
    61
 10
1102.3592028487831
 20
122.97156939301391
 30
0.0
 40
40.0
  1
BFS-1000TX2
 50
0.0
 41
0.9
 51
0.0
  7
STANDARD
 71
     0
 11
0.0
 21
0.0
 31
0.0
210
0.0
220
0.0
230
1.0
  0
CIRCLE
  8
ARRANGE
  6
CONTINUOUS
 62
     1
 10
0.0
 20
0.0
 30
0.0
 40
40.0
  0
LINE
  8
BASIS
  6
DASHDOT
 62
     6
 39
50.0
 10
-782.32166883889295
 20
0.0000000000001437
 30
0.0
 11
701.14481584233181
 21
-0.0000000000001288
 31
0.0
  0
LINE
  8
BASIS
  6
DASHDOT
 62
     6
 39
50.0
 10
-0.0000000000002243
 20
-1105.4851972840929
 30
0.0
 11
0.0000000000002005
 21
1091.6313778889339
 31
0.0
  0
LINE
  8
DETAIL
  6
CONTINUOUS
 62
     5
 10
-576.21367010599977
 20
903.00000000000011
 30
0.0
 11
-576.21367010599954
 21
-902.99999999999989
 31
0.0
  0
LINE
  8
DETAIL
  6
CONTINUOUS
 62
     5
 10
-576.21367010599965
 20
955.00000000000011
 30
0.0
 11
-576.21367010600011
 21
-954.99999999999989
 31
0.0
  0
LINE
  8
NOTE
  6
CENTER
 62
     4
 10
-584.19018572032098
 20
925.00000000000011
 30
0.0
 11
-552.30700920408788
 21
925.00000000000011
 31
0.0
  0
LINE
  8
NOTE
  6
CENTER
 62
     4
 10
-568.99999999999989
 20
909.10907249470085
 30
0.0
 11
-568.99999999999977
 21
940.65245020051236
 31
0.0
  0
CIRCLE
  8
FIX
  6
CONTINUOUS
 62
    11
 39
50.0
 10
-568.99999999999989
 20
925.00000000000011
 30
0.0
 40
10.0
  0
LINE
  8
NOTE
  6
CENTER
 62
     4
 10
553.93719945748114
 20
-925.00000000000011
 30
0.0
 11
580.69074337185873
 21
-925.00000000000011
 31
0.0
  0
LINE
  8
NOTE
  6
CENTER
 62
     4
 10
568.99999999999989
 20
-912.08193508300803
 30
0.0
 11
568.99999999999977
 21
-938.0120377634704
 31
0.0
  0
CIRCLE
  8
FIX
  6
CONTINUOUS
 62
    11
 39
50.0
 10
568.99999999999989
 20
-925.00000000000011
 30
0.0
 40
10.0
  0
LINE
  8
DETAIL
  6
CONTINUOUS
 62
     5
 39
50.0
 10
616.00000000000011
 20
902.99999999999989
 30
0.0
 11
616.00000000000023
 21
954.99999999999989
 31
0.0
  0
LINE
  8
DETAIL
  6
CONTINUOUS
 62
     5
 10
536.00000000000011
 20
902.99999999999989
 30
0.0
 11
562.25000000000011
 21
903.0000000000008
 31
0.0
  0
LINE
  8
DETAIL
  6
CONTINUOUS
 62
     5
 10
575.75000000000011
 20
902.99999999999989
 30
0.0
 11
616.00000000000011
 21
902.99999999999989
 31
0.0
  0
LINE
  8
DETAIL
  6
CONTINUOUS
 62
     5
 39
50.0
 10
-615.99999999999989
 20
903.00000000000011
 30
0.0
 11
-615.99999999999977
 21
955.00000000000011
 31
0.0
  0
LINE
  8
DETAIL
  6
CONTINUOUS
 62
     5
 10
-576.21367010599977
 20
903.00000000000011
 30
0.0
 11
-615.99999999999989
 21
903.00000000000011
 31
0.0
  0
LINE
  8
DETAIL
  6
CONTINUOUS
 62
     5
 39
50.0
 10
615.99999999999989
 20
-903.00000000000011
 30
0.0
 11
615.99999999999977
 21
-955.00000000000011
 31
0.0
  0
LINE
  8
DETAIL
  6
CONTINUOUS
 62
     5
 10
535.99999999999989
 20
-903.00000000000011
 30
0.0
 11
562.24999999999989
 21
-903.00000000000011
 31
0.0
  0
LINE
  8
DETAIL
  6
CONTINUOUS
 62
     5
 10
575.74999999999989
 20
-903.00000000000011
 30
0.0
 11
615.99999999999989
 21
-903.00000000000011
 31
0.0
  0
LINE
  8
DETAIL
  6
CONTINUOUS
 62
     5
 39
50.0
 10
-616.00000000000011
 20
-902.99999999999989
 30
0.0
 11
-616.00000000000023
 21
-954.99999999999989
 31
0.0
  0
LINE
  8
DETAIL
  6
CONTINUOUS
 62
     5
 10
-576.21367010599954
 20
-902.99999999999989
 30
0.0
 11
-616.00000000000011
 21
-902.99999999999989
 31
0.0
  0
LINE
  8
DETAIL
  6
CONTINUOUS
 62
     5
 39
50.0
 10
535.99999999999977
 20
-955.00000000000011
 30
0.0
 11
536.00000000000023
 21
954.99999999999989
 31
0.0
  0
LINE
  8
DETAIL
  6
CONTINUOUS
 62
     5
 39
50.0
 10
-615.99999999999977
 20
955.00000000000011
 30
0.0
 11
-576.21367010599965
 21
955.0
 31
0.0
  0
LINE
  8
DETAIL
  6
CONTINUOUS
 62
     5
 39
50.0
 10
-616.00000000000023
 20
-954.99999999999989
 30
0.0
 11
-576.21367010600011
 21
-954.99999999999989
 31
0.0
  0
LINE
  8
DETAIL
  6
CONTINUOUS
 62
     5
 39
50.0
 10
-449.00000000000023
 20
-1035.0
 30
0.0
 11
448.99999999999977
 21
-1035.0
 31
0.0
  0
LINE
  8
DETAIL
  6
CONTINUOUS
 62
     5
 39
50.0
 10
-448.99999999999977
 20
1035.0
 30
0.0
 11
449.00000000000023
 21
1035.0
 31
0.0
  0
LINE
  8
DETAIL
  6
CONTINUOUS
 62
     5
 39
50.0
 10
448.99999999999977
 20
-1035.0
 30
0.0
 11
448.99999999999977
 21
-955.00000000000011
 31
0.0
  0
LINE
  8
DETAIL
  6
CONTINUOUS
 62
     5
 39
50.0
 10
449.00000000000023
 20
954.99999999999989
 30
0.0
 11
449.00000000000023
 21
1035.0
 31
0.0
  0
LINE
  8
DETAIL
  6
CONTINUOUS
 62
     5
 39
50.0
 10
-449.00000000000023
 20
-1035.0
 30
0.0
 11
-449.00000000000023
 21
-972.99999999999989
 31
0.0
  0
LINE
  8
DETAIL
  6
CONTINUOUS
 62
     5
 10
575.74999999999989
 20
-903.00000000000011
 30
0.0
 11
575.74999999999989
 21
-925.00000000000011
 31
0.0
  0
LINE
  8
DETAIL
  6
CONTINUOUS
 62
     5
 10
562.24999999999989
 20
-903.00000000000011
 30
0.0
 11
562.24999999999989
 21
-925.00000000000011
 31
0.0
  0
ARC
  8
DETAIL
  6
CONTINUOUS
 62
     5
 39
50.0
 10
568.99999999999989
 20
-925.00000000000011
 30
0.0
 40
6.75
 50
180.0
 51
0.0000000000000114
  0
LINE
  8
NOTE
  6
CENTER
 62
     4
 10
-584.06280054251886
 20
-924.99999999999989
 30
0.0
 11
-557.30925662814127
 21
-924.99999999999989
 31
0.0
  0
LINE
  8
NOTE
  6
CENTER
 62
     4
 10
-569.00000000000011
 20
-912.08193508300781
 30
0.0
 11
-569.00000000000023
 21
-938.01203776347018
 31
0.0
  0
CIRCLE
  8
FIX
  6
CONTINUOUS
 62
    11
 39
50.0
 10
-569.00000000000011
 20
-924.99999999999989
 30
0.0
 40
10.0
  0
LINE
  8
NOTE
  6
CENTER
 62
     4
 10
553.93719945748137
 20
924.99999999999989
 30
0.0
 11
580.69074337185896
 21
924.99999999999989
 31
0.0
  0
LINE
  8
NOTE
  6
CENTER
 62
     4
 10
569.00000000000023
 20
937.91806491699197
 30
0.0
 11
569.00000000000011
 21
911.9879622365296
 31
0.0
  0
CIRCLE
  8
FIX
  6
CONTINUOUS
 62
    11
 39
50.0
 10
569.00000000000011
 20
924.99999999999989
 30
0.0
 40
10.0
  0
LINE
  8
DETAIL
  6
CONTINUOUS
 62
     5
 10
575.75000000000011
 20
902.99999999999989
 30
0.0
 11
575.75000000000011
 21
924.99999999999989
 31
0.0
  0
LINE
  8
DETAIL
  6
CONTINUOUS
 62
     5
 10
562.25000000000011
 20
902.99999999999989
 30
0.0
 11
562.25000000000011
 21
924.99999999999989
 31
0.0
  0
ARC
  8
DETAIL
  6
CONTINUOUS
 62
     5
 39
50.0
 10
569.00000000000011
 20
924.99999999999989
 30
0.0
 40
6.75
 50
0.0000000000000114
 51
180.0
  0
LINE
  8
OUTLINE
  6
CONTINUOUS
 62
     3
 10
-576.21367010599977
 20
902.9999999999992
 30
0.0
 11
-576.21367010599954
 21
-903.0000000000008
 31
0.0
  0
LINE
  8
OUTLINE
  6
CONTINUOUS
 62
     3
 10
-576.21367010599977
 20
902.9999999999992
 30
0.0
 11
-576.213670106
 21
-903.0000000000008
 31
0.0
  0
LINE
  8
OUTLINE
  6
CONTINUOUS
 62
     3
 39
50.0
 10
616.00000000000011
 20
902.99999999999898
 30
0.0
 11
616.00000000000023
 21
954.99999999999898
 31
0.0
  0
LINE
  8
OUTLINE
  6
CONTINUOUS
 62
     3
 10
536.00000000000011
 20
902.99999999999807
 30
0.0
 11
562.25000000000011
 21
902.99999999999989
 31
0.0
  0
LINE
  8
OUTLINE
  6
CONTINUOUS
 62
     3
 10
575.75000000000011
 20
902.99999999999898
 30
0.0
 11
616.00000000000011
 21
902.99999999999898
 31
0.0
  0
LINE
  8
OUTLINE
  6
CONTINUOUS
 62
     3
 39
50.0
 10
-615.99999999999989
 20
902.9999999999992
 30
0.0
 11
-615.99999999999977
 21
954.9999999999992
 31
0.0
  0
LINE
  8
OUTLINE
  6
CONTINUOUS
 62
     3
 10
-576.21367010599977
 20
902.9999999999992
 30
0.0
 11
-615.99999999999989
 21
902.9999999999992
 31
0.0
  0
LINE
  8
OUTLINE
  6
CONTINUOUS
 62
     3
 39
50.0
 10
615.99999999999989
 20
-903.00000000000102
 30
0.0
 11
615.99999999999977
 21
-955.00000000000102
 31
0.0
  0
LINE
  8
OUTLINE
  6
CONTINUOUS
 62
     3
 10
535.99999999999989
 20
-903.00000000000011
 30
0.0
 11
562.24999999999989
 21
-903.00000000000102
 31
0.0
  0
LINE
  8
OUTLINE
  6
CONTINUOUS
 62
     3
 10
575.74999999999989
 20
-903.00000000000102
 30
0.0
 11
615.99999999999989
 21
-903.00000000000102
 31
0.0
  0
LINE
  8
OUTLINE
  6
CONTINUOUS
 62
     3
 39
50.0
 10
-616.00000000000011
 20
-903.0000000000008
 30
0.0
 11
-616.00000000000023
 21
-955.0000000000008
 31
0.0
  0
LINE
  8
OUTLINE
  6
CONTINUOUS
 62
     3
 10
-576.213670106
 20
-903.0000000000008
 30
0.0
 11
-616.00000000000011
 21
-903.0000000000008
 31
0.0
  0
LINE
  8
OUTLINE
  6
CONTINUOUS
 62
     3
 39
50.0
 10
535.99999999999989
 20
-903.00000000000011
 30
0.0
 11
536.00000000000011
 21
902.99999999999807
 31
0.0
  0
LINE
  8
OUTLINE
  6
CONTINUOUS
 62
     3
 39
50.0
 10
-615.99999999999977
 20
954.9999999999992
 30
0.0
 11
-576.21367010599965
 21
955.00000000000011
 31
0.0
  0
LINE
  8
OUTLINE
  6
CONTINUOUS
 62
     3
 39
50.0
 10
449.00000000000023
 20
954.99999999999898
 30
0.0
 11
616.00000000000023
 21
954.99999999999898
 31
0.0
  0
LINE
  8
OUTLINE
  6
CONTINUOUS
 62
     3
 39
50.0
 10
-616.00000000000023
 20
-955.0000000000008
 30
0.0
 11
-576.21367010600011
 21
-954.99999999999898
 31
0.0
  0
LINE
  8
OUTLINE
  6
CONTINUOUS
 62
     3
 39
50.0
 10
448.99999999999977
 20
-955.00000000000102
 30
0.0
 11
615.99999999999977
 21
-955.00000000000102
 31
0.0
  0
LINE
  8
OUTLINE
  6
CONTINUOUS
 62
     3
 39
50.0
 10
-449.00000000000023
 20
-1035.0000000000009
 30
0.0
 11
448.99999999999977
 21
-1035.0000000000009
 31
0.0
  0
LINE
  8
OUTLINE
  6
CONTINUOUS
 62
     3
 39
50.0
 10
-448.99999999999977
 20
1034.9999999999991
 30
0.0
 11
449.00000000000023
 21
1034.9999999999991
 31
0.0
  0
LINE
  8
OUTLINE
  6
CONTINUOUS
 62
     3
 39
50.0
 10
448.99999999999977
 20
-1035.0000000000009
 30
0.0
 11
448.99999999999977
 21
-955.00000000000102
 31
0.0
  0
LINE
  8
OUTLINE
  6
CONTINUOUS
 62
     3
 39
50.0
 10
449.00000000000023
 20
954.99999999999898
 30
0.0
 11
449.00000000000023
 21
1034.9999999999991
 31
0.0
  0
LINE
  8
OUTLINE
  6
CONTINUOUS
 62
     3
 39
50.0
 10
-449.00000000000023
 20
-1035.0000000000009
 30
0.0
 11
-449.00000000000023
 21
-972.99999999999989
 31
0.0
  0
LINE
  8
OUTLINE
  6
CONTINUOUS
 62
     3
 39
50.0
 10
-448.99999999999977
 20
973.00000000000011
 30
0.0
 11
-448.99999999999977
 21
1034.9999999999991
 31
0.0
  0
LINE
  8
OUTLINE
  6
CONTINUOUS
 62
     3
 10
575.74999999999989
 20
-903.00000000000102
 30
0.0
 11
575.74999999999989
 21
-925.00000000000102
 31
0.0
  0
LINE
  8
OUTLINE
  6
CONTINUOUS
 62
     3
 10
562.24999999999989
 20
-903.00000000000102
 30
0.0
 11
562.24999999999989
 21
-925.00000000000102
 31
0.0
  0
ARC
  8
OUTLINE
  6
CONTINUOUS
 62
     3
 39
50.0
 10
568.99999999999989
 20
-925.00000000000102
 30
0.0
 40
6.75
 50
180.0
 51
0.0000000000000114
  0
LINE
  8
OUTLINE
  6
CONTINUOUS
 62
     3
 10
575.75000000000011
 20
902.99999999999898
 30
0.0
 11
575.75000000000011
 21
924.99999999999898
 31
0.0
  0
LINE
  8
OUTLINE
  6
CONTINUOUS
 62
     3
 10
562.25000000000011
 20
902.99999999999898
 30
0.0
 11
562.25000000000011
 21
924.99999999999898
 31
0.0
  0
ARC
  8
OUTLINE
  6
CONTINUOUS
 62
     3
 39
50.0
 10
569.00000000000011
 20
924.99999999999898
 30
0.0
 40
6.75
 50
0.0000000000000114
 51
180.0
  0
LINE
  8
DETAIL
  6
CONTINUOUS
 62
     5
 39
50.0
 10
-576.21367010599965
 20
973.00000000000011
 30
0.0
 11
-136.21367010599971
 21
973.00000000000011
 31
0.0
  0
LINE
  8
DETAIL
  6
CONTINUOUS
 62
     5
 39
50.0
 10
-576.21367010599965
 20
954.9999999999992
 30
0.0
 11
-576.21367010599965
 21
973.00000000000011
 31
0.0
  0
LINE
  8
OUTLINE
  6
CONTINUOUS
 62
     3
 39
50.0
 10
-448.99999999999977
 20
973.00000000000011
 30
0.0
 11
-576.21367010599965
 21
973.00000000000011
 31
0.0
  0
LINE
  8
OUTLINE
  6
CONTINUOUS
 62
     3
 39
50.0
 10
-576.21367010599965
 20
973.00000000000011
 30
0.0
 11
-576.21367010599965
 21
955.00000000000011
 31
0.0
  0
LINE
  8
DETAIL
  6
CONTINUOUS
 62
     5
 39
50.0
 10
-576.21367010600011
 20
-972.99999999999989
 30
0.0
 11
-136.21367010600011
 21
-973.0
 31
0.0
  0
LINE
  8
DETAIL
  6
CONTINUOUS
 62
     5
 39
50.0
 10
-576.21367010600011
 20
-954.99999999999898
 30
0.0
 11
-576.21367010600011
 21
-972.99999999999989
 31
0.0
  0
LINE
  8
OUTLINE
  6
CONTINUOUS
 62
     3
 39
50.0
 10
-449.00000000000023
 20
-972.99999999999989
 30
0.0
 11
-576.21367010600011
 21
-972.99999999999989
 31
0.0
  0
LINE
  8
OUTLINE
  6
CONTINUOUS
 62
     3
 39
50.0
 10
-576.21367010600011
 20
-972.99999999999989
 30
0.0
 11
-576.21367010600011
 21
-954.99999999999989
 31
0.0
  0
LINE
  8
SIZE
  6
CONTINUOUS
 62
    30
 10
600.69074337185896
 20
924.99999999999989
 30
0.0
 11
874.30860214676648
 21
924.99999999999977
 31
0.0
  0
LINE
  8
SIZE
  6
CONTINUOUS
 62
    30
 10
600.69074337185873
 20
-925.00000000000011
 30
0.0
 11
874.30860214676602
 21
-925.00000000000023
 31
0.0
  0
LINE
  8
SIZE
  6
CONTINUOUS
 62
    30
 10
854.30860214676648
 20
912.99999999999977
 30
0.0
 11
854.30860214676602
 21
-913.00000000000023
 31
0.0
  0
CIRCLE
  8
SIZE
  6
CONTINUOUS
 62
    30
 10
854.30860214676648
 20
924.99999999999977
 30
0.0
 40
6.0
  0
LINE
  8
SIZE
  6
CONTINUOUS
 62
    30
 10
854.30860214676648
 20
924.99999999999977
 30
0.0
 11
854.30860214676648
 21
912.99999999999977
 31
0.0
  0
CIRCLE
  8
SIZE
  6
CONTINUOUS
 62
    30
 10
854.30860214676602
 20
-925.00000000000023
 30
0.0
 40
6.0
  0
LINE
  8
SIZE
  6
CONTINUOUS
 62
    30
 10
854.30860214676602
 20
-925.00000000000023
 30
0.0
 11
854.30860214676602
 21
-913.00000000000023
 31
0.0
  0
TEXT
  8
SIZE
  6
CONTINUOUS
 62
    30
 10
829.30860214676625
 20
-101.95200000000004
 30
0.0
 40
64.0
  1
1850
 50
90.0
 41
0.9
 51
0.0
  7
STANDARD
 71
     0
 72
     1
 11
829.30860214676625
 21
-0.0000000000000473
 31
0.0
210
0.0
220
0.0
230
1.0
  0
POINT
  8
DEFPOINTS
  6
CONTINUOUS
 62
    30
 10
580.69074337185896
 20
924.99999999999989
 30
0.0
  0
POINT
  8
DEFPOINTS
  6
CONTINUOUS
 62
    30
 10
580.69074337185873
 20
-925.00000000000011
 30
0.0
  0
POINT
  8
DEFPOINTS
  6
CONTINUOUS
 62
    30
 10
854.30860214676602
 20
-925.00000000000023
 30
0.0
  0
LINE
  8
SIZE
  6
CONTINUOUS
 62
    30
 10
636.00000000000023
 20
954.99999999999898
 30
0.0
 11
991.69888817265587
 21
954.99999999999886
 31
0.0
  0
LINE
  8
SIZE
  6
CONTINUOUS
 62
    30
 10
635.99999999999977
 20
-955.00000000000102
 30
0.0
 11
991.69888817265542
 21
-955.00000000000114
 31
0.0
  0
LINE
  8
SIZE
  6
CONTINUOUS
 62
    30
 10
971.69888817265587
 20
942.99999999999886
 30
0.0
 11
971.69888817265542
 21
-943.00000000000114
 31
0.0
  0
CIRCLE
  8
SIZE
  6
CONTINUOUS
 62
    30
 10
971.69888817265587
 20
954.99999999999886
 30
0.0
 40
6.0
  0
LINE
  8
SIZE
  6
CONTINUOUS
 62
    30
 10
971.69888817265587
 20
954.99999999999886
 30
0.0
 11
971.69888817265587
 21
942.99999999999886
 31
0.0
  0
CIRCLE
  8
SIZE
  6
CONTINUOUS
 62
    30
 10
971.69888817265542
 20
-955.00000000000114
 30
0.0
 40
6.0
  0
LINE
  8
SIZE
  6
CONTINUOUS
 62
    30
 10
971.69888817265542
 20
-955.00000000000114
 30
0.0
 11
971.69888817265542
 21
-943.00000000000114
 31
0.0
  0
TEXT
  8
SIZE
  6
CONTINUOUS
 62
    30
 10
946.69888817265564
 20
-96.192000000001087
 30
0.0
 40
64.0
  1
1910
 50
90.0
 41
0.9
 51
0.0
  7
STANDARD
 71
     0
 72
     1
 11
946.69888817265564
 21
-0.0000000000010865
 31
0.0
210
0.0
220
0.0
230
1.0
  0
POINT
  8
DEFPOINTS
  6
CONTINUOUS
 62
    30
 10
616.00000000000023
 20
954.99999999999898
 30
0.0
  0
POINT
  8
DEFPOINTS
  6
CONTINUOUS
 62
    30
 10
615.99999999999977
 20
-955.00000000000102
 30
0.0
  0
POINT
  8
DEFPOINTS
  6
CONTINUOUS
 62
    30
 10
971.69888817265542
 20
-955.00000000000114
 30
0.0
  0
LINE
  8
SIZE
  6
CONTINUOUS
 62
    30
 10
448.99999999999977
 20
-1055.0000000000009
 30
0.0
 11
448.99999999999977
 21
-1366.928424500107
 31
0.0
  0
LINE
  8
SIZE
  6
CONTINUOUS
 62
    30
 10
-449.00000000000023
 20
-1055.0000000000009
 30
0.0
 11
-449.00000000000023
 21
-1366.928424500107
 31
0.0
  0
LINE
  8
SIZE
  6
CONTINUOUS
 62
    30
 10
436.99999999999977
 20
-1346.928424500107
 30
0.0
 11
-437.00000000000023
 21
-1346.928424500107
 31
0.0
  0
CIRCLE
  8
SIZE
  6
CONTINUOUS
 62
    30
 10
448.99999999999977
 20
-1346.928424500107
 30
0.0
 40
6.0
  0
LINE
  8
SIZE
  6
CONTINUOUS
 62
    30
 10
448.99999999999977
 20
-1346.928424500107
 30
0.0
 11
436.99999999999977
 21
-1346.928424500107
 31
0.0
  0
CIRCLE
  8
SIZE
  6
CONTINUOUS
 62
    30
 10
-449.00000000000023
 20
-1346.928424500107
 30
0.0
 40
6.0
  0
LINE
  8
SIZE
  6
CONTINUOUS
 62
    30
 10
-449.00000000000023
 20
-1346.928424500107
 30
0.0
 11
-437.00000000000023
 21
-1346.928424500107
 31
0.0
  0
TEXT
  8
SIZE
  6
CONTINUOUS
 62
    30
 10
-80.352000000000174
 20
-1321.928424500107
 30
0.0
 40
64.0
  1
898
 50
0.0
 41
0.9
 51
0.0
  7
STANDARD
 71
     0
 72
     1
 11
-0.0000000000001705
 21
-1321.928424500107
 31
0.0
210
0.0
220
0.0
230
1.0
  0
POINT
  8
DEFPOINTS
  6
CONTINUOUS
 62
    30
 10
448.99999999999977
 20
-1035.0000000000009
 30
0.0
  0
POINT
  8
DEFPOINTS
  6
CONTINUOUS
 62
    30
 10
-449.00000000000023
 20
-1035.0000000000009
 30
0.0
  0
POINT
  8
DEFPOINTS
  6
CONTINUOUS
 62
    30
 10
-449.00000000000023
 20
-1346.928424500107
 30
0.0
  0
LINE
  8
SIZE
  6
CONTINUOUS
 62
    30
 10
-568.99999999999977
 20
960.65245020051236
 30
0.0
 11
-568.99999999999977
 21
1246.3791061980539
 31
0.0
  0
LINE
  8
SIZE
  6
CONTINUOUS
 62
    30
 10
569.00000000000023
 20
957.91806491699197
 30
0.0
 11
569.00000000000023
 21
1246.3791061980539
 31
0.0
  0
LINE
  8
SIZE
  6
CONTINUOUS
 62
    30
 10
-556.99999999999977
 20
1226.3791061980539
 30
0.0
 11
557.00000000000023
 21
1226.3791061980539
 31
0.0
  0
CIRCLE
  8
SIZE
  6
CONTINUOUS
 62
    30
 10
-568.99999999999977
 20
1226.3791061980539
 30
0.0
 40
6.0
  0
LINE
  8
SIZE
  6
CONTINUOUS
 62
    30
 10
-568.99999999999977
 20
1226.3791061980539
 30
0.0
 11
-556.99999999999977
 21
1226.3791061980539
 31
0.0
  0
CIRCLE
  8
SIZE
  6
CONTINUOUS
 62
    30
 10
569.00000000000023
 20
1226.3791061980539
 30
0.0
 40
6.0
  0
LINE
  8
SIZE
  6
CONTINUOUS
 62
    30
 10
569.00000000000023
 20
1226.3791061980539
 30
0.0
 11
557.00000000000023
 21
1226.3791061980539
 31
0.0
  0
TEXT
  8
SIZE
  6
CONTINUOUS
 62
    30
 10
-95.615999999999659
 20
1251.3791061980539
 30
0.0
 40
64.0
  1
1138
 50
0.0
 41
0.9
 51
0.0
  7
STANDARD
 71
     0
 72
     1
 11
0.0000000000003553
 21
1251.3791061980539
 31
0.0
210
0.0
220
0.0
230
1.0
  0
POINT
  8
DEFPOINTS
  6
CONTINUOUS
 62
    30
 10
-568.99999999999977
 20
940.65245020051236
 30
0.0
  0
POINT
  8
DEFPOINTS
  6
CONTINUOUS
 62
    30
 10
569.00000000000023
 20
937.91806491699197
 30
0.0
  0
POINT
  8
DEFPOINTS
  6
CONTINUOUS
 62
    30
 10
569.00000000000023
 20
1226.3791061980539
 30
0.0
  0
LINE
  8
SIZE
  6
CONTINUOUS
 62
    30
 10
616.00000000000023
 20
974.99999999999898
 30
0.0
 11
616.00000000000023
 21
1357.44667735598
 31
0.0
  0
LINE
  8
SIZE
  6
CONTINUOUS
 62
    30
 10
-615.99999999999977
 20
975.00000000000011
 30
0.0
 11
-615.99999999999977
 21
1357.44667735598
 31
0.0
  0
LINE
  8
SIZE
  6
CONTINUOUS
 62
    30
 10
604.00000000000023
 20
1337.44667735598
 30
0.0
 11
-603.99999999999977
 21
1337.44667735598
 31
0.0
  0
CIRCLE
  8
SIZE
  6
CONTINUOUS
 62
    30
 10
616.00000000000023
 20
1337.44667735598
 30
0.0
 40
6.0
  0
LINE
  8
SIZE
  6
CONTINUOUS
 62
    30
 10
616.00000000000023
 20
1337.44667735598
 30
0.0
 11
604.00000000000023
 21
1337.44667735598
 31
0.0
  0
CIRCLE
  8
SIZE
  6
CONTINUOUS
 62
    30
 10
-615.99999999999977
 20
1337.44667735598
 30
0.0
 40
6.0
  0
LINE
  8
SIZE
  6
CONTINUOUS
 62
    30
 10
-615.99999999999977
 20
1337.44667735598
 30
0.0
 11
-603.99999999999977
 21
1337.44667735598
 31
0.0
  0
TEXT
  8
SIZE
  6
CONTINUOUS
 62
    30
 10
-101.37599999999965
 20
1362.44667735598
 30
0.0
 40
64.0
  1
1232
 50
0.0
 41
0.9
 51
0.0
  7
STANDARD
 71
     0
 72
     1
 11
0.0000000000003695
 21
1362.44667735598
 31
0.0
210
0.0
220
0.0
230
1.0
  0
POINT
  8
DEFPOINTS
  6
CONTINUOUS
 62
    30
 10
616.00000000000023
 20
954.99999999999898
 30
0.0
  0
POINT
  8
DEFPOINTS
  6
CONTINUOUS
 62
    30
 10
-615.99999999999977
 20
955.00000000000011
 30
0.0
  0
POINT
  8
DEFPOINTS
  6
CONTINUOUS
 62
    30
 10
-615.99999999999977
 20
1337.44667735598
 30
0.0
  0
LINE
  8
SERVICESPACE
  6
DASHDOT
 62
     2
 39
50.0
 10
-576.21367010599965
 20
975.00000000000011
 30
0.0
 11
-1676.2136701060001
 21
975.00000000000034
 31
0.0
  0
LINE
  8
SERVICESPACE
  6
DASHDOT
 62
     2
 10
-1676.2136701060001
 20
975.00000000000034
 30
0.0
 11
-1676.2136701060001
 21
-974.99999999999966
 31
0.0
  0
LINE
  8
SERVICESPACE
  6
DASHDOT
 62
     2
 39
50.0
 10
-576.21367010600011
 20
-974.99999999999989
 30
0.0
 11
-1676.2136701060001
 21
-974.99999999999966
 31
0.0
  0
LINE
  8
SIZE
  6
CONTINUOUS
 62
    30
 10
-576.213670106
 20
-886.30114973764375
 30
0.0
 11
-576.213670106
 21
-758.15711156893565
 31
0.0
  0
LINE
  8
SIZE
  6
CONTINUOUS
 62
    30
 10
-1676.2136701060001
 20
-806.55978257203856
 30
0.0
 11
-1676.2136701060001
 21
-758.15711156893565
 31
0.0
  0
LINE
  8
SIZE
  6
CONTINUOUS
 62
    30
 10
-588.213670106
 20
-778.15711156893565
 30
0.0
 11
-1664.2136701060001
 21
-778.15711156893565
 31
0.0
  0
CIRCLE
  8
SIZE
  6
CONTINUOUS
 62
    30
 10
-576.213670106
 20
-778.15711156893565
 30
0.0
 40
6.0
  0
LINE
  8
SIZE
  6
CONTINUOUS
 62
    30
 10
-576.213670106
 20
-778.15711156893565
 30
0.0
 11
-588.213670106
 21
-778.15711156893565
 31
0.0
  0
CIRCLE
  8
SIZE
  6
CONTINUOUS
 62
    30
 10
-1676.2136701060001
 20
-778.15711156893565
 30
0.0
 40
6.0
  0
LINE
  8
SIZE
  6
CONTINUOUS
 62
    30
 10
-1676.2136701060001
 20
-778.15711156893565
 30
0.0
 11
-1664.2136701060001
 21
-778.15711156893565
 31
0.0
  0
TEXT
  8
SIZE
  6
CONTINUOUS
 62
    30
 10
-1497.5660338930043
 20
-753.15711156893565
 30
0.0
 40
64.0
  1
1100以上
 50
0.0
 41
0.9
 51
0.0
  7
STANDARD
 71
     0
 72
     1
 11
-1331.6780338930043
 21
-753.15711156893565
 31
0.0
210
0.0
220
0.0
230
1.0
  0
POINT
  8
DEFPOINTS
  6
CONTINUOUS
 62
    30
 10
-576.213670106
 20
-906.30114973764375
 30
0.0
  0
POINT
  8
DEFPOINTS
  6
CONTINUOUS
 62
    30
 10
-1676.2136701060001
 20
-826.55978257203856
 30
0.0
  0
POINT
  8
DEFPOINTS
  6
CONTINUOUS
 62
    30
 10
-1676.2136701060001
 20
-778.15711156893565
 30
0.0
  0
LINE
  8
SIZE
  6
CONTINUOUS
 62
    30
 10
-1696.2136701060001
 20
975.00000000000034
 30
0.0
 11
-1964.706432981076
 21
975.00000000000045
 31
0.0
  0
LINE
  8
SIZE
  6
CONTINUOUS
 62
    30
 10
-1696.2136701060001
 20
-974.99999999999966
 30
0.0
 11
-1964.7064329810769
 21
-974.99999999999955
 31
0.0
  0
LINE
  8
SIZE
  6
CONTINUOUS
 62
    30
 10
-1944.706432981076
 20
963.00000000000045
 30
0.0
 11
-1944.7064329810769
 21
-962.99999999999955
 31
0.0
  0
CIRCLE
  8
SIZE
  6
CONTINUOUS
 62
    30
 10
-1944.706432981076
 20
975.00000000000045
 30
0.0
 40
6.0
  0
LINE
  8
SIZE
  6
CONTINUOUS
 62
    30
 10
-1944.706432981076
 20
975.00000000000045
 30
0.0
 11
-1944.706432981076
 21
963.00000000000045
 31
0.0
  0
CIRCLE
  8
SIZE
  6
CONTINUOUS
 62
    30
 10
-1944.7064329810769
 20
-974.99999999999955
 30
0.0
 40
6.0
  0
LINE
  8
SIZE
  6
CONTINUOUS
 62
    30
 10
-1944.7064329810769
 20
-974.99999999999955
 30
0.0
 11
-1944.7064329810769
 21
-962.99999999999955
 31
0.0
  0
TEXT
  8
SIZE
  6
CONTINUOUS
 62
    30
 10
-1969.706432981076
 20
-171.072
 30
0.0
 40
64.0
  1
1950以上
 50
90.0
 41
0.9
 51
0.0
  7
STANDARD
 71
     0
 72
     1
 11
-1969.706432981076
 21
0.0000000000001241
 31
0.0
210
0.0
220
0.0
230
1.0
  0
POINT
  8
DEFPOINTS
  6
CONTINUOUS
 62
    30
 10
-1676.2136701060001
 20
975.00000000000034
 30
0.0
  0
POINT
  8
DEFPOINTS
  6
CONTINUOUS
 62
    30
 10
-1676.2136701060001
 20
-974.99999999999966
 30
0.0
  0
POINT
  8
DEFPOINTS
  6
CONTINUOUS
 62
    30
 10
-1944.7064329810769
 20
-974.99999999999955
 30
0.0
  0
TEXT
  8
NOTE
  6
CONTINUOUS
 62
     4
 10
705.76881411257727
 20
-1386.0676685569849
 30
0.0
 40
64.0
  1
AH 4-(13.5×22)
 41
0.9
  0
LINE
  8
NOTE
  6
CONTINUOUS
 62
     4
 10
1546.3380535242361
 20
-1410.980948612741
 30
0.0
 11
693.39502411257672
 21
-1410.980948612741
 31
0.0
  0
LINE
  8
NOTE
  6
CONTINUOUS
 62
     4
 10
568.99999999999989
 20
-925.00000000000011
 30
0.0
 11
693.39502411257672
 21
-1410.980948612741
 31
0.0
  0
LINE
  8
NOTE
  6
CONTINUOUS
 62
     4
 10
568.99999999999989
 20
-925.00000000000011
 30
0.0
 11
571.1802333116575
 21
-966.44908220204707
 31
0.0
  0
LINE
  8
NOTE
  6
CONTINUOUS
 62
     4
 10
588.03956890831614
 20
-962.61321645731186
 30
0.0
 11
568.99999999999989
 21
-925.00000000000011
 31
0.0
  0
LINE
  8
SIZE
  6
CONTINUOUS
 62
    30
 10
-596.21367010600011
 20
-972.99999999999989
 30
0.0
 11
-1079.823848158876
 21
-972.99999999999977
 31
0.0
  0
LINE
  8
SIZE
  6
CONTINUOUS
 62
    30
 10
-596.21367010599965
 20
973.00000000000011
 30
0.0
 11
-1079.823848158876
 21
973.00000000000023
 31
0.0
  0
LINE
  8
SIZE
  6
CONTINUOUS
 62
    30
 10
-1059.823848158876
 20
-960.99999999999977
 30
0.0
 11
-1059.823848158876
 21
961.00000000000023
 31
0.0
  0
CIRCLE
  8
SIZE
  6
CONTINUOUS
 62
    30
 10
-1059.823848158876
 20
-972.99999999999977
 30
0.0
 40
6.0
  0
LINE
  8
SIZE
  6
CONTINUOUS
 62
    30
 10
-1059.823848158876
 20
-972.99999999999977
 30
0.0
 11
-1059.823848158876
 21
-960.99999999999977
 31
0.0
  0
CIRCLE
  8
SIZE
  6
CONTINUOUS
 62
    30
 10
-1059.823848158876
 20
973.00000000000023
 30
0.0
 40
6.0
  0
LINE
  8
SIZE
  6
CONTINUOUS
 62
    30
 10
-1059.823848158876
 20
973.00000000000023
 30
0.0
 11
-1059.823848158876
 21
961.00000000000023
 31
0.0
  0
TEXT
  8
SIZE
  6
CONTINUOUS
 62
    30
 10
-1084.823848158876
 20
-273.39718790635169
 30
0.0
 40
64.0
  1
1946
 50
90.0
 41
0.9
 51
0.0
  7
STANDARD
 71
     0
 72
     1
 11
-1084.823848158876
 21
-171.44518790635169
 31
0.0
210
0.0
220
0.0
230
1.0
  0
POINT
  8
DEFPOINTS
  6
CONTINUOUS
 62
    30
 10
-576.21367010600011
 20
-972.99999999999989
 30
0.0
  0
POINT
  8
DEFPOINTS
  6
CONTINUOUS
 62
    30
 10
-576.21367010599965
 20
973.00000000000011
 30
0.0
  0
POINT
  8
DEFPOINTS
  6
CONTINUOUS
 62
    30
 10
-1059.823848158876
 20
973.00000000000023
 30
0.0
  0
LINE
  8
DETAIL
  6
CONTINUOUS
 62
     5
 10
-136.21367010599971
 20
973.00000000000011
 30
0.0
 11
-136.21367010600011
 21
-973.0
 31
0.0
  0
LINE
  8
DETAIL
  6
CONTINUOUS
 62
     5
 39
50.0
 10
-136.21367010600011
 20
-955.0
 30
0.0
 11
615.99999999999977
 21
-955.00000000000011
 31
0.0
  0
LINE
  8
DETAIL
  6
CONTINUOUS
 62
     5
 39
50.0
 10
-448.99999999999977
 20
973.00000000000011
 30
0.0
 11
-448.99999999999977
 21
1035.0
 31
0.0
  0
LINE
  8
DETAIL
  6
CONTINUOUS
 62
     5
 39
50.0
 10
-136.21367010599971
 20
955.0
 30
0.0
 11
616.00000000000023
 21
954.99999999999989
 31
0.0
  0
LINE
  8
SIZE
  6
CONTINUOUS
 62
    30
 10
-576.21367010600011
 20
-992.99999999999989
 30
0.0
 11
-576.21367010600011
 21
-1203.4390531104359
 31
0.0
  0
LINE
  8
SIZE
  6
CONTINUOUS
 62
    30
 10
-136.21367010600011
 20
-993.0
 30
0.0
 11
-136.21367010600011
 21
-1203.4390531104359
 31
0.0
  0
LINE
  8
SIZE
  6
CONTINUOUS
 62
    30
 10
-564.21367010600011
 20
-1183.4390531104359
 30
0.0
 11
-148.21367010600011
 21
-1183.4390531104359
 31
0.0
  0
CIRCLE
  8
SIZE
  6
CONTINUOUS
 62
    30
 10
-576.21367010600011
 20
-1183.4390531104359
 30
0.0
 40
6.0
  0
LINE
  8
SIZE
  6
CONTINUOUS
 62
    30
 10
-576.21367010600011
 20
-1183.4390531104359
 30
0.0
 11
-564.21367010600011
 21
-1183.4390531104359
 31
0.0
  0
CIRCLE
  8
SIZE
  6
CONTINUOUS
 62
    30
 10
-136.21367010600011
 20
-1183.4390531104359
 30
0.0
 40
6.0
  0
LINE
  8
SIZE
  6
CONTINUOUS
 62
    30
 10
-136.21367010600011
 20
-1183.4390531104359
 30
0.0
 11
-148.21367010600011
 21
-1183.4390531104359
 31
0.0
  0
TEXT
  8
SIZE
  6
CONTINUOUS
 62
    30
 10
-438.29367010600009
 20
-1158.4390531104359
 30
0.0
 40
64.0
  1
440
 50
0.0
 41
0.9
 51
0.0
  7
STANDARD
 71
     0
 72
     1
 11
-356.21367010600011
 21
-1158.4390531104359
 31
0.0
210
0.0
220
0.0
230
1.0
  0
POINT
  8
DEFPOINTS
  6
CONTINUOUS
 62
    30
 10
-576.21367010600011
 20
-972.99999999999989
 30
0.0
  0
POINT
  8
DEFPOINTS
  6
CONTINUOUS
 62
    30
 10
-136.21367010600011
 20
-973.0
 30
0.0
  0
POINT
  8
DEFPOINTS
  6
CONTINUOUS
 62
    30
 10
-136.21367010600011
 20
-1183.4390531104359
 30
0.0
  0
LINE
  8
NOTE
  6
CENTER
 62
     4
 10
-559.41367010599993
 20
54.802577214919538
 30
0.0
 11
-559.41367010599993
 21
-65.913066103392239
 31
0.0
  0
CIRCLE
  8
DETAIL
  6
CONTINUOUS
 62
     5
 39
50.0
 10
-559.41367010599993
 20
-0.0000000000008067
 30
0.0
 40
12.0
  0
TEXT
  8
NOTE
  6
CONTINUOUS
 62
     4
 10
-988.51866550595742
 20
-270.37867455892922
 30
0.0
 40
64.0
  1
D R1/2
 41
0.9
  0
LINE
  8
NOTE
  6
CONTINUOUS
 62
     4
 10
-1016.471776004472
 20
-301.3287673764969
 30
0.0
 11
-683.8086942185779
 21
-301.32876737649678
 31
0.0
  0
LINE
  8
NOTE
  6
CONTINUOUS
 62
     4
 10
-559.41367010600129
 20
-0.0000000000007958
 30
0.0
 11
-683.8086942185779
 21
-301.32876737649678
 31
0.0
  0
LINE
  8
NOTE
  6
CONTINUOUS
 62
     4
 10
-559.41367010600129
 20
-0.0000000000007958
 30
0.0
 11
-565.73067022063219
 21
-41.553691540081331
 31
0.0
  0
LINE
  8
NOTE
  6
CONTINUOUS
 62
     4
 10
-582.87947045647047
 20
-31.462657830665758
 30
0.0
 11
-559.41367010600129
 21
-0.0000000000007958
 31
0.0
  0
POINT
  8
ARRANGE
  6
CONTINUOUS
 62
     1
 10
0.0
 20
0.0
 30
0.0
 39
50.0
 50
270.0
  0
LINE
  8
SIZE
  6
CONTINUOUS
 62
    30
 10
469.00000000000023
 20
1034.9999999999991
 30
0.0
 11
991.6988881726561
 21
1034.9999999999991
 31
0.0
  0
LINE
  8
SIZE
  6
CONTINUOUS
 62
    30
 10
636.00000000000023
 20
954.99999999999898
 30
0.0
 11
991.69888817265598
 21
954.99999999999886
 31
0.0
  0
LINE
  8
SIZE
  6
CONTINUOUS
 62
    30
 10
971.69888817265598
 20
966.99999999999886
 30
0.0
 11
971.69888817265598
 21
1022.999999999999
 31
0.0
  0
LINE
  8
SIZE
  6
CONTINUOUS
 62
    30
 10
971.69888817265598
 20
1034.9999999999991
 30
0.0
 11
971.69888817265598
 21
1190.2571428571421
 31
0.0
  0
CIRCLE
  8
SIZE
  6
CONTINUOUS
 62
    30
 10
971.69888817265598
 20
954.99999999999886
 30
0.0
 40
6.0
  0
LINE
  8
SIZE
  6
CONTINUOUS
 62
    30
 10
971.69888817265598
 20
954.99999999999886
 30
0.0
 11
971.69888817265598
 21
966.99999999999886
 31
0.0
  0
CIRCLE
  8
SIZE
  6
CONTINUOUS
 62
    30
 10
971.69888817265598
 20
1034.9999999999991
 30
0.0
 40
6.0
  0
LINE
  8
SIZE
  6
CONTINUOUS
 62
    30
 10
971.69888817265598
 20
1034.9999999999991
 30
0.0
 11
971.69888817265598
 21
1022.9999999999991
 31
0.0
  0
TEXT
  8
SIZE
  6
CONTINUOUS
 62
    30
 10
946.69888817265587
 20
1064.48457142857
 30
0.0
 40
64.0
  1
80
 50
90.0
 41
0.9
 51
0.0
  7
STANDARD
 71
     0
 72
     1
 11
946.69888817265587
 21
1118.62857142857
 31
0.0
210
0.0
220
0.0
230
1.0
  0
POINT
  8
DEFPOINTS
  6
CONTINUOUS
 62
    30
 10
449.00000000000023
 20
1034.9999999999991
 30
0.0
  0
POINT
  8
DEFPOINTS
  6
CONTINUOUS
 62
    30
 10
616.00000000000023
 20
954.99999999999898
 30
0.0
  0
POINT
  8
DEFPOINTS
  6
CONTINUOUS
 62
    30
 10
971.69888817265598
 20
954.99999999999886
 30
0.0
  0
LINE
  8
SIZE
  6
CONTINUOUS
 62
    30
 10
635.99999999999977
 20
-955.00000000000102
 30
0.0
 11
991.6988881726553
 21
-955.00000000000114
 31
0.0
  0
LINE
  8
SIZE
  6
CONTINUOUS
 62
    30
 10
468.99999999999977
 20
-1035.0000000000009
 30
0.0
 11
991.69888817265519
 21
-1035.0000000000009
 31
0.0
  0
LINE
  8
SIZE
  6
CONTINUOUS
 62
    30
 10
971.6988881726553
 20
-967.00000000000114
 30
0.0
 11
971.6988881726553
 21
-1023.000000000001
 31
0.0
  0
LINE
  8
SIZE
  6
CONTINUOUS
 62
    30
 10
971.6988881726553
 20
-1035.0000000000009
 30
0.0
 11
971.6988881726553
 21
-1190.2571428571439
 31
0.0
  0
CIRCLE
  8
SIZE
  6
CONTINUOUS
 62
    30
 10
971.6988881726553
 20
-955.00000000000114
 30
0.0
 40
6.0
  0
LINE
  8
SIZE
  6
CONTINUOUS
 62
    30
 10
971.6988881726553
 20
-955.00000000000114
 30
0.0
 11
971.6988881726553
 21
-967.00000000000114
 31
0.0
  0
CIRCLE
  8
SIZE
  6
CONTINUOUS
 62
    30
 10
971.6988881726553
 20
-1035.0000000000009
 30
0.0
 40
6.0
  0
LINE
  8
SIZE
  6
CONTINUOUS
 62
    30
 10
971.6988881726553
 20
-1035.0000000000009
 30
0.0
 11
971.6988881726553
 21
-1023.0000000000009
 31
0.0
  0
TEXT
  8
SIZE
  6
CONTINUOUS
 62
    30
 10
946.69888817265542
 20
-1172.772571428573
 30
0.0
 40
64.0
  1
80
 50
90.0
 41
0.9
 51
0.0
  7
STANDARD
 71
     0
 72
     1
 11
946.69888817265542
 21
-1118.628571428573
 31
0.0
210
0.0
220
0.0
230
1.0
  0
POINT
  8
DEFPOINTS
  6
CONTINUOUS
 62
    30
 10
615.99999999999977
 20
-955.00000000000102
 30
0.0
  0
POINT
  8
DEFPOINTS
  6
CONTINUOUS
 62
    30
 10
448.99999999999977
 20
-1035.0000000000009
 30
0.0
  0
POINT
  8
DEFPOINTS
  6
CONTINUOUS
 62
    30
 10
971.6988881726553
 20
-1035.0000000000009
 30
0.0
  0
TEXT
  8
NOTE
  6
CONTINUOUS
 62
     4
 10
-44.901538391717622
 20
-1185.44747072939
 30
0.0
 40
64.0
  1
EA
 50
0.0
 41
0.9
 51
0.0
  7
STANDARD
 71
     0
 11
0.0
 21
0.0
 31
0.0
210
0.0
220
0.0
230
1.0
  0
TEXT
  8
NOTE
  6
CONTINUOUS
 62
     4
 10
-41.079912538221834
 20
1115.7787800545429
 30
0.0
 40
64.0
  1
RA
 50
0.0
 41
0.9
 51
0.0
  7
STANDARD
 71
     0
 11
0.0
 21
0.0
 31
0.0
210
0.0
220
0.0
230
1.0
  0
TEXT
  8
NOTE
  6
CONTINUOUS
 62
     4
 10
-1466.971936148067
 20
438.26961824022243
 30
0.0
 40
64.0
  1
メンテナンススペース
 41
0.9
  0
ENDSEC
  0
EOF
