  0
SECTION
  2
HEADER
  9
$ACADVER
  1
AC1009
  9
$DWGCODEPAGE
  3
dos932
  9
$INSBASE
 10
0.0
 20
0.0
 30
0.0
  9
$EXTMIN
 10
-488.53452917949289
 20
-687.9730110382352
 30
-0.0030516297567118
  9
$EXTMAX
 10
1089.459240156526
 20
809.4177328858259
 30
0.0007631257219032
  9
$LIMMIN
 10
-2970.0
 20
-2100.0
  9
$LIMMAX
 10
2970.0
 20
2100.0
  9
$ORTHOMODE
 70
     1
  9
$REGENMODE
 70
     1
  9
$FILLMODE
 70
     1
  9
$QTEXTMODE
 70
     0
  9
$MIRRTEXT
 70
     0
  9
$LTSCALE
 40
20.0
  9
$ATTMODE
 70
     1
  9
$TEXTSIZE
 40
64.0
  9
$TRACEWID
 40
0.05
  9
$TEXTSTYLE
  7
STANDARD
  9
$CLAYER
  8
SIZE
  9
$CELTYPE
  6
CONTINUOUS
  9
$CECOLOR
 62
     7
  9
$DIMSCALE
 40
1.0
  9
$DIMASZ
 40
12.0
  9
$DIMEXO
 40
20.0
  9
$DIMDLI
 40
200.0
  9
$DIMRND
 40
0.0
  9
$DIMDLE
 40
0.0
  9
$DIMEXE
 40
20.0
  9
$DIMTP
 40
0.0
  9
$DIMTM
 40
0.0
  9
$DIMTXT
 40
64.0
  9
$DIMCEN
 40
0.09
  9
$DIMTSZ
 40
0.0
  9
$DIMTOL
 70
     0
  9
$DIMLIM
 70
     0
  9
$DIMTIH
 70
     0
  9
$DIMTOH
 70
     0
  9
$DIMSE1
 70
     0
  9
$DIMSE2
 70
     0
  9
$DIMTAD
 70
     1
  9
$DIMZIN
 70
     8
  9
$DIMBLK
  1

  9
$DIMASO
 70
     1
  9
$DIMSHO
 70
     0
  9
$DIMPOST
  1

  9
$DIMAPOST
  1

  9
$DIMALT
 70
     0
  9
$DIMALTD
 70
     2
  9
$DIMALTF
 40
25.399999999999999
  9
$DIMLFAC
 40
1.0
  9
$DIMTOFL
 70
     1
  9
$DIMTVP
 40
0.0
  9
$DIMTIX
 70
     1
  9
$DIMSOXD
 70
     0
  9
$DIMSAH
 70
     0
  9
$DIMBLK1
  1

  9
$DIMBLK2
  1

  9
$DIMSTYLE
  2
STANDARD
  9
$DIMCLRD
 70
     7
  9
$DIMCLRE
 70
     7
  9
$DIMCLRT
 70
     7
  9
$DIMTFAC
 40
1.0
  9
$DIMGAP
 40
25.0
  9
$LUNITS
 70
     2
  9
$LUPREC
 70
     4
  9
$SKETCHINC
 40
0.1
  9
$FILLETRAD
 40
3.0
  9
$AUNITS
 70
     1
  9
$AUPREC
 70
     3
  9
$MENU
  1
ACAD
  9
$ELEVATION
 40
0.0
  9
$PELEVATION
 40
0.0
  9
$THICKNESS
 40
0.0
  9
$LIMCHECK
 70
     0
  9
$CHAMFERA
 40
0.0
  9
$CHAMFERB
 40
0.0
  9
$SKPOLY
 70
     0
  9
$TDCREATE
 40
2453019.62301037
  9
$TDUPDATE
 40
2459268.674948622
  9
$TDINDWG
 40
1.7217057986
  9
$TDUSRTIMER
 40
1.7217057986
  9
$USRTIMER
 70
     1
  9
$ANGBASE
 50
0.0
  9
$ANGDIR
 70
     0
  9
$PDMODE
 70
     3
  9
$PDSIZE
 40
-2.0
  9
$PLINEWID
 40
0.0
  9
$SPLFRAME
 70
     0
  9
$SPLINETYPE
 70
     6
  9
$SPLINESEGS
 70
     8
  9
$SURFTAB1
 70
     6
  9
$SURFTAB2
 70
     6
  9
$SURFTYPE
 70
     6
  9
$SURFU
 70
     6
  9
$SURFV
 70
     6
  9
$UCSNAME
  2

  9
$UCSORG
 10
0.0
 20
0.0
 30
0.0
  9
$UCSXDIR
 10
1.0
 20
0.0
 30
0.0
  9
$UCSYDIR
 10
0.0
 20
1.0
 30
0.0
  9
$PUCSNAME
  2

  9
$PUCSORG
 10
0.0
 20
0.0
 30
0.0
  9
$PUCSXDIR
 10
1.0
 20
0.0
 30
0.0
  9
$PUCSYDIR
 10
0.0
 20
1.0
 30
0.0
  9
$USERI1
 70
     0
  9
$USERI2
 70
     0
  9
$USERI3
 70
     0
  9
$USERI4
 70
     0
  9
$USERI5
 70
     0
  9
$USERR1
 40
20.0
  9
$USERR2
 40
0.0
  9
$USERR3
 40
0.0
  9
$USERR4
 40
0.0
  9
$USERR5
 40
0.0
  9
$WORLDVIEW
 70
     1
  9
$SHADEDGE
 70
     3
  9
$SHADEDIF
 70
    70
  9
$TILEMODE
 70
     1
  9
$MAXACTVP
 70
    48
  9
$PINSBASE
 10
0.0
 20
0.0
 30
0.0
  9
$PLIMCHECK
 70
     0
  9
$PEXTMIN
 10
-100000000000000000000.0
 20
-100000000000000000000.0
 30
-100000000000000000000.0
  9
$PEXTMAX
 10
100000000000000000000.0
 20
100000000000000000000.0
 30
100000000000000000000.0
  9
$PLIMMIN
 10
0.0
 20
0.0
  9
$PLIMMAX
 10
12.0
 20
9.0
  9
$UNITMODE
 70
     0
  9
$VISRETAIN
 70
     0
  9
$PLINEGEN
 70
     0
  9
$PSLTSCALE
 70
     0
  9
$TREEDEPTH
 70
  3020
  9
$ATTDIA
 70
     0
  9
$ATTREQ
 70
     1
  9
$BLIPMODE
 70
     1
  9
$COORDS
 70
     1
  9
$DRAGMODE
 70
     2
  9
$OSMODE
 70
     0
  9
$HANDLING
 70
     0
  9
$HANDSEED
  5
F397
  0
ENDSEC
  0
SECTION
  2
TABLES
  0
TABLE
  2
LTYPE
 70
     2
  0
LTYPE
  2
CONTINUOUS
 70
     0
  3
実線
 72
    65
 73
     0
 40
0.0
  0
LTYPE
  2
DASHDOT
 70
     0
  3
____ _ ____ _ ____ _ ____ _ ____ _ ____ _ ____
 72
    65
 73
     4
 40
5.5
 49
4.0
 49
-0.6
 49
0.3
 49
-0.6
  0
ENDTAB
  0
TABLE
  2
LAYER
 70
    12
  0
LAYER
  2
0
 70
     0
 62
     7
  6
CONTINUOUS
  0
LAYER
  2
BASIS
 70
     0
 62
     6
  6
DASHDOT
  0
LAYER
  2
OUTLINE
 70
     0
 62
     3
  6
CONTINUOUS
  0
LAYER
  2
DETAIL
 70
     0
 62
     5
  6
CONTINUOUS
  0
LAYER
  2
SIZE
 70
     0
 62
    30
  6
CONTINUOUS
  0
LAYER
  2
ARRANGE
 70
     0
 62
     1
  6
CONTINUOUS
  0
LAYER
  2
DEFPOINTS
 70
     0
 62
     7
  6
CONTINUOUS
  0
LAYER
  2
ETC
 70
     0
 62
    61
  6
CONTINUOUS
  0
LAYER
  2
FIX
 70
     0
 62
    11
  6
CONTINUOUS
  0
LAYER
  2
NOTE
 70
     0
 62
     4
  6
CONTINUOUS
  0
LAYER
  2
SERVICESPACE
 70
    64
 62
     2
  6
DASHDOT
  0
LAYER
  2
SYMBOLLINE
 70
    64
 62
    15
  6
CONTINUOUS
  0
ENDTAB
  0
TABLE
  2
STYLE
 70
     1
  0
STYLE
  2
STANDARD
 70
     0
 40
64.0
 41
0.9
 50
0.0
 71
     0
 42
64.0
  3
SIMPLEX.shx
  4
BIGFONT.shx
  0
ENDTAB
  0
TABLE
  2
APPID
 70
    19
  0
APPID
  2
ACAD
 70
     0
  0
APPID
  2
AUTOCAD_POSTSCRIPT_FIGURE
 70
     0
  0
APPID
  2
ACAD_EXEMPT_FROM_CAD_STANDARDS
 70
     0
  0
APPID
  2
ACAD_PSEXT
 70
     0
  0
APPID
  2
ACAUTHENVIRON
 70
     0
  0
APPID
  2
GENIUS_GENOENT_13
 70
     0
  0
APPID
  2
GENIUS_GENCFG_13
 70
     0
  0
APPID
  2
GENIUS_GENCFG0_13
 70
     0
  0
APPID
  2
GENIUS_GENCFG1_13
 70
     0
  0
APPID
  2
GENIUS_GENCFG2_13
 70
     0
  0
APPID
  2
GENIUS_GENCFG3_13
 70
     0
  0
APPID
  2
GENIUS_GENCFG4_13
 70
     0
  0
APPID
  2
GENIUS_GEVCFG0_13
 70
     0
  0
APPID
  2
CONTENTBLOCKICON
 70
     0
  0
APPID
  2
CONTENTBLOCKDESCRIPTION
 70
     0
  0
APPID
  2
ACAD_NAV_VCDISPLAY
 70
     0
  0
APPID
  2
ACAD_MLEADERVER
 70
     0
  0
APPID
  2
ACDBDYNAMICBLOCKTRUENAME
 70
     0
  0
APPID
  2
ACDBDYNAMICBLOCKGUID
 70
     0
  0
ENDTAB
  0
TABLE
  2
DIMSTYLE
 70
     1
  0
DIMSTYLE
  2
STANDARD
 70
     0
  3

  4

  5
_ORIGIN
  6

  7

 40
1.0
 41
12.0
 42
20.0
 43
200.0
 44
20.0
 45
0.0
 46
0.0
 47
0.0
 48
0.0
140
64.0
141
0.09
142
0.0
143
25.399999999999999
144
1.0
145
0.0
146
1.0
147
25.0
 71
     0
 72
     0
 73
     0
 74
     0
 75
     0
 76
     0
 77
     1
 78
     8
170
     0
171
     2
172
     1
173
     0
174
     1
175
     0
176
     7
177
     7
178
     7
  0
ENDTAB
  0
TABLE
  2
VIEW
 70
     1
  0
VIEW
  2
ALL
 70
     0
 40
4282.6198079999986
 10
0.0
 20
41.309904000000003
 41
5940.0
 11
0.0
 21
0.0
 31
1.0
 12
0.0
 22
0.0
 32
0.0
 42
50.0
 43
0.0
 44
0.0
 50
0.0
 71
     0
  0
ENDTAB
  0
TABLE
  2
UCS
 70
     0
  0
ENDTAB
  0
TABLE
  2
VPORT
 70
     1
  0
VPORT
  2
*ACTIVE
 70
     0
 10
0.0
 20
0.0
 11
1.0
 21
1.0
 12
300.46235548851672
 22
60.72236092379535
 13
0.0
 23
0.0
 14
1.0
 24
1.0
 15
0.0
 25
0.0
 16
0.0
 26
0.0
 36
1.0
 17
0.0
 27
0.0
 37
0.0
 40
1507.429117626345
 41
1.767337807606264
 42
50.0
 43
0.0
 44
0.0
 50
0.0
 51
0.0
 71
     0
 72
  1000
 73
     1
 74
     3
 75
     0
 76
     0
 77
     0
 78
     0
  0
ENDTAB
  0
ENDSEC
  0
SECTION
  2
BLOCKS
  0
BLOCK
  8
0
  2
_ORIGIN
 70
     0
 10
0.0
 20
0.0
 30
0.0
  3
_ORIGIN
  1
_ORIGIN
  0
CIRCLE
  8
SIZE
  6
CONTINUOUS
 62
    30
 10
0.0
 20
0.0
 30
0.0
 40
0.5
  0
LINE
  8
SIZE
  6
CONTINUOUS
 62
    30
 10
0.0
 20
0.0
 30
0.0
 11
-1.0
 21
0.0
 31
0.0
  0
ENDBLK
  8
0
  0
ENDSEC
  0
SECTION
  2
ENTITIES
  0
TEXT
  8
ETC
  6
CONTINUOUS
 62
    61
 10
450.25983611888108
 20
678.70122964030611
 30
0.0
 40
64.0
  1
BFS-100SKA2_1
 41
0.9
  0
TEXT
  8
ETC
  6
CONTINUOUS
 62
    61
 10
446.07384211888069
 20
560.74591962547481
 30
0.0
 40
64.0
  1
産業扇
 41
0.9
  0
CIRCLE
  8
ARRANGE
  6
CONTINUOUS
 62
     1
 10
0.0
 20
0.0
 30
0.0
 40
40.0
  0
POINT
  8
ARRANGE
  6
CONTINUOUS
 62
     1
 10
0.0
 20
0.0
 30
0.0
  0
LINE
  8
BASIS
  6
DASHDOT
 62
     6
 10
0.0
 20
398.94646548401693
 30
0.0
 11
0.0
 21
-399.92646548401689
 31
0.0
  0
LINE
  8
BASIS
  6
DASHDOT
 62
     6
 10
-202.40509668326601
 20
0.0000000000000284
 30
0.0
 11
202.40509668326601
 21
-0.0000000000000284
 31
0.0
  0
TEXT
  8
ETC
  6
CONTINUOUS
 62
    61
 10
496.77524036743671
 20
452.59714673924958
 30
0.0
 40
40.0
  1
BFS-100SKA2
 41
0.9
  0
LINE
  8
SIZE
  6
CONTINUOUS
 62
    30
 10
-239.92920116556371
 20
286.57012530241889
 30
0.0
 11
-239.92920116556371
 21
740.17110285568401
 31
0.0
  0
LINE
  8
SIZE
  6
CONTINUOUS
 62
    30
 10
240.00914413757249
 20
286.57012530241877
 30
0.0
 11
240.00914413757249
 21
740.17110285568401
 31
0.0
  0
LINE
  8
SIZE
  6
CONTINUOUS
 62
    30
 10
-227.92920116556371
 20
720.17110285568401
 30
0.0
 11
228.00914413757249
 21
720.17110285568401
 31
0.0
  0
CIRCLE
  8
SIZE
  6
CONTINUOUS
 62
    30
 10
-239.92920116556371
 20
720.17110285568401
 30
0.0
 40
6.0
  0
LINE
  8
SIZE
  6
CONTINUOUS
 62
    30
 10
-239.92920116556371
 20
720.17110285568401
 30
0.0
 11
-227.92920116556371
 21
720.17110285568401
 31
0.0
  0
CIRCLE
  8
SIZE
  6
CONTINUOUS
 62
    30
 10
240.00914413757249
 20
720.17110285568401
 30
0.0
 40
6.0
  0
LINE
  8
SIZE
  6
CONTINUOUS
 62
    30
 10
240.00914413757249
 20
720.17110285568401
 30
0.0
 11
228.00914413757249
 21
720.17110285568401
 31
0.0
  0
TEXT
  8
SIZE
  6
CONTINUOUS
 62
    30
 10
-70.41927677126786
 20
745.17110285568401
 30
0.0
 40
64.0
  1
480
 41
0.9
 72
     1
 11
3.637866085874975
 21
745.17110285568401
 31
0.0
  0
POINT
  8
DEFPOINTS
  6
CONTINUOUS
 62
    30
 10
-239.92920116556371
 20
266.57012530241889
 30
0.0
  0
POINT
  8
DEFPOINTS
  6
CONTINUOUS
 62
    30
 10
240.00914413757249
 20
266.57012530241877
 30
0.0
  0
POINT
  8
DEFPOINTS
  6
CONTINUOUS
 62
    30
 10
240.00914413757249
 20
720.17110285568401
 30
0.0
  0
LINE
  8
SIZE
  6
CONTINUOUS
 62
    30
 10
-219.9434581634298
 20
288.63670147190919
 30
0.0
 11
-219.9434581634298
 21
633.16182137077976
 31
0.0
  0
LINE
  8
SIZE
  6
CONTINUOUS
 62
    30
 10
220.02340113543821
 20
288.93670147190898
 30
0.0
 11
220.02340113543821
 21
633.16182137077976
 31
0.0
  0
LINE
  8
SIZE
  6
CONTINUOUS
 62
    30
 10
-207.9434581634298
 20
613.16182137077976
 30
0.0
 11
208.02340113543821
 21
613.16182137077976
 31
0.0
  0
CIRCLE
  8
SIZE
  6
CONTINUOUS
 62
    30
 10
-219.9434581634298
 20
613.16182137077976
 30
0.0
 40
6.0
  0
LINE
  8
SIZE
  6
CONTINUOUS
 62
    30
 10
-219.9434581634298
 20
613.16182137077976
 30
0.0
 11
-207.9434581634298
 21
613.16182137077976
 31
0.0
  0
CIRCLE
  8
SIZE
  6
CONTINUOUS
 62
    30
 10
220.02340113543821
 20
613.16182137077976
 30
0.0
 40
6.0
  0
LINE
  8
SIZE
  6
CONTINUOUS
 62
    30
 10
220.02340113543821
 20
613.16182137077976
 30
0.0
 11
208.02340113543821
 21
613.16182137077976
 31
0.0
  0
TEXT
  8
SIZE
  6
CONTINUOUS
 62
    30
 10
-74.05714285714285
 20
638.16182137077976
 30
0.0
 40
64.0
  1
440
 41
0.9
 72
     1
 11
0.0
 21
638.16182137077976
 31
0.0
  0
POINT
  8
DEFPOINTS
  6
CONTINUOUS
 62
    30
 10
-219.9434581634298
 20
268.63670147190919
 30
0.0
  0
POINT
  8
DEFPOINTS
  6
CONTINUOUS
 62
    30
 10
220.02340113543821
 20
268.93670147190898
 30
0.0
  0
POINT
  8
DEFPOINTS
  6
CONTINUOUS
 62
    30
 10
220.02340113543821
 20
613.16182137077976
 30
0.0
  0
LINE
  8
SIZE
  6
CONTINUOUS
 62
    30
 10
-181.63043240339269
 20
281.61366103788941
 30
0.0
 11
-181.63043240339269
 21
516.92184931856718
 31
0.0
  0
LINE
  8
SIZE
  6
CONTINUOUS
 62
    30
 10
181.7103753754009
 20
281.6136610378893
 30
0.0
 11
181.7103753754009
 21
516.92184931856718
 31
0.0
  0
LINE
  8
SIZE
  6
CONTINUOUS
 62
    30
 10
-169.63043240339269
 20
496.92184931856718
 30
0.0
 11
169.7103753754009
 21
496.92184931856718
 31
0.0
  0
CIRCLE
  8
SIZE
  6
CONTINUOUS
 62
    30
 10
-181.63043240339269
 20
496.92184931856718
 30
0.0
 40
6.0
  0
LINE
  8
SIZE
  6
CONTINUOUS
 62
    30
 10
-181.63043240339269
 20
496.92184931856718
 30
0.0
 11
-169.63043240339269
 21
496.92184931856718
 31
0.0
  0
CIRCLE
  8
SIZE
  6
CONTINUOUS
 62
    30
 10
181.7103753754009
 20
496.92184931856718
 30
0.0
 40
6.0
  0
LINE
  8
SIZE
  6
CONTINUOUS
 62
    30
 10
181.7103753754009
 20
496.92184931856718
 30
0.0
 11
169.7103753754009
 21
496.92184931856718
 31
0.0
  0
TEXT
  8
SIZE
  6
CONTINUOUS
 62
    30
 10
-72.113430484128358
 20
521.92184931856718
 30
0.0
 40
64.0
  1
363
 41
0.9
 72
     1
 11
1.9437123730144781
 21
521.92184931856718
 31
0.0
  0
POINT
  8
DEFPOINTS
  6
CONTINUOUS
 62
    30
 10
-181.63043240339269
 20
261.61366103788941
 30
0.0
  0
POINT
  8
DEFPOINTS
  6
CONTINUOUS
 62
    30
 10
181.7103753754009
 20
261.6136610378893
 30
0.0
  0
POINT
  8
DEFPOINTS
  6
CONTINUOUS
 62
    30
 10
181.7103753754009
 20
496.92184931856718
 30
0.0
  0
LINE
  8
SIZE
  6
CONTINUOUS
 62
    30
 10
-268.30229446310801
 20
246.02478149622539
 30
0.0
 11
-285.77905854026221
 21
246.02478149622539
 31
0.0
  0
LINE
  8
SIZE
  6
CONTINUOUS
 62
    30
 10
-268.30229446310801
 20
-245.7849525801989
 30
0.0
 11
-285.77905854026238
 21
-245.7849525801989
 31
0.0
  0
LINE
  8
SIZE
  6
CONTINUOUS
 62
    30
 10
-265.77905854026221
 20
234.02478149622539
 30
0.0
 11
-265.77905854026238
 21
-233.7849525801989
 31
0.0
  0
CIRCLE
  8
SIZE
  6
CONTINUOUS
 62
    30
 10
-265.77905854026221
 20
246.02478149622539
 30
0.0
 40
6.0
  0
LINE
  8
SIZE
  6
CONTINUOUS
 62
    30
 10
-265.77905854026221
 20
246.02478149622539
 30
0.0
 11
-265.77905854026221
 21
234.02478149622539
 31
0.0
  0
CIRCLE
  8
SIZE
  6
CONTINUOUS
 62
    30
 10
-265.77905854026238
 20
-245.7849525801989
 30
0.0
 40
6.0
  0
LINE
  8
SIZE
  6
CONTINUOUS
 62
    30
 10
-265.77905854026238
 20
-245.7849525801989
 30
0.0
 11
-265.77905854026238
 21
-233.7849525801989
 31
0.0
  0
TEXT
  8
SIZE
  6
CONTINUOUS
 62
    30
 10
-290.77905854026221
 20
-73.937228399129651
 30
0.0
 40
64.0
  1
492
 50
90.0
 41
0.9
 72
     1
 11
-290.77905854026221
 21
0.1199144580131986
 31
0.0
  0
POINT
  8
DEFPOINTS
  6
CONTINUOUS
 62
    30
 10
-248.30229446310801
 20
246.02478149622539
 30
0.0
  0
POINT
  8
DEFPOINTS
  6
CONTINUOUS
 62
    30
 10
-248.30229446310801
 20
-245.7849525801989
 30
0.0
  0
POINT
  8
DEFPOINTS
  6
CONTINUOUS
 62
    30
 10
-265.77905854026238
 20
-245.7849525801989
 30
0.0
  0
LINE
  8
SIZE
  6
CONTINUOUS
 62
    30
 10
-259.92920116556371
 20
266.57012530241889
 30
0.0
 11
-419.51349647032953
 21
266.57012530241889
 31
0.0
  0
LINE
  8
SIZE
  6
CONTINUOUS
 62
    30
 10
-259.92920116556371
 20
-266.57012530241877
 30
0.0
 11
-419.51349647032981
 21
-266.57012530241872
 31
0.0
  0
LINE
  8
SIZE
  6
CONTINUOUS
 62
    30
 10
-399.51349647032953
 20
254.57012530241889
 30
0.0
 11
-399.51349647032981
 21
-254.57012530241869
 31
0.0
  0
CIRCLE
  8
SIZE
  6
CONTINUOUS
 62
    30
 10
-399.51349647032953
 20
266.57012530241889
 30
0.0
 40
6.0
  0
LINE
  8
SIZE
  6
CONTINUOUS
 62
    30
 10
-399.51349647032953
 20
266.57012530241889
 30
0.0
 11
-399.51349647032953
 21
254.57012530241889
 31
0.0
  0
CIRCLE
  8
SIZE
  6
CONTINUOUS
 62
    30
 10
-399.51349647032981
 20
-266.57012530241872
 30
0.0
 40
6.0
  0
LINE
  8
SIZE
  6
CONTINUOUS
 62
    30
 10
-399.51349647032981
 20
-266.57012530241872
 30
0.0
 11
-399.51349647032981
 21
-254.57012530241869
 31
0.0
  0
TEXT
  8
SIZE
  6
CONTINUOUS
 62
    30
 10
-424.51349647032981
 20
-74.057142857142878
 30
0.0
 40
64.0
  1
533
 50
90.0
 41
0.9
 72
     1
 11
-424.51349647032981
 21
-0.0000000000000284
 31
0.0
  0
POINT
  8
DEFPOINTS
  6
CONTINUOUS
 62
    30
 10
-239.92920116556371
 20
266.57012530241889
 30
0.0
  0
POINT
  8
DEFPOINTS
  6
CONTINUOUS
 62
    30
 10
-239.92920116556371
 20
-266.57012530241877
 30
0.0
  0
POINT
  8
DEFPOINTS
  6
CONTINUOUS
 62
    30
 10
-399.51349647032981
 20
-266.57012530241872
 30
0.0
  0
CIRCLE
  8
FIX
  6
CONTINUOUS
 62
    11
 10
220.02340113543781
 20
-245.78495258019919
 30
0.0
 40
4.9974999999999996
  0
LINE
  8
NOTE
  6
CONTINUOUS
 62
     4
 10
220.02340113543781
 20
-268.69687255588298
 30
0.0
 11
220.02340113543781
 21
-222.5731826045153
 31
0.0
  0
LINE
  8
NOTE
  6
CONTINUOUS
 62
     4
 10
248.3822374351162
 20
-245.78495258019919
 30
0.0
 11
191.16456483575979
 21
-245.78495258019919
 31
0.0
  0
CIRCLE
  8
FIX
  6
CONTINUOUS
 62
    11
 10
-219.9434581634298
 20
-245.7849525801989
 30
0.0
 40
4.9974999999999996
  0
LINE
  8
NOTE
  6
CONTINUOUS
 62
     4
 10
-219.9434581634298
 20
-268.39687255588268
 30
0.0
 11
-219.9434581634298
 21
-222.5731826045151
 31
0.0
  0
LINE
  8
NOTE
  6
CONTINUOUS
 62
     4
 10
-191.08462186375161
 20
-245.7849525801989
 30
0.0
 11
-248.30229446310801
 21
-245.7849525801989
 31
0.0
  0
CIRCLE
  8
FIX
  6
CONTINUOUS
 62
    11
 10
-219.9434581634298
 20
246.02478149622539
 30
0.0
 40
4.9974999999999996
  0
LINE
  8
NOTE
  6
CONTINUOUS
 62
     4
 10
-219.9434581634298
 20
222.81301152054161
 30
0.0
 11
-219.9434581634298
 21
268.63670147190919
 31
0.0
  0
LINE
  8
NOTE
  6
CONTINUOUS
 62
     4
 10
-191.08462186375161
 20
246.02478149622539
 30
0.0
 11
-248.30229446310801
 21
246.02478149622539
 31
0.0
  0
CIRCLE
  8
FIX
  6
CONTINUOUS
 62
    11
 10
220.02340113543821
 20
246.02478149622519
 30
0.0
 40
4.9974999999999996
  0
LINE
  8
NOTE
  6
CONTINUOUS
 62
     4
 10
220.02340113543821
 20
222.81301152054141
 30
0.0
 11
220.02340113543821
 21
268.93670147190898
 31
0.0
  0
LINE
  8
NOTE
  6
CONTINUOUS
 62
     4
 10
248.38223743511659
 20
246.02478149622519
 30
0.0
 11
191.16456483575979
 21
246.02478149622519
 31
0.0
  0
LINE
  8
SIZE
  6
CONTINUOUS
 62
    30
 10
-96.19173749421725
 20
-366.57383867484288
 30
0.0
 11
-96.19173749421725
 21
-526.63201846703396
 31
0.0
  0
LINE
  8
SIZE
  6
CONTINUOUS
 62
    30
 10
96.191737494216795
 20
-367.61309731095378
 30
0.0
 11
96.191737494216795
 21
-526.63201846703396
 31
0.0
  0
LINE
  8
SIZE
  6
CONTINUOUS
 62
    30
 10
84.191737494216795
 20
-506.63201846703402
 30
0.0
 11
-84.19173749421725
 21
-506.63201846703402
 31
0.0
  0
LINE
  8
SIZE
  6
CONTINUOUS
 62
    30
 10
-96.19173749421725
 20
-506.63201846703402
 30
0.0
 11
-386.11560874294042
 21
-506.63201846703402
 31
0.0
  0
CIRCLE
  8
SIZE
  6
CONTINUOUS
 62
    30
 10
96.191737494216795
 20
-506.63201846703402
 30
0.0
 40
6.0
  0
LINE
  8
SIZE
  6
CONTINUOUS
 62
    30
 10
96.191737494216795
 20
-506.63201846703402
 30
0.0
 11
84.191737494216795
 21
-506.63201846703402
 31
0.0
  0
CIRCLE
  8
SIZE
  6
CONTINUOUS
 62
    30
 10
-96.19173749421725
 20
-506.63201846703402
 30
0.0
 40
6.0
  0
LINE
  8
SIZE
  6
CONTINUOUS
 62
    30
 10
-96.19173749421725
 20
-506.63201846703402
 30
0.0
 11
-84.19173749421725
 21
-506.63201846703402
 31
0.0
  0
TEXT
  8
SIZE
  6
CONTINUOUS
 62
    30
 10
-371.26418017151173
 20
-470.96535180036722
 30
0.0
 40
64.0
  1
φ192
 41
0.9
 72
     1
 11
-262.37275160008312
 21
-470.96535180036722
 31
0.0
  0
POINT
  8
DEFPOINTS
  6
CONTINUOUS
 62
    30
 10
-96.19173749421725
 20
-346.57383867484288
 30
0.0
  0
POINT
  8
DEFPOINTS
  6
CONTINUOUS
 62
    30
 10
96.191737494216795
 20
-347.61309731095378
 30
0.0
  0
POINT
  8
DEFPOINTS
  6
CONTINUOUS
 62
    30
 10
96.191737494216795
 20
-506.63201846703402
 30
0.0
  0
LINE
  8
SIZE
  6
CONTINUOUS
 62
    30
 10
104.10609172306179
 20
-291.20681767891369
 30
0.0
 11
104.10609172306179
 21
-687.89450022349229
 31
0.0
  0
LINE
  8
SIZE
  6
CONTINUOUS
 62
    30
 10
-104.1860346950707
 20
-291.20681767891369
 30
0.0
 11
-104.1860346950707
 21
-687.89450022349229
 31
0.0
  0
LINE
  8
SIZE
  6
CONTINUOUS
 62
    30
 10
92.106091723061809
 20
-667.89450022349229
 30
0.0
 11
-92.186034695070703
 21
-667.89450022349229
 31
0.0
  0
LINE
  8
SIZE
  6
CONTINUOUS
 62
    30
 10
-104.1860346950707
 20
-667.89450022349229
 30
0.0
 11
-394.27619260323831
 21
-667.89450022349229
 31
0.0
  0
CIRCLE
  8
SIZE
  6
CONTINUOUS
 62
    30
 10
104.10609172306179
 20
-667.89450022349229
 30
0.0
 40
6.0
  0
LINE
  8
SIZE
  6
CONTINUOUS
 62
    30
 10
104.10609172306179
 20
-667.89450022349229
 30
0.0
 11
92.106091723061809
 21
-667.89450022349229
 31
0.0
  0
CIRCLE
  8
SIZE
  6
CONTINUOUS
 62
    30
 10
-104.1860346950707
 20
-667.89450022349229
 30
0.0
 40
6.0
  0
LINE
  8
SIZE
  6
CONTINUOUS
 62
    30
 10
-104.1860346950707
 20
-667.89450022349229
 30
0.0
 11
-92.186034695070703
 21
-667.89450022349229
 31
0.0
  0
TEXT
  8
SIZE
  6
CONTINUOUS
 62
    30
 10
-379.42476403180967
 20
-632.22783355682566
 30
0.0
 40
64.0
  1
φ208
 41
0.9
 72
     1
 11
-265.0476211746668
 21
-632.22783355682566
 31
0.0
  0
POINT
  8
DEFPOINTS
  6
CONTINUOUS
 62
    30
 10
104.10609172306179
 20
-271.20681767891369
 30
0.0
  0
POINT
  8
DEFPOINTS
  6
CONTINUOUS
 62
    30
 10
-104.1860346950707
 20
-271.20681767891369
 30
0.0
  0
POINT
  8
DEFPOINTS
  6
CONTINUOUS
 62
    30
 10
-104.1860346950707
 20
-667.89450022349229
 30
0.0
  0
LINE
  8
SIZE
  6
CONTINUOUS
 62
    30
 10
114.35304913802069
 20
-349.29189972313338
 30
0.0
 11
365.89548713527938
 21
-349.29189972313338
 31
0.0
  0
LINE
  8
SIZE
  6
CONTINUOUS
 62
    30
 10
202.58974806749481
 20
-264.5715510022053
 30
0.0
 11
365.89548713527938
 21
-264.5715510022053
 31
0.0
  0
LINE
  8
SIZE
  6
CONTINUOUS
 62
    30
 10
345.89548713527938
 20
-276.5715510022053
 30
0.0
 11
345.89548713527938
 21
-337.29189972313338
 31
0.0
  0
LINE
  8
SIZE
  6
CONTINUOUS
 62
    30
 10
345.89548713527938
 20
-349.29189972313338
 30
0.0
 11
345.89548713527893
 21
-525.9918997231332
 31
0.0
  0
CIRCLE
  8
SIZE
  6
CONTINUOUS
 62
    30
 10
345.89548713527938
 20
-264.5715510022053
 30
0.0
 40
6.0
  0
LINE
  8
SIZE
  6
CONTINUOUS
 62
    30
 10
345.89548713527938
 20
-264.5715510022053
 30
0.0
 11
345.89548713527938
 21
-276.5715510022053
 31
0.0
  0
CIRCLE
  8
SIZE
  6
CONTINUOUS
 62
    30
 10
345.89548713527938
 20
-349.29189972313338
 30
0.0
 40
6.0
  0
LINE
  8
SIZE
  6
CONTINUOUS
 62
    30
 10
345.89548713527938
 20
-349.29189972313338
 30
0.0
 11
345.89548713527938
 21
-337.29189972313338
 31
0.0
  0
TEXT
  8
SIZE
  6
CONTINUOUS
 62
    30
 10
320.89548713527938
 20
-500.99189972313332
 30
0.0
 40
64.0
  1
85
 50
90.0
 41
0.9
 72
     1
 11
320.89548713527938
 21
-454.36332829456182
 31
0.0
  0
POINT
  8
DEFPOINTS
  6
CONTINUOUS
 62
    30
 10
94.353049138020651
 20
-349.29189972313338
 30
0.0
  0
POINT
  8
DEFPOINTS
  6
CONTINUOUS
 62
    30
 10
345.89548713527938
 20
-264.5715510022053
 30
0.0
  0
LINE
  8
SIZE
  6
CONTINUOUS
 62
    30
 10
202.58974806749481
 20
-264.5715510022053
 30
0.0
 11
365.89548713527938
 21
-264.5715510022053
 31
0.0
  0
LINE
  8
SIZE
  6
CONTINUOUS
 62
    30
 10
200.35134485125579
 20
263.05234939408558
 30
0.0
 11
365.89548713527978
 21
263.05234939408558
 31
0.0
  0
LINE
  8
SIZE
  6
CONTINUOUS
 62
    30
 10
345.89548713527938
 20
-252.5715510022053
 30
0.0
 11
345.89548713527978
 21
251.05234939408561
 31
0.0
  0
CIRCLE
  8
SIZE
  6
CONTINUOUS
 62
    30
 10
345.89548713527938
 20
-264.5715510022053
 30
0.0
 40
6.0
  0
LINE
  8
SIZE
  6
CONTINUOUS
 62
    30
 10
345.89548713527938
 20
-264.5715510022053
 30
0.0
 11
345.89548713527938
 21
-252.5715510022053
 31
0.0
  0
CIRCLE
  8
SIZE
  6
CONTINUOUS
 62
    30
 10
345.89548713527978
 20
263.05234939408558
 30
0.0
 40
6.0
  0
LINE
  8
SIZE
  6
CONTINUOUS
 62
    30
 10
345.89548713527978
 20
263.05234939408558
 30
0.0
 11
345.89548713527978
 21
251.05234939408561
 31
0.0
  0
TEXT
  8
SIZE
  6
CONTINUOUS
 62
    30
 10
320.89548713527938
 20
-74.806978304016738
 30
0.0
 40
64.0
  1
528
 50
90.0
 41
0.9
 72
     1
 11
320.89548713527938
 21
-0.7498354468739024
 31
0.0
  0
POINT
  8
DEFPOINTS
  6
CONTINUOUS
 62
    30
 10
182.58974806749481
 20
-264.5715510022053
 30
0.0
  0
POINT
  8
DEFPOINTS
  6
CONTINUOUS
 62
    30
 10
180.35134485125579
 20
263.05234939408558
 30
0.0
  0
POINT
  8
DEFPOINTS
  6
CONTINUOUS
 62
    30
 10
345.89548713527978
 20
263.05234939408558
 30
0.0
  0
LINE
  8
SIZE
  6
CONTINUOUS
 62
    30
 10
114.35304913802069
 20
348.19189972313319
 30
0.0
 11
365.89548713527978
 21
348.19189972313319
 31
0.0
  0
LINE
  8
SIZE
  6
CONTINUOUS
 62
    30
 10
200.35134485125579
 20
263.45234939408562
 30
0.0
 11
365.89548713527978
 21
263.45234939408562
 31
0.0
  0
LINE
  8
SIZE
  6
CONTINUOUS
 62
    30
 10
345.89548713527978
 20
275.45234939408562
 30
0.0
 11
345.89548713527978
 21
336.19189972313319
 31
0.0
  0
LINE
  8
SIZE
  6
CONTINUOUS
 62
    30
 10
345.89548713527978
 20
348.19189972313319
 30
0.0
 11
345.89548713527978
 21
503.44904258027611
 31
0.0
  0
CIRCLE
  8
SIZE
  6
CONTINUOUS
 62
    30
 10
345.89548713527978
 20
263.45234939408562
 30
0.0
 40
6.0
  0
LINE
  8
SIZE
  6
CONTINUOUS
 62
    30
 10
345.89548713527978
 20
263.45234939408562
 30
0.0
 11
345.89548713527978
 21
275.45234939408562
 31
0.0
  0
CIRCLE
  8
SIZE
  6
CONTINUOUS
 62
    30
 10
345.89548713527978
 20
348.19189972313319
 30
0.0
 40
6.0
  0
LINE
  8
SIZE
  6
CONTINUOUS
 62
    30
 10
345.89548713527978
 20
348.19189972313319
 30
0.0
 11
345.89548713527978
 21
336.19189972313319
 31
0.0
  0
TEXT
  8
SIZE
  6
CONTINUOUS
 62
    30
 10
320.89548713527978
 20
385.1918997231333
 30
0.0
 40
64.0
  1
85
 50
90.0
 41
0.9
 72
     1
 11
320.89548713527978
 21
431.82047115170468
 31
0.0
  0
POINT
  8
DEFPOINTS
  6
CONTINUOUS
 62
    30
 10
94.353049138020651
 20
348.19189972313319
 30
0.0
  0
POINT
  8
DEFPOINTS
  6
CONTINUOUS
 62
    30
 10
180.35134485125579
 20
263.45234939408562
 30
0.0
  0
POINT
  8
DEFPOINTS
  6
CONTINUOUS
 62
    30
 10
345.89548713527978
 20
263.45234939408562
 30
0.0
  0
TEXT
  8
NOTE
  6
CONTINUOUS
 62
     4
 10
-415.97832388863702
 20
388.36213805630013
 30
0.0
 40
63.968000000000004
  1
AH
 41
0.9
 72
     2
 11
-317.28483817435131
 21
388.36213805630013
 31
0.0
  0
LINE
  8
NOTE
  6
CONTINUOUS
 62
     4
 10
-221.68675918543391
 20
251.98355870162291
 30
0.0
 11
-219.9434581634298
 21
246.02478149622539
 31
0.0
  0
LINE
  8
NOTE
  6
CONTINUOUS
 62
     4
 10
-219.9434581634298
 20
246.02478149622539
 30
0.0
 11
-224.4325962006055
 21
250.31357665571571
 31
0.0
  0
LINE
  8
NOTE
  6
CONTINUOUS
 62
     4
 10
-219.9434581634298
 20
246.02478149622539
 30
0.0
 11
-226.17589722260939
 21
256.27235386111317
 31
0.0
  0
LINE
  8
NOTE
  6
CONTINUOUS
 62
     4
 10
-226.17589722260939
 20
256.27235386111329
 30
0.0
 11
-292.53349415184698
 21
364.87985224902337
 31
0.0
  0
LINE
  8
NOTE
  6
CONTINUOUS
 62
     4
 10
-292.53349415184698
 20
364.87985224902337
 30
0.0
 11
-428.20847986613262
 21
364.87985224902337
 31
0.0
  0
TEXT
  8
NOTE
  6
CONTINUOUS
 62
     4
 10
-50.717485714285708
 20
407.08823008573171
 30
0.0
 40
63.968000000000004
  1
RA
 41
0.9
 72
     1
 11
0.0
 21
407.08823008573171
 31
0.0
  0
TEXT
  8
NOTE
  6
CONTINUOUS
 62
     4
 10
-50.8731403536882
 20
-485.36627711797058
 30
0.0
 40
63.968000000000004
  1
EA
 41
0.9
 72
     1
 11
-2.8971403536882012
 21
-485.36627711797058
 31
0.0
  0
LINE
  8
DETAIL
  6
CONTINUOUS
 62
     5
 10
-96.19173749421725
 20
-341.37754549428848
 30
0.0
 11
96.191737494216795
 21
-341.37754549428848
 31
0.0
  0
LINE
  8
DETAIL
  6
CONTINUOUS
 62
     5
 10
-96.19173749421725
 20
-346.57383867484288
 30
0.0
 11
-96.19173749421725
 21
-341.37754549428848
 31
0.0
  0
LINE
  8
DETAIL
  6
CONTINUOUS
 62
     5
 10
-104.1860346950707
 20
-271.20681767891369
 30
0.0
 11
-96.19173749421725
 21
-341.37754549428848
 31
0.0
  0
LINE
  8
DETAIL
  6
CONTINUOUS
 62
     5
 10
96.191737494216795
 20
-347.61309731095378
 30
0.0
 11
96.191737494216795
 21
-341.37754549428848
 31
0.0
  0
LINE
  8
DETAIL
  6
CONTINUOUS
 62
     5
 10
96.191737494216795
 20
-341.37754549428848
 30
0.0
 11
104.10609172306179
 21
-271.20681767891369
 31
0.0
  0
LINE
  8
DETAIL
  6
CONTINUOUS
 62
     5
 10
94.353049138020651
 20
-349.29189972313338
 30
0.0
 11
94.992592914088618
 21
-349.05207080710778
 31
0.0
  0
LINE
  8
DETAIL
  6
CONTINUOUS
 62
     5
 10
94.992592914088618
 20
-349.05207080710778
 30
0.0
 11
95.472250746139935
 21
-348.89218486309079
 31
0.0
  0
LINE
  8
DETAIL
  6
CONTINUOUS
 62
     5
 10
95.472250746139935
 20
-348.89218486309079
 30
0.0
 11
95.871965606182357
 21
-348.57241297505612
 31
0.0
  0
LINE
  8
DETAIL
  6
CONTINUOUS
 62
     5
 10
95.871965606182357
 20
-348.57241297505612
 30
0.0
 11
96.191737494216795
 21
-348.09275514300509
 31
0.0
  0
LINE
  8
DETAIL
  6
CONTINUOUS
 62
     5
 10
96.191737494216795
 20
-348.09275514300509
 30
0.0
 11
96.191737494216795
 21
-347.61309731095378
 31
0.0
  0
LINE
  8
DETAIL
  6
CONTINUOUS
 62
     5
 10
-93.713505361952457
 20
-349.29189972313338
 30
0.0
 11
94.353049138020651
 21
-349.29189972313338
 31
0.0
  0
LINE
  8
DETAIL
  6
CONTINUOUS
 62
     5
 10
104.10609172306179
 20
-271.20681767891369
 30
0.0
 11
-104.1860346950707
 21
-271.20681767891369
 31
0.0
  0
LINE
  8
DETAIL
  6
CONTINUOUS
 62
     5
 10
104.10609172306179
 20
-271.20681767891369
 30
0.0
 11
104.10609172306179
 21
-265.53086666630747
 31
0.0
  0
LINE
  8
DETAIL
  6
CONTINUOUS
 62
     5
 10
-104.1860346950707
 20
-271.20681767891369
 30
0.0
 11
-104.1860346950707
 21
-265.53086666630747
 31
0.0
  0
LINE
  8
DETAIL
  6
CONTINUOUS
 62
     5
 10
-117.6164539925046
 20
-264.01195019814509
 30
0.0
 11
117.6164539925044
 21
-264.01195019814509
 31
0.0
  0
LINE
  8
DETAIL
  6
CONTINUOUS
 62
     5
 10
-104.1860346950707
 20
-265.53086666630747
 30
0.0
 11
-104.66569252712181
 21
-264.73143694622217
 31
0.0
  0
LINE
  8
DETAIL
  6
CONTINUOUS
 62
     5
 10
-104.66569252712181
 20
-264.73143694622217
 30
0.0
 11
-104.8255784711389
 21
-264.5715510022053
 31
0.0
  0
LINE
  8
DETAIL
  6
CONTINUOUS
 62
     5
 10
-104.8255784711389
 20
-264.5715510022053
 30
0.0
 11
-105.6250081912242
 21
-264.01195019814509
 31
0.0
  0
LINE
  8
DETAIL
  6
CONTINUOUS
 62
     5
 10
105.46512224720711
 20
-264.01195019814509
 30
0.0
 11
104.90552144314709
 21
-264.5715510022053
 31
0.0
  0
LINE
  8
DETAIL
  6
CONTINUOUS
 62
     5
 10
104.90552144314709
 20
-264.5715510022053
 30
0.0
 11
104.3459206390874
 21
-264.73143694622217
 31
0.0
  0
LINE
  8
DETAIL
  6
CONTINUOUS
 62
     5
 10
104.3459206390874
 20
-264.73143694622217
 30
0.0
 11
104.10609172306179
 21
-265.53086666630747
 31
0.0
  0
LINE
  8
DETAIL
  6
CONTINUOUS
 62
     5
 10
117.6164539925044
 20
-264.01195019814509
 30
0.0
 11
117.6164539925044
 21
-263.45234939408567
 31
0.0
  0
LINE
  8
DETAIL
  6
CONTINUOUS
 62
     5
 10
-96.19173749421725
 20
-346.57383867484288
 30
0.0
 11
-96.19173749421725
 21
-347.37326839492817
 31
0.0
  0
LINE
  8
DETAIL
  6
CONTINUOUS
 62
     5
 10
-96.19173749421725
 20
-347.37326839492817
 30
0.0
 11
-95.712079662166161
 21
-348.09275514300509
 31
0.0
  0
LINE
  8
DETAIL
  6
CONTINUOUS
 62
     5
 10
-95.712079662166161
 20
-348.09275514300509
 30
0.0
 11
-95.232421830114845
 21
-348.89218486309079
 31
0.0
  0
LINE
  8
DETAIL
  6
CONTINUOUS
 62
     5
 10
-95.232421830114845
 20
-348.89218486309079
 30
0.0
 11
-94.512935082038211
 21
-349.05207080710778
 31
0.0
  0
LINE
  8
DETAIL
  6
CONTINUOUS
 62
     5
 10
-94.512935082038211
 20
-349.05207080710778
 30
0.0
 11
-93.713505361952457
 21
-349.29189972313338
 31
0.0
  0
LINE
  8
DETAIL
  6
CONTINUOUS
 62
     5
 10
-117.6164539925046
 20
-264.01195019814509
 30
0.0
 11
-117.6164539925046
 21
-263.45234939408567
 31
0.0
  0
LINE
  8
DETAIL
  6
CONTINUOUS
 62
     5
 10
-96.191737494217023
 20
340.35748846629679
 30
0.0
 11
96.191737494216795
 21
340.35748846629679
 31
0.0
  0
LINE
  8
DETAIL
  6
CONTINUOUS
 62
     5
 10
-96.191737494217023
 20
345.71366759086908
 30
0.0
 11
-96.191737494217023
 21
340.35748846629679
 31
0.0
  0
LINE
  8
DETAIL
  6
CONTINUOUS
 62
     5
 10
-104.1860346950707
 20
271.28676065092208
 30
0.0
 11
-96.191737494217023
 21
340.35748846629679
 31
0.0
  0
LINE
  8
DETAIL
  6
CONTINUOUS
 62
     5
 10
96.191737494216795
 20
346.67298325497109
 30
0.0
 11
96.191737494216795
 21
340.51737441031389
 31
0.0
  0
LINE
  8
DETAIL
  6
CONTINUOUS
 62
     5
 10
96.191737494216795
 20
340.51737441031389
 30
0.0
 11
104.10609172306179
 21
271.28676065092208
 31
0.0
  0
LINE
  8
DETAIL
  6
CONTINUOUS
 62
     5
 10
96.191737494216795
 20
346.67298325497109
 30
0.0
 11
96.191737494216795
 21
347.23258405903118
 31
0.0
  0
LINE
  8
DETAIL
  6
CONTINUOUS
 62
     5
 10
96.191737494216795
 20
347.23258405903118
 30
0.0
 11
95.871965606182584
 21
347.79218486309111
 31
0.0
  0
LINE
  8
DETAIL
  6
CONTINUOUS
 62
     5
 10
95.871965606182584
 20
347.79218486309111
 30
0.0
 11
95.472250746139935
 21
348.0320137791166
 31
0.0
  0
LINE
  8
DETAIL
  6
CONTINUOUS
 62
     5
 10
95.472250746139935
 20
348.0320137791166
 30
0.0
 11
94.992592914088846
 21
348.19189972313319
 31
0.0
  0
LINE
  8
DETAIL
  6
CONTINUOUS
 62
     5
 10
94.992592914088846
 20
348.19189972313319
 30
0.0
 11
94.353049138020651
 21
348.19189972313319
 31
0.0
  0
LINE
  8
DETAIL
  6
CONTINUOUS
 62
     5
 10
-93.71350536195223
 20
348.19189972313319
 30
0.0
 11
94.353049138020651
 21
348.19189972313319
 31
0.0
  0
LINE
  8
DETAIL
  6
CONTINUOUS
 62
     5
 10
104.10609172306179
 20
271.28676065092208
 30
0.0
 11
-104.1860346950707
 21
271.28676065092208
 31
0.0
  0
LINE
  8
DETAIL
  6
CONTINUOUS
 62
     5
 10
-117.6164539925046
 20
264.25177911417131
 30
0.0
 11
117.6164539925044
 21
264.25177911417131
 31
0.0
  0
LINE
  8
DETAIL
  6
CONTINUOUS
 62
     5
 10
-105.6250081912242
 20
264.25177911417131
 30
0.0
 11
-104.8255784711389
 21
264.49160803019709
 31
0.0
  0
LINE
  8
DETAIL
  6
CONTINUOUS
 62
     5
 10
-104.8255784711389
 20
264.49160803019709
 30
0.0
 11
-104.66569252712181
 21
264.97126586224817
 31
0.0
  0
LINE
  8
DETAIL
  6
CONTINUOUS
 62
     5
 10
-104.66569252712181
 20
264.97126586224817
 30
0.0
 11
-104.1860346950707
 21
265.61080963831648
 31
0.0
  0
LINE
  8
DETAIL
  6
CONTINUOUS
 62
     5
 10
-104.1860346950707
 20
265.61080963831648
 30
0.0
 11
-104.1860346950707
 21
271.28676065092208
 31
0.0
  0
LINE
  8
DETAIL
  6
CONTINUOUS
 62
     5
 10
104.10609172306179
 20
271.28676065092208
 30
0.0
 11
104.10609172306179
 21
265.61080963831648
 31
0.0
  0
LINE
  8
DETAIL
  6
CONTINUOUS
 62
     5
 10
104.10609172306179
 20
265.61080963831648
 30
0.0
 11
104.34592063908759
 21
264.97126586224817
 31
0.0
  0
LINE
  8
DETAIL
  6
CONTINUOUS
 62
     5
 10
104.34592063908759
 20
264.97126586224817
 30
0.0
 11
104.90552144314709
 21
264.49160803019709
 31
0.0
  0
LINE
  8
DETAIL
  6
CONTINUOUS
 62
     5
 10
104.90552144314709
 20
264.49160803019709
 30
0.0
 11
105.4651222472073
 21
264.25177911417131
 31
0.0
  0
LINE
  8
DETAIL
  6
CONTINUOUS
 62
     5
 10
117.6164539925044
 20
264.25177911417131
 30
0.0
 11
117.6164539925044
 21
263.45234939408567
 31
0.0
  0
LINE
  8
DETAIL
  6
CONTINUOUS
 62
     5
 10
96.191737494216795
 20
343.55520734663838
 30
0.0
 11
96.191737494216795
 21
343.23543545860417
 31
0.0
  0
LINE
  8
DETAIL
  6
CONTINUOUS
 62
     5
 10
-93.71350536195223
 20
348.19189972313319
 30
0.0
 11
-94.512935082037757
 21
348.19189972313319
 31
0.0
  0
LINE
  8
DETAIL
  6
CONTINUOUS
 62
     5
 10
-94.512935082037757
 20
348.19189972313319
 30
0.0
 11
-95.23242183011439
 21
347.79218486309111
 31
0.0
  0
LINE
  8
DETAIL
  6
CONTINUOUS
 62
     5
 10
-95.23242183011439
 20
347.79218486309111
 30
0.0
 11
-95.712079662165934
 21
347.23258405903118
 31
0.0
  0
LINE
  8
DETAIL
  6
CONTINUOUS
 62
     5
 10
-95.712079662165934
 20
347.23258405903118
 30
0.0
 11
-96.191737494217023
 21
346.51309731095398
 31
0.0
  0
LINE
  8
DETAIL
  6
CONTINUOUS
 62
     5
 10
-96.191737494217023
 20
346.51309731095398
 30
0.0
 11
-96.191737494217023
 21
345.71366759086908
 31
0.0
  0
LINE
  8
DETAIL
  6
CONTINUOUS
 62
     5
 10
-96.191737494217023
 20
343.23543545860417
 30
0.0
 11
-96.191737494217023
 21
343.55520734663838
 31
0.0
  0
LINE
  8
DETAIL
  6
CONTINUOUS
 62
     5
 10
-117.6164539925046
 20
264.25177911417131
 30
0.0
 11
-117.6164539925046
 21
263.45234939408567
 31
0.0
  0
LINE
  8
DETAIL
  6
CONTINUOUS
 62
     5
 10
180.35134485125579
 20
261.6136610378893
 30
0.0
 11
180.35134485125579
 21
263.45234939408562
 31
0.0
  0
LINE
  8
DETAIL
  6
CONTINUOUS
 62
     5
 10
-180.43128782326471
 20
261.61366103788941
 30
0.0
 11
-180.43128782326471
 21
263.45234939408567
 31
0.0
  0
LINE
  8
DETAIL
  6
CONTINUOUS
 62
     5
 10
-180.43128782326471
 20
-175.8345669327731
 30
0.0
 11
-180.43128782326471
 21
-174.15576452059429
 31
0.0
  0
LINE
  8
DETAIL
  6
CONTINUOUS
 62
     5
 10
177.63328380296571
 20
-261.53371806588069
 30
0.0
 11
177.39345488694019
 21
-261.77354698190629
 31
0.0
  0
LINE
  8
DETAIL
  6
CONTINUOUS
 62
     5
 10
-177.95305569099989
 20
-261.53371806588052
 30
0.0
 11
-177.39345488694019
 21
-261.77354698190612
 31
0.0
  0
LINE
  8
DETAIL
  6
CONTINUOUS
 62
     5
 10
180.35134485125579
 20
-261.77354698190629
 30
0.0
 11
170.43841632219761
 21
-261.77354698190629
 31
0.0
  0
LINE
  8
DETAIL
  6
CONTINUOUS
 62
     5
 10
-180.43128782326471
 20
263.45234939408567
 30
0.0
 11
180.35134485125579
 21
263.45234939408562
 31
0.0
  0
LINE
  8
DETAIL
  6
CONTINUOUS
 62
     5
 10
-180.43128782326471
 20
101.1678310768019
 30
0.0
 11
-180.43128782326471
 21
104.6053788731689
 31
0.0
  0
LINE
  8
DETAIL
  6
CONTINUOUS
 62
     5
 10
-180.43128782326471
 20
-261.53371806588052
 30
0.0
 11
-180.43128782326471
 21
-261.77354698190612
 31
0.0
  0
LINE
  8
DETAIL
  6
CONTINUOUS
 62
     5
 10
180.35134485125579
 20
-261.53371806588069
 30
0.0
 11
180.35134485125579
 21
-261.77354698190629
 31
0.0
  0
LINE
  8
DETAIL
  6
CONTINUOUS
 62
     5
 10
170.43841632219761
 20
-262.49303372998293
 30
0.0
 11
180.35134485125579
 21
-262.49303372998293
 31
0.0
  0
LINE
  8
DETAIL
  6
CONTINUOUS
 62
     5
 10
-180.43128782326471
 20
-263.45234939408562
 30
0.0
 11
180.35134485125579
 21
-263.45234939408567
 31
0.0
  0
LINE
  8
DETAIL
  6
CONTINUOUS
 62
     5
 10
-180.43128782326471
 20
-262.4930337299827
 30
0.0
 11
-170.43841632219781
 21
-262.4930337299827
 31
0.0
  0
LINE
  8
DETAIL
  6
CONTINUOUS
 62
     5
 10
170.43841632219761
 20
-248.5030136284895
 30
0.0
 11
170.43841632219761
 21
-263.45234939408567
 31
0.0
  0
LINE
  8
DETAIL
  6
CONTINUOUS
 62
     5
 10
-170.43841632219781
 20
-248.5030136284893
 30
0.0
 11
-170.43841632219781
 21
-263.45234939408562
 31
0.0
  0
LINE
  8
DETAIL
  6
CONTINUOUS
 62
     5
 10
-167.4805263578817
 20
-245.62506663618211
 30
0.0
 11
167.4005833858732
 21
-245.62506663618231
 31
0.0
  0
LINE
  8
DETAIL
  6
CONTINUOUS
 62
     5
 10
-170.43841632219781
 20
-248.5030136284893
 30
0.0
 11
-167.4805263578817
 21
-245.62506663618211
 31
0.0
  0
LINE
  8
DETAIL
  6
CONTINUOUS
 62
     5
 10
167.4005833858732
 20
-245.62506663618231
 30
0.0
 11
170.43841632219761
 21
-248.5030136284895
 31
0.0
  0
LINE
  8
DETAIL
  6
CONTINUOUS
 62
     5
 10
-177.71322677497409
 20
-261.53371806588052
 30
0.0
 11
-176.19431030681221
 21
-261.29388914985498
 31
0.0
  0
LINE
  8
DETAIL
  6
CONTINUOUS
 62
     5
 10
-176.19431030681221
 20
-261.29388914985498
 30
0.0
 11
-174.9152227546756
 21
-260.57440240177829
 31
0.0
  0
LINE
  8
DETAIL
  6
CONTINUOUS
 62
     5
 10
-174.9152227546756
 20
-260.57440240177829
 30
0.0
 11
-173.71607817454759
 21
-259.29531484964173
 31
0.0
  0
LINE
  8
DETAIL
  6
CONTINUOUS
 62
     5
 10
-173.71607817454759
 20
-259.29531484964173
 30
0.0
 11
-172.91664845446229
 21
-258.09617026951361
 31
0.0
  0
LINE
  8
DETAIL
  6
CONTINUOUS
 62
     5
 10
-172.91664845446229
 20
-258.09617026951361
 30
0.0
 11
-172.75676251044499
 21
-256.57725380135122
 31
0.0
  0
LINE
  8
DETAIL
  6
CONTINUOUS
 62
     5
 10
-172.75676251044499
 20
-180.79103119730269
 30
0.0
 11
-172.91664845446229
 21
-179.4320006731576
 31
0.0
  0
LINE
  8
DETAIL
  6
CONTINUOUS
 62
     5
 10
-172.91664845446229
 20
-179.4320006731576
 30
0.0
 11
-173.71607817454759
 21
-178.15291312102099
 31
0.0
  0
LINE
  8
DETAIL
  6
CONTINUOUS
 62
     5
 10
-173.71607817454759
 20
-178.15291312102099
 30
0.0
 11
-174.9152227546756
 21
-176.95376854089281
 31
0.0
  0
LINE
  8
DETAIL
  6
CONTINUOUS
 62
     5
 10
-174.9152227546756
 20
-176.95376854089281
 30
0.0
 11
-176.19431030681221
 21
-176.15433882080751
 31
0.0
  0
LINE
  8
DETAIL
  6
CONTINUOUS
 62
     5
 10
-176.19431030681221
 20
-176.15433882080751
 30
0.0
 11
-177.71322677497409
 21
-175.8345669327731
 31
0.0
  0
LINE
  8
DETAIL
  6
CONTINUOUS
 62
     5
 10
-172.75676251044499
 20
-180.79103119730269
 30
0.0
 11
-172.75676251044499
 21
-256.57725380135122
 31
0.0
  0
LINE
  8
DETAIL
  6
CONTINUOUS
 62
     5
 10
-181.63043240339269
 20
-175.8345669327731
 30
0.0
 11
-177.71322677497409
 21
-175.8345669327731
 31
0.0
  0
LINE
  8
DETAIL
  6
CONTINUOUS
 62
     5
 10
-181.63043240339269
 20
-175.8345669327731
 30
0.0
 11
-181.63043240339269
 21
-261.53371806588052
 31
0.0
  0
LINE
  8
DETAIL
  6
CONTINUOUS
 62
     5
 10
-180.43128782326471
 20
-262.4930337299827
 30
0.0
 11
-180.43128782326471
 21
-263.45234939408562
 31
0.0
  0
LINE
  8
DETAIL
  6
CONTINUOUS
 62
     5
 10
-172.4369906224108
 20
-262.4930337299827
 30
0.0
 11
-172.11721873437699
 21
-262.25320481395721
 31
0.0
  0
LINE
  8
DETAIL
  6
CONTINUOUS
 62
     5
 10
-172.11721873437699
 20
-262.25320481395721
 30
0.0
 11
-171.95733279035969
 21
-261.77354698190612
 31
0.0
  0
LINE
  8
DETAIL
  6
CONTINUOUS
 62
     5
 10
-172.75676251044499
 20
-263.45234939408562
 30
0.0
 11
-172.75676251044499
 21
-264.25177911417092
 31
0.0
  0
LINE
  8
DETAIL
  6
CONTINUOUS
 62
     5
 10
-170.43841632219781
 20
-261.77354698190612
 30
0.0
 11
-180.9109456553158
 21
-261.77354698190612
 31
0.0
  0
LINE
  8
DETAIL
  6
CONTINUOUS
 62
     5
 10
-180.9109456553158
 20
-261.77354698190612
 30
0.0
 11
-181.23071754334981
 21
-262.09331886994028
 31
0.0
  0
LINE
  8
DETAIL
  6
CONTINUOUS
 62
     5
 10
-181.23071754334981
 20
-262.09331886994028
 30
0.0
 11
-181.39060348736709
 21
-262.25320481395721
 31
0.0
  0
LINE
  8
DETAIL
  6
CONTINUOUS
 62
     5
 10
-181.39060348736709
 20
-262.25320481395721
 30
0.0
 11
-181.63043240339269
 21
-262.73286264600807
 31
0.0
  0
LINE
  8
DETAIL
  6
CONTINUOUS
 62
     5
 10
-181.63043240339269
 20
-262.73286264600807
 30
0.0
 11
-181.63043240339269
 21
-263.45234939408562
 31
0.0
  0
LINE
  8
DETAIL
  6
CONTINUOUS
 62
     5
 10
-181.63043240339269
 20
-263.45234939408562
 30
0.0
 11
-181.39060348736709
 21
-263.77212128211931
 31
0.0
  0
LINE
  8
DETAIL
  6
CONTINUOUS
 62
     5
 10
-181.39060348736709
 20
-263.77212128211931
 30
0.0
 11
-181.23071754334981
 21
-264.01195019814492
 31
0.0
  0
LINE
  8
DETAIL
  6
CONTINUOUS
 62
     5
 10
-181.23071754334981
 20
-264.01195019814492
 30
0.0
 11
-180.9109456553158
 21
-264.25177911417092
 31
0.0
  0
LINE
  8
DETAIL
  6
CONTINUOUS
 62
     5
 10
-180.9109456553158
 20
-264.25177911417092
 30
0.0
 11
-172.75676251044499
 21
-264.25177911417092
 31
0.0
  0
LINE
  8
DETAIL
  6
CONTINUOUS
 62
     5
 10
-177.71322677497409
 20
-261.53371806588052
 30
0.0
 11
-181.63043240339269
 21
-261.53371806588052
 31
0.0
  0
LINE
  8
DETAIL
  6
CONTINUOUS
 62
     5
 10
177.63328380296571
 20
-261.53371806588069
 30
0.0
 11
181.7103753754009
 21
-261.53371806588069
 31
0.0
  0
LINE
  8
DETAIL
  6
CONTINUOUS
 62
     5
 10
177.63328380296571
 20
261.6136610378893
 30
0.0
 11
176.11436733480329
 21
261.29388914985532
 31
0.0
  0
LINE
  8
DETAIL
  6
CONTINUOUS
 62
     5
 10
176.11436733480329
 20
261.29388914985532
 30
0.0
 11
174.67539383865011
 21
260.814231317804
 31
0.0
  0
LINE
  8
DETAIL
  6
CONTINUOUS
 62
     5
 10
174.67539383865011
 20
260.814231317804
 30
0.0
 11
173.63613520253881
 21
259.53514376566773
 31
0.0
  0
LINE
  8
DETAIL
  6
CONTINUOUS
 62
     5
 10
173.63613520253881
 20
259.53514376566773
 30
0.0
 11
172.91664845446209
 21
258.33599918553972
 31
0.0
  0
LINE
  8
DETAIL
  6
CONTINUOUS
 62
     5
 10
172.91664845446209
 20
258.33599918553972
 30
0.0
 11
172.59687656642839
 21
256.57725380135162
 31
0.0
  0
LINE
  8
DETAIL
  6
CONTINUOUS
 62
     5
 10
172.59687656642839
 20
-256.57725380135128
 30
0.0
 11
172.91664845446209
 21
-258.09617026951372
 31
0.0
  0
LINE
  8
DETAIL
  6
CONTINUOUS
 62
     5
 10
172.91664845446209
 20
-258.09617026951372
 30
0.0
 11
173.63613520253881
 21
-259.29531484964201
 31
0.0
  0
LINE
  8
DETAIL
  6
CONTINUOUS
 62
     5
 10
173.63613520253881
 20
-259.29531484964201
 30
0.0
 11
174.67539383865011
 21
-260.57440240177863
 31
0.0
  0
LINE
  8
DETAIL
  6
CONTINUOUS
 62
     5
 10
174.67539383865011
 20
-260.57440240177863
 30
0.0
 11
176.11436733480329
 21
-261.2938891498552
 31
0.0
  0
LINE
  8
DETAIL
  6
CONTINUOUS
 62
     5
 10
176.11436733480329
 20
-261.2938891498552
 30
0.0
 11
177.63328380296571
 21
-261.53371806588069
 31
0.0
  0
LINE
  8
DETAIL
  6
CONTINUOUS
 62
     5
 10
181.7103753754009
 20
261.6136610378893
 30
0.0
 11
177.63328380296571
 21
261.6136610378893
 31
0.0
  0
LINE
  8
DETAIL
  6
CONTINUOUS
 62
     5
 10
180.35134485125579
 20
-263.45234939408567
 30
0.0
 11
180.35134485125579
 21
-262.49303372998293
 31
0.0
  0
LINE
  8
DETAIL
  6
CONTINUOUS
 62
     5
 10
181.7103753754009
 20
261.6136610378893
 30
0.0
 11
181.7103753754009
 21
-261.53371806588069
 31
0.0
  0
LINE
  8
DETAIL
  6
CONTINUOUS
 62
     5
 10
172.59687656642839
 20
256.57725380135162
 30
0.0
 11
172.59687656642839
 21
-256.57725380135128
 31
0.0
  0
LINE
  8
DETAIL
  6
CONTINUOUS
 62
     5
 10
172.59687656642839
 20
-264.25177911417109
 30
0.0
 11
172.59687656642839
 21
-263.45234939408567
 31
0.0
  0
LINE
  8
DETAIL
  6
CONTINUOUS
 62
     5
 10
172.59687656642839
 20
-264.25177911417109
 30
0.0
 11
180.910945655316
 21
-264.25177911417109
 31
0.0
  0
LINE
  8
DETAIL
  6
CONTINUOUS
 62
     5
 10
180.910945655316
 20
-264.25177911417109
 30
0.0
 11
181.07083159933251
 21
-264.01195019814509
 31
0.0
  0
LINE
  8
DETAIL
  6
CONTINUOUS
 62
     5
 10
181.07083159933251
 20
-264.01195019814509
 30
0.0
 11
181.39060348736709
 21
-263.45234939408567
 31
0.0
  0
LINE
  8
DETAIL
  6
CONTINUOUS
 62
     5
 10
181.39060348736709
 20
-263.45234939408567
 30
0.0
 11
181.7103753754009
 21
-263.29246345006851
 31
0.0
  0
LINE
  8
DETAIL
  6
CONTINUOUS
 62
     5
 10
181.7103753754009
 20
-263.29246345006851
 30
0.0
 11
181.7103753754009
 21
-262.73286264600853
 31
0.0
  0
LINE
  8
DETAIL
  6
CONTINUOUS
 62
     5
 10
181.7103753754009
 20
-262.73286264600853
 30
0.0
 11
181.39060348736709
 21
-262.49303372998293
 31
0.0
  0
LINE
  8
DETAIL
  6
CONTINUOUS
 62
     5
 10
181.39060348736709
 20
-262.49303372998293
 30
0.0
 11
181.07083159933251
 21
-262.0933188699405
 31
0.0
  0
LINE
  8
DETAIL
  6
CONTINUOUS
 62
     5
 10
181.07083159933251
 20
-262.0933188699405
 30
0.0
 11
180.910945655316
 21
-262.0933188699405
 31
0.0
  0
LINE
  8
DETAIL
  6
CONTINUOUS
 62
     5
 10
180.910945655316
 20
-262.0933188699405
 30
0.0
 11
180.35134485125579
 21
-261.77354698190629
 31
0.0
  0
LINE
  8
DETAIL
  6
CONTINUOUS
 62
     5
 10
172.59687656642839
 20
263.45234939408562
 30
0.0
 11
172.59687656642839
 21
264.49160803019703
 31
0.0
  0
LINE
  8
DETAIL
  6
CONTINUOUS
 62
     5
 10
180.35134485125579
 20
262.01337589793201
 30
0.0
 11
180.910945655316
 21
262.01337589793201
 31
0.0
  0
LINE
  8
DETAIL
  6
CONTINUOUS
 62
     5
 10
180.910945655316
 20
262.01337589793201
 30
0.0
 11
181.07083159933291
 21
262.25320481395761
 31
0.0
  0
LINE
  8
DETAIL
  6
CONTINUOUS
 62
     5
 10
181.07083159933291
 20
262.25320481395761
 30
0.0
 11
181.39060348736709
 21
262.49303372998338
 31
0.0
  0
LINE
  8
DETAIL
  6
CONTINUOUS
 62
     5
 10
181.39060348736709
 20
262.49303372998338
 30
0.0
 11
181.7103753754009
 21
263.05263453404308
 31
0.0
  0
LINE
  8
DETAIL
  6
CONTINUOUS
 62
     5
 10
181.7103753754009
 20
263.05263453404308
 30
0.0
 11
181.7103753754009
 21
263.45234939408562
 31
0.0
  0
LINE
  8
DETAIL
  6
CONTINUOUS
 62
     5
 10
181.7103753754009
 20
263.45234939408562
 30
0.0
 11
181.39060348736709
 21
263.77212128212
 31
0.0
  0
LINE
  8
DETAIL
  6
CONTINUOUS
 62
     5
 10
181.39060348736709
 20
263.77212128212
 30
0.0
 11
181.07083159933291
 21
264.09189317015409
 31
0.0
  0
LINE
  8
DETAIL
  6
CONTINUOUS
 62
     5
 10
181.07083159933291
 20
264.09189317015409
 30
0.0
 11
180.910945655316
 21
264.2517791141712
 31
0.0
  0
LINE
  8
DETAIL
  6
CONTINUOUS
 62
     5
 10
180.910945655316
 20
264.2517791141712
 30
0.0
 11
180.35134485125579
 21
264.49160803019703
 31
0.0
  0
LINE
  8
DETAIL
  6
CONTINUOUS
 62
     5
 10
171.8773898183513
 20
-261.77354698190629
 30
0.0
 11
172.19716170638549
 21
-262.25320481395738
 31
0.0
  0
LINE
  8
DETAIL
  6
CONTINUOUS
 62
     5
 10
172.19716170638549
 20
-262.25320481395738
 30
0.0
 11
172.436990622411
 21
-262.49303372998293
 31
0.0
  0
LINE
  8
DETAIL
  6
CONTINUOUS
 62
     5
 10
-177.71322677497409
 20
261.61366103788941
 30
0.0
 11
-181.63043240339269
 21
261.61366103788941
 31
0.0
  0
LINE
  8
DETAIL
  6
CONTINUOUS
 62
     5
 10
-180.43128782326471
 20
264.49160803019709
 30
0.0
 11
-180.9109456553158
 21
264.25177911417131
 31
0.0
  0
LINE
  8
DETAIL
  6
CONTINUOUS
 62
     5
 10
-180.9109456553158
 20
264.25177911417131
 30
0.0
 11
-181.23071754334981
 21
264.25177911417131
 31
0.0
  0
LINE
  8
DETAIL
  6
CONTINUOUS
 62
     5
 10
-181.23071754334981
 20
264.25177911417131
 30
0.0
 11
-181.39060348736709
 21
264.09189317015421
 31
0.0
  0
LINE
  8
DETAIL
  6
CONTINUOUS
 62
     5
 10
-181.39060348736709
 20
264.09189317015421
 30
0.0
 11
-181.63043240339269
 21
263.45234939408567
 31
0.0
  0
LINE
  8
DETAIL
  6
CONTINUOUS
 62
     5
 10
-181.63043240339269
 20
263.45234939408567
 30
0.0
 11
-181.63043240339269
 21
262.81280561801771
 31
0.0
  0
LINE
  8
DETAIL
  6
CONTINUOUS
 62
     5
 10
-181.63043240339269
 20
262.81280561801771
 30
0.0
 11
-181.39060348736709
 21
262.49303372998349
 31
0.0
  0
LINE
  8
DETAIL
  6
CONTINUOUS
 62
     5
 10
-181.39060348736709
 20
262.49303372998349
 30
0.0
 11
-181.23071754334981
 21
262.25320481395772
 31
0.0
  0
LINE
  8
DETAIL
  6
CONTINUOUS
 62
     5
 10
-181.23071754334981
 20
262.25320481395772
 30
0.0
 11
-180.9109456553158
 21
262.01337589793212
 31
0.0
  0
LINE
  8
DETAIL
  6
CONTINUOUS
 62
     5
 10
-180.9109456553158
 20
262.01337589793212
 30
0.0
 11
-180.43128782326471
 21
262.01337589793212
 31
0.0
  0
LINE
  8
DETAIL
  6
CONTINUOUS
 62
     5
 10
-172.75676251044499
 20
263.45234939408567
 30
0.0
 11
-172.75676251044499
 21
264.49160803019709
 31
0.0
  0
LINE
  8
DETAIL
  6
CONTINUOUS
 62
     5
 10
-172.75676251044499
 20
109.5618431376983
 30
0.0
 11
-172.75676251044499
 21
256.57725380135167
 31
0.0
  0
LINE
  8
DETAIL
  6
CONTINUOUS
 62
     5
 10
-181.63043240339269
 20
104.6053788731689
 30
0.0
 11
-181.63043240339269
 21
261.61366103788941
 31
0.0
  0
LINE
  8
DETAIL
  6
CONTINUOUS
 62
     5
 10
-181.63043240339269
 20
104.6053788731689
 30
0.0
 11
-177.71322677497409
 21
104.6053788731689
 31
0.0
  0
LINE
  8
DETAIL
  6
CONTINUOUS
 62
     5
 10
-172.75676251044499
 20
256.57725380135167
 30
0.0
 11
-172.91664845446229
 21
258.33599918553972
 31
0.0
  0
LINE
  8
DETAIL
  6
CONTINUOUS
 62
     5
 10
-172.91664845446229
 20
258.33599918553972
 30
0.0
 11
-173.71607817454759
 21
259.53514376566778
 31
0.0
  0
LINE
  8
DETAIL
  6
CONTINUOUS
 62
     5
 10
-173.71607817454759
 20
259.53514376566778
 30
0.0
 11
-174.9152227546756
 21
260.81423131780411
 31
0.0
  0
LINE
  8
DETAIL
  6
CONTINUOUS
 62
     5
 10
-174.9152227546756
 20
260.81423131780411
 30
0.0
 11
-176.19431030681221
 21
261.29388914985537
 31
0.0
  0
LINE
  8
DETAIL
  6
CONTINUOUS
 62
     5
 10
-176.19431030681221
 20
261.29388914985537
 30
0.0
 11
-177.71322677497409
 21
261.61366103788941
 31
0.0
  0
LINE
  8
DETAIL
  6
CONTINUOUS
 62
     5
 10
-177.71322677497409
 20
104.6053788731689
 30
0.0
 11
-176.19431030681221
 21
104.9251507612031
 31
0.0
  0
LINE
  8
DETAIL
  6
CONTINUOUS
 62
     5
 10
-176.19431030681221
 20
104.9251507612031
 30
0.0
 11
-174.9152227546756
 21
105.7245804812884
 31
0.0
  0
LINE
  8
DETAIL
  6
CONTINUOUS
 62
     5
 10
-174.9152227546756
 20
105.7245804812884
 30
0.0
 11
-173.71607817454759
 21
106.9237250614166
 31
0.0
  0
LINE
  8
DETAIL
  6
CONTINUOUS
 62
     5
 10
-173.71607817454759
 20
106.9237250614166
 30
0.0
 11
-172.91664845446229
 21
108.20281261355321
 31
0.0
  0
LINE
  8
DETAIL
  6
CONTINUOUS
 62
     5
 10
-172.91664845446229
 20
108.20281261355321
 30
0.0
 11
-172.75676251044499
 21
109.5618431376983
 31
0.0
  0
LINE
  8
DETAIL
  6
CONTINUOUS
 62
     5
 10
-181.63043240339269
 20
217.40519751716951
 30
0.0
 11
-181.8702613194182
 21
217.40519751716951
 31
0.0
  0
LINE
  8
DETAIL
  6
CONTINUOUS
 62
     5
 10
-181.8702613194182
 20
217.40519751716951
 30
0.0
 11
-182.11009023544401
 21
217.16536860114391
 31
0.0
  0
LINE
  8
DETAIL
  6
CONTINUOUS
 62
     5
 10
-182.11009023544401
 20
217.16536860114391
 30
0.0
 11
-182.4298621234777
 21
216.76565374110149
 31
0.0
  0
LINE
  8
DETAIL
  6
CONTINUOUS
 62
     5
 10
-182.4298621234777
 20
216.76565374110149
 30
0.0
 11
-182.4298621234777
 21
215.96622402101619
 31
0.0
  0
LINE
  8
DETAIL
  6
CONTINUOUS
 62
     5
 10
-182.4298621234777
 20
215.96622402101619
 30
0.0
 11
-182.11009023544401
 21
215.72639510499059
 31
0.0
  0
LINE
  8
DETAIL
  6
CONTINUOUS
 62
     5
 10
-182.11009023544401
 20
215.72639510499059
 30
0.0
 11
-181.8702613194182
 21
215.48656618896459
 31
0.0
  0
LINE
  8
DETAIL
  6
CONTINUOUS
 62
     5
 10
-181.8702613194182
 20
215.48656618896459
 30
0.0
 11
-181.63043240339269
 21
215.16679430093089
 31
0.0
  0
LINE
  8
DETAIL
  6
CONTINUOUS
 62
     5
 10
-178.67254243907681
 20
-174.15576452059429
 30
0.0
 11
-182.4298621234777
 21
-174.15576452059429
 31
0.0
  0
LINE
  8
DETAIL
  6
CONTINUOUS
 62
     5
 10
-177.71322677497409
 20
101.1678310768019
 30
0.0
 11
-182.4298621234777
 21
101.1678310768019
 31
0.0
  0
LINE
  8
DETAIL
  6
CONTINUOUS
 62
     5
 10
-182.4298621234777
 20
101.1678310768019
 30
0.0
 11
-182.4298621234777
 21
-174.15576452059429
 31
0.0
  0
LINE
  8
DETAIL
  6
CONTINUOUS
 62
     5
 10
-178.67254243907681
 20
-174.15576452059429
 30
0.0
 11
-177.71322677497409
 21
-173.9159356045686
 31
0.0
  0
LINE
  8
DETAIL
  6
CONTINUOUS
 62
     5
 10
-176.59402516685461
 20
-173.6761066885432
 30
0.0
 11
-175.9544813907867
 21
-173.11650588448339
 31
0.0
  0
LINE
  8
DETAIL
  6
CONTINUOUS
 62
     5
 10
-175.9544813907867
 20
-173.11650588448339
 30
0.0
 11
-175.23499464271001
 21
-172.6368480524321
 31
0.0
  0
LINE
  8
DETAIL
  6
CONTINUOUS
 62
     5
 10
-175.23499464271001
 20
-172.6368480524321
 30
0.0
 11
-174.43556492262451
 21
-171.9973042763632
 31
0.0
  0
LINE
  8
DETAIL
  6
CONTINUOUS
 62
     5
 10
-174.43556492262451
 20
-171.9973042763632
 30
0.0
 11
-173.95590709057319
 21
-171.1978745562779
 31
0.0
  0
LINE
  8
DETAIL
  6
CONTINUOUS
 62
     5
 10
-173.95590709057319
 20
-171.1978745562779
 30
0.0
 11
-173.71607817454759
 21
-170.15861592016759
 31
0.0
  0
LINE
  8
DETAIL
  6
CONTINUOUS
 62
     5
 10
-173.71607817454759
 20
97.170682476375006
 30
0.0
 11
-173.95590709057319
 21
98.209941112486064
 31
0.0
  0
LINE
  8
DETAIL
  6
CONTINUOUS
 62
     5
 10
-173.95590709057319
 20
98.209941112486064
 30
0.0
 11
-174.9152227546756
 21
99.648914608639771
 31
0.0
  0
LINE
  8
DETAIL
  6
CONTINUOUS
 62
     5
 10
-174.43556492262451
 20
98.929427860563166
 30
0.0
 11
-175.23499464271001
 21
99.648914608639771
 31
0.0
  0
LINE
  8
DETAIL
  6
CONTINUOUS
 62
     5
 10
-175.23499464271001
 20
99.648914608639771
 30
0.0
 11
-175.9544813907867
 21
100.4483443287251
 31
0.0
  0
LINE
  8
DETAIL
  6
CONTINUOUS
 62
     5
 10
-175.9544813907867
 20
100.4483443287251
 30
0.0
 11
-176.59402516685461
 21
100.9280021607764
 31
0.0
  0
LINE
  8
DETAIL
  6
CONTINUOUS
 62
     5
 10
-178.43271352305101
 20
-174.15576452059429
 30
0.0
 11
-177.71322677497409
 21
-173.9159356045686
 31
0.0
  0
LINE
  8
DETAIL
  6
CONTINUOUS
 62
     5
 10
-177.71322677497409
 20
-173.9159356045686
 30
0.0
 11
-176.59402516685461
 21
-173.6761066885432
 31
0.0
  0
LINE
  8
DETAIL
  6
CONTINUOUS
 62
     5
 10
-176.59402516685461
 20
-173.6761066885432
 30
0.0
 11
-175.63470950275249
 21
-173.11650588448339
 31
0.0
  0
LINE
  8
DETAIL
  6
CONTINUOUS
 62
     5
 10
-175.63470950275249
 20
-173.11650588448339
 30
0.0
 11
-174.9152227546756
 21
-172.6368480524321
 31
0.0
  0
LINE
  8
DETAIL
  6
CONTINUOUS
 62
     5
 10
-174.9152227546756
 20
-172.6368480524321
 30
0.0
 11
-174.43556492262451
 21
-171.9973042763632
 31
0.0
  0
LINE
  8
DETAIL
  6
CONTINUOUS
 62
     5
 10
-173.71607817454759
 20
-170.15861592016759
 30
0.0
 11
-173.71607817454759
 21
97.170682476375006
 31
0.0
  0
LINE
  8
DETAIL
  6
CONTINUOUS
 62
     5
 10
-174.9152227546756
 20
99.648914608639771
 30
0.0
 11
-175.63470950275249
 21
100.4483443287251
 31
0.0
  0
LINE
  8
DETAIL
  6
CONTINUOUS
 62
     5
 10
-175.63470950275249
 20
100.4483443287251
 30
0.0
 11
-176.59402516685461
 21
100.9280021607764
 31
0.0
  0
LINE
  8
DETAIL
  6
CONTINUOUS
 62
     5
 10
-176.59402516685461
 20
100.9280021607764
 30
0.0
 11
-177.71322677497409
 21
101.1678310768019
 31
0.0
  0
LINE
  8
DETAIL
  6
CONTINUOUS
 62
     5
 10
-206.03338103394461
 20
-261.53371806588052
 30
0.0
 11
-206.03338103394461
 21
-266.57012530241877
 31
0.0
  0
LINE
  8
DETAIL
  6
CONTINUOUS
 62
     5
 10
-206.03338103394461
 20
-261.53371806588052
 30
0.0
 11
-208.83138505424341
 21
-266.57012530241877
 31
0.0
  0
LINE
  8
DETAIL
  6
CONTINUOUS
 62
     5
 10
-206.03338103394461
 20
-261.53371806588052
 30
0.0
 11
-203.15543404163759
 21
-266.57012530241877
 31
0.0
  0
LINE
  8
DETAIL
  6
CONTINUOUS
 62
     5
 10
-234.01342123693189
 20
-261.53371806588052
 30
0.0
 11
-234.01342123693189
 21
-266.57012530241877
 31
0.0
  0
LINE
  8
DETAIL
  6
CONTINUOUS
 62
     5
 10
-234.01342123693189
 20
-261.53371806588052
 30
0.0
 11
-230.9755883006078
 21
-266.57012530241877
 31
0.0
  0
LINE
  8
DETAIL
  6
CONTINUOUS
 62
     5
 10
-234.01342123693189
 20
-261.53371806588052
 30
0.0
 11
-236.73148228522251
 21
-266.57012530241877
 31
0.0
  0
LINE
  8
DETAIL
  6
CONTINUOUS
 62
     5
 10
-214.50733606684929
 20
-225.71926660605641
 30
0.0
 11
-181.63043240339269
 21
-225.71926660605641
 31
0.0
  0
LINE
  8
DETAIL
  6
CONTINUOUS
 62
     5
 10
-225.53946620402729
 20
-245.7849525801989
 30
0.0
 11
-225.21969431599311
 21
-247.54369796438661
 31
0.0
  0
LINE
  8
DETAIL
  6
CONTINUOUS
 62
     5
 10
-225.21969431599311
 20
-247.54369796438661
 30
0.0
 11
-224.50020756791631
 21
-249.062614432549
 31
0.0
  0
LINE
  8
DETAIL
  6
CONTINUOUS
 62
     5
 10
-224.50020756791631
 20
-249.062614432549
 30
0.0
 11
-223.3010629877883
 21
-250.2617590126774
 31
0.0
  0
LINE
  8
DETAIL
  6
CONTINUOUS
 62
     5
 10
-223.3010629877883
 20
-250.2617590126774
 30
0.0
 11
-221.7821465196262
 21
-250.98124576075409
 31
0.0
  0
LINE
  8
DETAIL
  6
CONTINUOUS
 62
     5
 10
-221.7821465196262
 20
-250.98124576075409
 30
0.0
 11
-219.9434581634298
 21
-251.3010176487883
 31
0.0
  0
LINE
  8
DETAIL
  6
CONTINUOUS
 62
     5
 10
-219.9434581634298
 20
-251.3010176487883
 30
0.0
 11
-218.2646557512505
 21
-250.98124576075409
 31
0.0
  0
LINE
  8
DETAIL
  6
CONTINUOUS
 62
     5
 10
-218.2646557512505
 20
-250.98124576075409
 30
0.0
 11
-216.82568225509681
 21
-250.2617590126774
 31
0.0
  0
LINE
  8
DETAIL
  6
CONTINUOUS
 62
     5
 10
-216.82568225509681
 20
-250.2617590126774
 30
0.0
 11
-215.62653767496889
 21
-249.062614432549
 31
0.0
  0
LINE
  8
DETAIL
  6
CONTINUOUS
 62
     5
 10
-215.62653767496889
 20
-249.062614432549
 30
0.0
 11
-214.82710795488359
 21
-247.54369796438661
 31
0.0
  0
LINE
  8
DETAIL
  6
CONTINUOUS
 62
     5
 10
-214.82710795488359
 20
-247.54369796438661
 30
0.0
 11
-214.50733606684929
 21
-245.7849525801989
 31
0.0
  0
LINE
  8
DETAIL
  6
CONTINUOUS
 62
     5
 10
-225.53946620402729
 20
-245.7849525801989
 30
0.0
 11
-225.53946620402729
 21
-225.71926660605641
 31
0.0
  0
LINE
  8
DETAIL
  6
CONTINUOUS
 62
     5
 10
-214.50733606684929
 20
-245.7849525801989
 30
0.0
 11
-214.50733606684929
 21
-225.71926660605641
 31
0.0
  0
LINE
  8
DETAIL
  6
CONTINUOUS
 62
     5
 10
-239.92920116556371
 20
-225.71926660605641
 30
0.0
 11
-225.53946620402729
 21
-225.71926660605641
 31
0.0
  0
LINE
  8
DETAIL
  6
CONTINUOUS
 62
     5
 10
-154.20999300446491
 20
-263.45234939408562
 30
0.0
 11
-154.20999300446491
 21
-265.53086666630719
 31
0.0
  0
LINE
  8
DETAIL
  6
CONTINUOUS
 62
     5
 10
-239.92920116556371
 20
-266.57012530241877
 30
0.0
 11
-156.28851027668699
 21
-266.57012530241877
 31
0.0
  0
LINE
  8
DETAIL
  6
CONTINUOUS
 62
     5
 10
-239.92920116556371
 20
-266.57012530241877
 30
0.0
 11
-239.92920116556371
 21
-225.71926660605641
 31
0.0
  0
LINE
  8
DETAIL
  6
CONTINUOUS
 62
     5
 10
-171.23784604228291
 20
-263.45234939408562
 30
0.0
 11
-171.39773198630019
 21
-263.77212128211931
 31
0.0
  0
LINE
  8
DETAIL
  6
CONTINUOUS
 62
     5
 10
-171.39773198630019
 20
-263.77212128211931
 30
0.0
 11
-171.39773198630019
 21
-264.01195019814492
 31
0.0
  0
LINE
  8
DETAIL
  6
CONTINUOUS
 62
     5
 10
-171.39773198630019
 20
-264.01195019814492
 30
0.0
 11
-171.6375609023257
 21
-264.57155100220518
 31
0.0
  0
LINE
  8
DETAIL
  6
CONTINUOUS
 62
     5
 10
-156.28851027668699
 20
-264.57155100220518
 30
0.0
 11
-156.28851027668699
 21
-266.57012530241877
 31
0.0
  0
LINE
  8
DETAIL
  6
CONTINUOUS
 62
     5
 10
-156.28851027668699
 20
-265.53086666630719
 30
0.0
 11
-154.20999300446491
 21
-265.53086666630719
 31
0.0
  0
LINE
  8
DETAIL
  6
CONTINUOUS
 62
     5
 10
-182.66969103950331
 20
-264.57155100220518
 30
0.0
 11
-156.28851027668699
 21
-264.57155100220518
 31
0.0
  0
LINE
  8
DETAIL
  6
CONTINUOUS
 62
     5
 10
-182.66969103950331
 20
-260.97411726182082
 30
0.0
 11
-181.63043240339269
 21
-260.97411726182082
 31
0.0
  0
LINE
  8
DETAIL
  6
CONTINUOUS
 62
     5
 10
-182.66969103950331
 20
-264.57155100220518
 30
0.0
 11
-182.66969103950331
 21
-260.97411726182082
 31
0.0
  0
LINE
  8
DETAIL
  6
CONTINUOUS
 62
     5
 10
-197.31959708501449
 20
-268.40881365861452
 30
0.0
 11
-167.16075446984769
 21
-268.40881365861452
 31
0.0
  0
LINE
  8
DETAIL
  6
CONTINUOUS
 62
     5
 10
-199.31817138522749
 20
-266.57012530241877
 30
0.0
 11
-199.31817138522749
 21
-267.04978313446992
 31
0.0
  0
LINE
  8
DETAIL
  6
CONTINUOUS
 62
     5
 10
-199.31817138522749
 20
-267.04978313446992
 30
0.0
 11
-199.15828544121061
 21
-267.44949799451229
 31
0.0
  0
LINE
  8
DETAIL
  6
CONTINUOUS
 62
     5
 10
-199.15828544121061
 20
-267.44949799451229
 30
0.0
 11
-198.51874166514239
 21
-268.00909879857198
 31
0.0
  0
LINE
  8
DETAIL
  6
CONTINUOUS
 62
     5
 10
-198.51874166514239
 20
-268.00909879857198
 30
0.0
 11
-198.11902680509959
 21
-268.24892771459758
 31
0.0
  0
LINE
  8
DETAIL
  6
CONTINUOUS
 62
     5
 10
-198.11902680509959
 20
-268.24892771459758
 30
0.0
 11
-197.31959708501449
 21
-268.40881365861452
 31
0.0
  0
LINE
  8
DETAIL
  6
CONTINUOUS
 62
     5
 10
-167.16075446984769
 20
-268.40881365861452
 30
0.0
 11
-166.6810966377964
 21
-268.24892771459758
 31
0.0
  0
LINE
  8
DETAIL
  6
CONTINUOUS
 62
     5
 10
-166.6810966377964
 20
-268.24892771459758
 30
0.0
 11
-166.2813817777535
 21
-268.00909879857198
 31
0.0
  0
LINE
  8
DETAIL
  6
CONTINUOUS
 62
     5
 10
-166.2813817777535
 20
-268.00909879857198
 30
0.0
 11
-165.6418380016855
 21
-267.44949799451229
 31
0.0
  0
LINE
  8
DETAIL
  6
CONTINUOUS
 62
     5
 10
-165.6418380016855
 20
-267.44949799451229
 30
0.0
 11
-165.48195205766871
 21
-267.04978313446992
 31
0.0
  0
LINE
  8
DETAIL
  6
CONTINUOUS
 62
     5
 10
-165.48195205766871
 20
-267.04978313446992
 30
0.0
 11
-165.24212314164311
 21
-266.57012530241877
 31
0.0
  0
LINE
  8
DETAIL
  6
CONTINUOUS
 62
     5
 10
182.58974806749481
 20
-260.97411726182099
 30
0.0
 11
181.7103753754009
 21
-260.97411726182099
 31
0.0
  0
LINE
  8
DETAIL
  6
CONTINUOUS
 62
     5
 10
214.58727903885759
 20
-225.71926660605661
 30
0.0
 11
181.7103753754009
 21
-225.71926660605661
 31
0.0
  0
LINE
  8
DETAIL
  6
CONTINUOUS
 62
     5
 10
206.11332400595299
 20
-261.53371806588069
 30
0.0
 11
206.11332400595299
 21
-266.570125302419
 31
0.0
  0
LINE
  8
DETAIL
  6
CONTINUOUS
 62
     5
 10
206.11332400595299
 20
-261.53371806588069
 30
0.0
 11
208.8313850542431
 21
-266.570125302419
 31
0.0
  0
LINE
  8
DETAIL
  6
CONTINUOUS
 62
     5
 10
206.11332400595299
 20
-261.53371806588069
 30
0.0
 11
202.99554809762051
 21
-266.570125302419
 31
0.0
  0
LINE
  8
DETAIL
  6
CONTINUOUS
 62
     5
 10
233.933478264923
 20
-261.53371806588069
 30
0.0
 11
233.933478264923
 21
-266.570125302419
 31
0.0
  0
LINE
  8
DETAIL
  6
CONTINUOUS
 62
     5
 10
233.933478264923
 20
-261.53371806588069
 30
0.0
 11
231.05553127261649
 21
-266.570125302419
 31
0.0
  0
LINE
  8
DETAIL
  6
CONTINUOUS
 62
     5
 10
233.933478264923
 20
-261.53371806588069
 30
0.0
 11
236.7314822852222
 21
-266.570125302419
 31
0.0
  0
LINE
  8
DETAIL
  6
CONTINUOUS
 62
     5
 10
214.58727903885759
 20
-245.78495258019919
 30
0.0
 11
214.74716498287489
 21
-247.54369796438689
 31
0.0
  0
LINE
  8
DETAIL
  6
CONTINUOUS
 62
     5
 10
214.74716498287489
 20
-247.54369796438689
 30
0.0
 11
215.46665173095201
 21
-249.06261443254931
 31
0.0
  0
LINE
  8
DETAIL
  6
CONTINUOUS
 62
     5
 10
215.46665173095201
 20
-249.06261443254931
 30
0.0
 11
216.7457392830884
 21
-250.26175901267769
 31
0.0
  0
LINE
  8
DETAIL
  6
CONTINUOUS
 62
     5
 10
216.7457392830884
 20
-250.26175901267769
 30
0.0
 11
218.26465575125081
 21
-250.98124576075429
 31
0.0
  0
LINE
  8
DETAIL
  6
CONTINUOUS
 62
     5
 10
218.26465575125081
 20
-250.98124576075429
 30
0.0
 11
220.02340113543781
 21
-251.3010176487885
 31
0.0
  0
LINE
  8
DETAIL
  6
CONTINUOUS
 62
     5
 10
220.02340113543781
 20
-251.3010176487885
 30
0.0
 11
221.4623746315915
 21
-250.98124576075429
 31
0.0
  0
LINE
  8
DETAIL
  6
CONTINUOUS
 62
     5
 10
221.4623746315915
 20
-250.98124576075429
 30
0.0
 11
223.22112001577989
 21
-250.26175901267769
 31
0.0
  0
LINE
  8
DETAIL
  6
CONTINUOUS
 62
     5
 10
223.22112001577989
 20
-250.26175901267769
 30
0.0
 11
224.26037865189031
 21
-249.06261443254931
 31
0.0
  0
LINE
  8
DETAIL
  6
CONTINUOUS
 62
     5
 10
224.26037865189031
 20
-249.06261443254931
 30
0.0
 11
225.21969431599291
 21
-247.54369796438689
 31
0.0
  0
LINE
  8
DETAIL
  6
CONTINUOUS
 62
     5
 10
225.21969431599291
 20
-247.54369796438689
 30
0.0
 11
225.45952323201851
 21
-245.78495258019919
 31
0.0
  0
LINE
  8
DETAIL
  6
CONTINUOUS
 62
     5
 10
225.45952323201851
 20
-245.78495258019919
 30
0.0
 11
225.45952323201851
 21
-225.71926660605661
 31
0.0
  0
LINE
  8
DETAIL
  6
CONTINUOUS
 62
     5
 10
214.58727903885759
 20
-245.78495258019919
 30
0.0
 11
214.58727903885759
 21
-225.71926660605661
 31
0.0
  0
LINE
  8
DETAIL
  6
CONTINUOUS
 62
     5
 10
240.00914413757249
 20
-225.71926660605661
 30
0.0
 11
225.45952323201851
 21
-225.71926660605661
 31
0.0
  0
LINE
  8
DETAIL
  6
CONTINUOUS
 62
     5
 10
154.78993597647329
 20
-263.45234939408567
 30
0.0
 11
154.78993597647329
 21
-265.53086666630747
 31
0.0
  0
LINE
  8
DETAIL
  6
CONTINUOUS
 62
     5
 10
240.00914413757249
 20
-266.570125302419
 30
0.0
 11
156.70856730467861
 21
-266.570125302419
 31
0.0
  0
LINE
  8
DETAIL
  6
CONTINUOUS
 62
     5
 10
240.00914413757249
 20
-266.570125302419
 30
0.0
 11
240.00914413757249
 21
-225.71926660605661
 31
0.0
  0
LINE
  8
DETAIL
  6
CONTINUOUS
 62
     5
 10
171.3977319862997
 20
-264.5715510022053
 30
0.0
 11
171.3977319862997
 21
-263.77212128211949
 31
0.0
  0
LINE
  8
DETAIL
  6
CONTINUOUS
 62
     5
 10
171.3977319862997
 20
-263.77212128211949
 30
0.0
 11
171.15790307027419
 21
-263.45234939408567
 31
0.0
  0
LINE
  8
DETAIL
  6
CONTINUOUS
 62
     5
 10
156.70856730467861
 20
-264.5715510022053
 30
0.0
 11
156.70856730467861
 21
-266.570125302419
 31
0.0
  0
LINE
  8
DETAIL
  6
CONTINUOUS
 62
     5
 10
156.70856730467861
 20
-265.53086666630747
 30
0.0
 11
154.78993597647329
 21
-265.53086666630747
 31
0.0
  0
LINE
  8
DETAIL
  6
CONTINUOUS
 62
     5
 10
182.58974806749481
 20
-264.5715510022053
 30
0.0
 11
156.70856730467861
 21
-264.5715510022053
 31
0.0
  0
LINE
  8
DETAIL
  6
CONTINUOUS
 62
     5
 10
182.58974806749481
 20
-264.5715510022053
 30
0.0
 11
182.58974806749481
 21
-260.97411726182099
 31
0.0
  0
LINE
  8
DETAIL
  6
CONTINUOUS
 62
     5
 10
196.81959708501429
 20
-268.40881365861469
 30
0.0
 11
167.2406974418559
 21
-268.40881365861469
 31
0.0
  0
LINE
  8
DETAIL
  6
CONTINUOUS
 62
     5
 10
196.81959708501429
 20
-268.40881365861469
 30
0.0
 11
197.29925491706581
 21
-268.24892771459781
 31
0.0
  0
LINE
  8
DETAIL
  6
CONTINUOUS
 62
     5
 10
197.29925491706581
 20
-268.24892771459781
 30
0.0
 11
198.09868463715071
 21
-268.00909879857232
 31
0.0
  0
LINE
  8
DETAIL
  6
CONTINUOUS
 62
     5
 10
198.09868463715071
 20
-268.00909879857232
 30
0.0
 11
198.3385135531762
 21
-267.44949799451251
 31
0.0
  0
LINE
  8
DETAIL
  6
CONTINUOUS
 62
     5
 10
198.3385135531762
 20
-267.44949799451251
 30
0.0
 11
198.81817138522729
 21
-267.04978313447009
 31
0.0
  0
LINE
  8
DETAIL
  6
CONTINUOUS
 62
     5
 10
198.81817138522729
 20
-267.04978313447009
 30
0.0
 11
198.81817138522729
 21
-266.570125302419
 31
0.0
  0
LINE
  8
DETAIL
  6
CONTINUOUS
 62
     5
 10
165.16218016963381
 20
-266.570125302419
 30
0.0
 11
165.16218016963381
 21
-267.04978313447009
 31
0.0
  0
LINE
  8
DETAIL
  6
CONTINUOUS
 62
     5
 10
165.16218016963381
 20
-267.04978313447009
 30
0.0
 11
165.721780973694
 21
-267.44949799451251
 31
0.0
  0
LINE
  8
DETAIL
  6
CONTINUOUS
 62
     5
 10
165.721780973694
 20
-267.44949799451251
 30
0.0
 11
165.96160988971951
 21
-268.00909879857232
 31
0.0
  0
LINE
  8
DETAIL
  6
CONTINUOUS
 62
     5
 10
165.96160988971951
 20
-268.00909879857232
 30
0.0
 11
166.76103960980481
 21
-268.24892771459781
 31
0.0
  0
LINE
  8
DETAIL
  6
CONTINUOUS
 62
     5
 10
166.76103960980481
 20
-268.24892771459781
 30
0.0
 11
167.2406974418559
 21
-268.40881365861469
 31
0.0
  0
LINE
  8
DETAIL
  6
CONTINUOUS
 62
     5
 10
182.58974806749481
 20
260.97411726182128
 30
0.0
 11
181.7103753754009
 21
260.97411726182128
 31
0.0
  0
LINE
  8
DETAIL
  6
CONTINUOUS
 62
     5
 10
214.58727903885759
 20
225.71926660605709
 30
0.0
 11
181.7103753754009
 21
225.71926660605709
 31
0.0
  0
LINE
  8
DETAIL
  6
CONTINUOUS
 62
     5
 10
206.11332400595299
 20
261.6136610378893
 30
0.0
 11
206.11332400595299
 21
266.57012530241877
 31
0.0
  0
LINE
  8
DETAIL
  6
CONTINUOUS
 62
     5
 10
206.11332400595299
 20
261.6136610378893
 30
0.0
 11
208.83138505424361
 21
266.57012530241877
 31
0.0
  0
LINE
  8
DETAIL
  6
CONTINUOUS
 62
     5
 10
206.11332400595299
 20
261.6136610378893
 30
0.0
 11
202.99554809762051
 21
266.57012530241877
 31
0.0
  0
LINE
  8
DETAIL
  6
CONTINUOUS
 62
     5
 10
233.93347826492351
 20
261.6136610378893
 30
0.0
 11
233.93347826492351
 21
266.57012530241877
 31
0.0
  0
LINE
  8
DETAIL
  6
CONTINUOUS
 62
     5
 10
233.93347826492351
 20
261.6136610378893
 30
0.0
 11
231.05553127261649
 21
266.57012530241877
 31
0.0
  0
LINE
  8
DETAIL
  6
CONTINUOUS
 62
     5
 10
233.93347826492351
 20
261.6136610378893
 30
0.0
 11
236.7314822852222
 21
266.57012530241877
 31
0.0
  0
LINE
  8
DETAIL
  6
CONTINUOUS
 62
     5
 10
225.45952323201851
 20
246.02478149622519
 30
0.0
 11
225.059808371976
 21
247.8634698524213
 31
0.0
  0
LINE
  8
DETAIL
  6
CONTINUOUS
 62
     5
 10
225.059808371976
 20
247.8634698524213
 30
0.0
 11
224.26037865189031
 21
249.54227226460071
 31
0.0
  0
LINE
  8
DETAIL
  6
CONTINUOUS
 62
     5
 10
224.26037865189031
 20
249.54227226460071
 30
0.0
 11
222.7414621837288
 21
250.8213598167371
 31
0.0
  0
LINE
  8
DETAIL
  6
CONTINUOUS
 62
     5
 10
222.7414621837288
 20
250.8213598167371
 30
0.0
 11
221.06265977154911
 21
251.30101764878839
 31
0.0
  0
LINE
  8
DETAIL
  6
CONTINUOUS
 62
     5
 10
221.06265977154911
 20
251.30101764878839
 30
0.0
 11
218.98414249932739
 21
251.30101764878839
 31
0.0
  0
LINE
  8
DETAIL
  6
CONTINUOUS
 62
     5
 10
218.98414249932739
 20
251.30101764878839
 30
0.0
 11
217.3053400871481
 21
250.8213598167371
 31
0.0
  0
LINE
  8
DETAIL
  6
CONTINUOUS
 62
     5
 10
217.3053400871481
 20
250.8213598167371
 30
0.0
 11
215.78642361898619
 21
249.54227226460071
 31
0.0
  0
LINE
  8
DETAIL
  6
CONTINUOUS
 62
     5
 10
215.78642361898619
 20
249.54227226460071
 30
0.0
 11
214.74716498287489
 21
247.8634698524213
 31
0.0
  0
LINE
  8
DETAIL
  6
CONTINUOUS
 62
     5
 10
214.74716498287489
 20
247.8634698524213
 30
0.0
 11
214.58727903885759
 21
246.02478149622519
 31
0.0
  0
LINE
  8
DETAIL
  6
CONTINUOUS
 62
     5
 10
225.45952323201851
 20
246.02478149622519
 30
0.0
 11
225.45952323201851
 21
225.71926660605709
 31
0.0
  0
LINE
  8
DETAIL
  6
CONTINUOUS
 62
     5
 10
214.58727903885759
 20
246.02478149622519
 30
0.0
 11
214.58727903885759
 21
225.71926660605709
 31
0.0
  0
LINE
  8
DETAIL
  6
CONTINUOUS
 62
     5
 10
240.00914413757249
 20
225.71926660605709
 30
0.0
 11
225.45952323201851
 21
225.71926660605709
 31
0.0
  0
LINE
  8
DETAIL
  6
CONTINUOUS
 62
     5
 10
154.78993597647329
 20
263.45234939408567
 30
0.0
 11
154.78993597647329
 21
265.61080963831648
 31
0.0
  0
LINE
  8
DETAIL
  6
CONTINUOUS
 62
     5
 10
240.00914413757249
 20
266.57012530241877
 30
0.0
 11
156.70856730467861
 21
266.57012530241889
 31
0.0
  0
LINE
  8
DETAIL
  6
CONTINUOUS
 62
     5
 10
240.00914413757249
 20
266.57012530241877
 30
0.0
 11
240.00914413757249
 21
225.71926660605709
 31
0.0
  0
LINE
  8
DETAIL
  6
CONTINUOUS
 62
     5
 10
170.43841632219761
 20
263.45234939408562
 30
0.0
 11
170.91807415424859
 21
263.77212128212
 31
0.0
  0
LINE
  8
DETAIL
  6
CONTINUOUS
 62
     5
 10
170.91807415424859
 20
263.77212128212
 30
0.0
 11
171.15790307027419
 21
263.77212128212
 31
0.0
  0
LINE
  8
DETAIL
  6
CONTINUOUS
 62
     5
 10
171.15790307027419
 20
263.77212128212
 30
0.0
 11
171.39773198630019
 21
264.09189317015409
 31
0.0
  0
LINE
  8
DETAIL
  6
CONTINUOUS
 62
     5
 10
171.39773198630019
 20
264.09189317015409
 30
0.0
 11
171.39773198630019
 21
264.49160803019703
 31
0.0
  0
LINE
  8
DETAIL
  6
CONTINUOUS
 62
     5
 10
156.70856730467861
 20
264.49160803019709
 30
0.0
 11
156.70856730467861
 21
266.57012530241889
 31
0.0
  0
LINE
  8
DETAIL
  6
CONTINUOUS
 62
     5
 10
156.70856730467861
 20
265.61080963831648
 30
0.0
 11
154.78993597647329
 21
265.61080963831648
 31
0.0
  0
LINE
  8
DETAIL
  6
CONTINUOUS
 62
     5
 10
182.58974806749481
 20
264.49160803019703
 30
0.0
 11
156.70856730467861
 21
264.49160803019709
 31
0.0
  0
LINE
  8
DETAIL
  6
CONTINUOUS
 62
     5
 10
182.58974806749481
 20
264.49160803019703
 30
0.0
 11
182.58974806749481
 21
260.97411726182128
 31
0.0
  0
LINE
  8
DETAIL
  6
CONTINUOUS
 62
     5
 10
198.81817138522729
 20
266.57012530241877
 30
0.0
 11
198.81817138522729
 21
267.28961205049552
 31
0.0
  0
LINE
  8
DETAIL
  6
CONTINUOUS
 62
     5
 10
198.81817138522729
 20
267.28961205049552
 30
0.0
 11
198.3385135531762
 21
267.76926988254661
 31
0.0
  0
LINE
  8
DETAIL
  6
CONTINUOUS
 62
     5
 10
198.3385135531762
 20
267.76926988254661
 30
0.0
 11
198.09868463715071
 21
268.24892771459798
 31
0.0
  0
LINE
  8
DETAIL
  6
CONTINUOUS
 62
     5
 10
198.09868463715071
 20
268.24892771459798
 30
0.0
 11
197.29925491706581
 21
268.48875663062353
 31
0.0
  0
LINE
  8
DETAIL
  6
CONTINUOUS
 62
     5
 10
197.29925491706581
 20
268.48875663062353
 30
0.0
 11
196.81959708501469
 21
268.48875663062353
 31
0.0
  0
LINE
  8
DETAIL
  6
CONTINUOUS
 62
     5
 10
196.81959708501469
 20
268.48875663062353
 30
0.0
 11
166.76103960980481
 21
268.48875663062353
 31
0.0
  0
LINE
  8
DETAIL
  6
CONTINUOUS
 62
     5
 10
166.76103960980481
 20
268.48875663062353
 30
0.0
 11
165.96160988971951
 21
268.24892771459798
 31
0.0
  0
LINE
  8
DETAIL
  6
CONTINUOUS
 62
     5
 10
165.96160988971951
 20
268.24892771459798
 30
0.0
 11
165.721780973694
 21
267.76926988254661
 31
0.0
  0
LINE
  8
DETAIL
  6
CONTINUOUS
 62
     5
 10
165.721780973694
 20
267.76926988254661
 30
0.0
 11
165.16218016963381
 21
267.28961205049552
 31
0.0
  0
LINE
  8
DETAIL
  6
CONTINUOUS
 62
     5
 10
165.16218016963381
 20
267.28961205049552
 30
0.0
 11
165.16218016963381
 21
266.57012530241877
 31
0.0
  0
LINE
  8
DETAIL
  6
CONTINUOUS
 62
     5
 10
-182.66969103950331
 20
260.97411726182139
 30
0.0
 11
-181.63043240339269
 21
260.97411726182139
 31
0.0
  0
LINE
  8
DETAIL
  6
CONTINUOUS
 62
     5
 10
-214.50733606684929
 20
225.71926660605729
 30
0.0
 11
-181.63043240339269
 21
225.71926660605729
 31
0.0
  0
LINE
  8
DETAIL
  6
CONTINUOUS
 62
     5
 10
-206.03338103394461
 20
261.61366103788941
 30
0.0
 11
-206.03338103394461
 21
266.57012530241889
 31
0.0
  0
LINE
  8
DETAIL
  6
CONTINUOUS
 62
     5
 10
-206.03338103394461
 20
261.61366103788941
 30
0.0
 11
-208.83138505424341
 21
266.57012530241889
 31
0.0
  0
LINE
  8
DETAIL
  6
CONTINUOUS
 62
     5
 10
-206.03338103394461
 20
261.61366103788941
 30
0.0
 11
-203.15543404163759
 21
266.57012530241889
 31
0.0
  0
LINE
  8
DETAIL
  6
CONTINUOUS
 62
     5
 10
-234.01342123693189
 20
261.61366103788941
 30
0.0
 11
-234.01342123693189
 21
266.57012530241889
 31
0.0
  0
LINE
  8
DETAIL
  6
CONTINUOUS
 62
     5
 10
-234.01342123693189
 20
261.61366103788941
 30
0.0
 11
-230.9755883006078
 21
266.57012530241889
 31
0.0
  0
LINE
  8
DETAIL
  6
CONTINUOUS
 62
     5
 10
-234.01342123693189
 20
261.61366103788941
 30
0.0
 11
-236.73148228522251
 21
266.57012530241889
 31
0.0
  0
LINE
  8
DETAIL
  6
CONTINUOUS
 62
     5
 10
-214.50733606684929
 20
246.02478149622539
 30
0.0
 11
-214.82710795488359
 21
247.86346985242159
 31
0.0
  0
LINE
  8
DETAIL
  6
CONTINUOUS
 62
     5
 10
-214.82710795488359
 20
247.86346985242159
 30
0.0
 11
-215.78642361898599
 21
249.5422722646008
 31
0.0
  0
LINE
  8
DETAIL
  6
CONTINUOUS
 62
     5
 10
-215.78642361898599
 20
249.5422722646008
 30
0.0
 11
-217.30534008714841
 21
250.82135981673721
 31
0.0
  0
LINE
  8
DETAIL
  6
CONTINUOUS
 62
     5
 10
-217.30534008714841
 20
250.82135981673721
 30
0.0
 11
-219.0640854713358
 21
251.3010176487885
 31
0.0
  0
LINE
  8
DETAIL
  6
CONTINUOUS
 62
     5
 10
-219.0640854713358
 20
251.3010176487885
 30
0.0
 11
-220.9827167995409
 21
251.3010176487885
 31
0.0
  0
LINE
  8
DETAIL
  6
CONTINUOUS
 62
     5
 10
-220.9827167995409
 20
251.3010176487885
 30
0.0
 11
-222.7414621837286
 21
250.82135981673721
 31
0.0
  0
LINE
  8
DETAIL
  6
CONTINUOUS
 62
     5
 10
-222.7414621837286
 20
250.82135981673721
 30
0.0
 11
-224.2603786518907
 21
249.5422722646008
 31
0.0
  0
LINE
  8
DETAIL
  6
CONTINUOUS
 62
     5
 10
-224.2603786518907
 20
249.5422722646008
 30
0.0
 11
-225.21969431599311
 21
247.86346985242159
 31
0.0
  0
LINE
  8
DETAIL
  6
CONTINUOUS
 62
     5
 10
-225.21969431599311
 20
247.86346985242159
 30
0.0
 11
-225.53946620402729
 21
246.02478149622539
 31
0.0
  0
LINE
  8
DETAIL
  6
CONTINUOUS
 62
     5
 10
-225.53946620402729
 20
246.02478149622539
 30
0.0
 11
-225.53946620402729
 21
225.71926660605729
 31
0.0
  0
LINE
  8
DETAIL
  6
CONTINUOUS
 62
     5
 10
-214.50733606684929
 20
246.02478149622539
 30
0.0
 11
-214.50733606684929
 21
225.71926660605729
 31
0.0
  0
LINE
  8
DETAIL
  6
CONTINUOUS
 62
     5
 10
-239.92920116556371
 20
225.71926660605729
 30
0.0
 11
-225.53946620402729
 21
225.71926660605729
 31
0.0
  0
LINE
  8
DETAIL
  6
CONTINUOUS
 62
     5
 10
-154.20999300446491
 20
263.45234939408567
 30
0.0
 11
-154.20999300446491
 21
265.61080963831648
 31
0.0
  0
LINE
  8
DETAIL
  6
CONTINUOUS
 62
     5
 10
-239.92920116556371
 20
266.57012530241889
 30
0.0
 11
-156.28851027668699
 21
266.57012530241889
 31
0.0
  0
LINE
  8
DETAIL
  6
CONTINUOUS
 62
     5
 10
-239.92920116556371
 20
266.57012530241889
 30
0.0
 11
-239.92920116556371
 21
225.71926660605729
 31
0.0
  0
LINE
  8
DETAIL
  6
CONTINUOUS
 62
     5
 10
-171.6375609023257
 20
264.49160803019709
 30
0.0
 11
-171.39773198630019
 21
264.25177911417131
 31
0.0
  0
LINE
  8
DETAIL
  6
CONTINUOUS
 62
     5
 10
-171.39773198630019
 20
264.25177911417131
 30
0.0
 11
-171.39773198630019
 21
264.09189317015421
 31
0.0
  0
LINE
  8
DETAIL
  6
CONTINUOUS
 62
     5
 10
-171.39773198630019
 20
264.09189317015421
 30
0.0
 11
-171.23784604228291
 21
263.77212128212011
 31
0.0
  0
LINE
  8
DETAIL
  6
CONTINUOUS
 62
     5
 10
-171.23784604228291
 20
263.77212128212011
 30
0.0
 11
-170.9180741542489
 21
263.77212128212011
 31
0.0
  0
LINE
  8
DETAIL
  6
CONTINUOUS
 62
     5
 10
-170.9180741542489
 20
263.77212128212011
 30
0.0
 11
-170.6782452382233
 21
263.45234939408567
 31
0.0
  0
LINE
  8
DETAIL
  6
CONTINUOUS
 62
     5
 10
-156.28851027668699
 20
264.49160803019709
 30
0.0
 11
-156.28851027668699
 21
266.57012530241889
 31
0.0
  0
LINE
  8
DETAIL
  6
CONTINUOUS
 62
     5
 10
-156.28851027668699
 20
265.61080963831648
 30
0.0
 11
-154.20999300446491
 21
265.61080963831648
 31
0.0
  0
LINE
  8
DETAIL
  6
CONTINUOUS
 62
     5
 10
-182.66969103950331
 20
264.49160803019709
 30
0.0
 11
-156.28851027668699
 21
264.49160803019709
 31
0.0
  0
LINE
  8
DETAIL
  6
CONTINUOUS
 62
     5
 10
-182.66969103950331
 20
264.49160803019709
 30
0.0
 11
-182.66969103950331
 21
260.97411726182139
 31
0.0
  0
LINE
  8
DETAIL
  6
CONTINUOUS
 62
     5
 10
-197.31959708501449
 20
268.48875663062358
 30
0.0
 11
-166.6810966377964
 21
268.48875663062358
 31
0.0
  0
LINE
  8
DETAIL
  6
CONTINUOUS
 62
     5
 10
-197.31959708501449
 20
268.48875663062358
 30
0.0
 11
-198.11902680509959
 21
268.48875663062358
 31
0.0
  0
LINE
  8
DETAIL
  6
CONTINUOUS
 62
     5
 10
-198.11902680509959
 20
268.48875663062358
 30
0.0
 11
-198.51874166514239
 21
268.24892771459798
 31
0.0
  0
LINE
  8
DETAIL
  6
CONTINUOUS
 62
     5
 10
-198.51874166514239
 20
268.24892771459798
 30
0.0
 11
-199.15828544121061
 21
267.76926988254672
 31
0.0
  0
LINE
  8
DETAIL
  6
CONTINUOUS
 62
     5
 10
-199.15828544121061
 20
267.76926988254672
 30
0.0
 11
-199.31817138522749
 21
267.28961205049558
 31
0.0
  0
LINE
  8
DETAIL
  6
CONTINUOUS
 62
     5
 10
-199.31817138522749
 20
267.28961205049558
 30
0.0
 11
-199.31817138522749
 21
266.57012530241889
 31
0.0
  0
LINE
  8
DETAIL
  6
CONTINUOUS
 62
     5
 10
-165.24212314164311
 20
266.57012530241889
 30
0.0
 11
-165.6418380016855
 21
267.76926988254672
 31
0.0
  0
LINE
  8
DETAIL
  6
CONTINUOUS
 62
     5
 10
-165.6418380016855
 20
267.76926988254672
 30
0.0
 11
-166.2813817777535
 21
268.24892771459798
 31
0.0
  0
LINE
  8
DETAIL
  6
CONTINUOUS
 62
     5
 10
-166.2813817777535
 20
268.24892771459798
 30
0.0
 11
-166.6810966377964
 21
268.48875663062358
 31
0.0
  0
LINE
  8
DETAIL
  6
CONTINUOUS
 62
     5
 10
-204.35457862176551
 20
-149.53332914196531
 30
0.0
 11
-203.79497781770559
 21
-152.41127613427221
 31
0.0
  0
LINE
  8
DETAIL
  6
CONTINUOUS
 62
     5
 10
-203.79497781770559
 20
-152.41127613427221
 30
0.0
 11
-202.35600432155209
 21
-155.20928015457119
 31
0.0
  0
LINE
  8
DETAIL
  6
CONTINUOUS
 62
     5
 10
-202.35600432155209
 20
-155.20928015457119
 30
0.0
 11
-200.0376581333046
 21
-157.3677403988018
 31
0.0
  0
LINE
  8
DETAIL
  6
CONTINUOUS
 62
     5
 10
-200.0376581333046
 20
-157.3677403988018
 30
0.0
 11
-197.31959708501449
 21
-158.9665998389724
 31
0.0
  0
LINE
  8
DETAIL
  6
CONTINUOUS
 62
     5
 10
-197.31959708501449
 20
-158.9665998389724
 30
0.0
 11
-194.36170712069841
 21
-159.52620064303201
 31
0.0
  0
LINE
  8
DETAIL
  6
CONTINUOUS
 62
     5
 10
-194.36170712069841
 20
-182.30994766546459
 30
0.0
 11
-181.63043240339269
 21
-182.30994766546459
 31
0.0
  0
LINE
  8
DETAIL
  6
CONTINUOUS
 62
     5
 10
-204.35457862176551
 20
-172.31707616439741
 30
0.0
 11
-203.79497781770559
 21
-175.67468098875619
 31
0.0
  0
LINE
  8
DETAIL
  6
CONTINUOUS
 62
     5
 10
-203.79497781770559
 20
-175.67468098875619
 30
0.0
 11
-202.35600432155209
 21
-178.31279906503789
 31
0.0
  0
LINE
  8
DETAIL
  6
CONTINUOUS
 62
     5
 10
-202.35600432155209
 20
-178.31279906503789
 30
0.0
 11
-200.0376581333046
 21
-180.6311452532853
 31
0.0
  0
LINE
  8
DETAIL
  6
CONTINUOUS
 62
     5
 10
-200.0376581333046
 20
-180.6311452532853
 30
0.0
 11
-197.31959708501449
 21
-181.91023280542171
 31
0.0
  0
LINE
  8
DETAIL
  6
CONTINUOUS
 62
     5
 10
-197.31959708501449
 20
-181.91023280542171
 30
0.0
 11
-194.36170712069841
 21
-182.30994766546459
 31
0.0
  0
LINE
  8
DETAIL
  6
CONTINUOUS
 62
     5
 10
-194.36170712069841
 20
-159.52620064303201
 30
0.0
 11
-182.4298621234777
 21
-159.52620064303201
 31
0.0
  0
LINE
  8
DETAIL
  6
CONTINUOUS
 62
     5
 10
-182.4298621234777
 20
-51.283416543475198
 30
0.0
 11
-194.36170712069841
 21
-51.283416543475198
 31
0.0
  0
LINE
  8
DETAIL
  6
CONTINUOUS
 62
     5
 10
-204.35457862176551
 20
-61.196345072533752
 30
0.0
 11
-204.35457862176551
 21
-172.31707616439741
 31
0.0
  0
LINE
  8
DETAIL
  6
CONTINUOUS
 62
     5
 10
-194.36170712069841
 20
-51.283416543475198
 30
0.0
 11
-197.31959708501449
 21
-51.84301734753501
 31
0.0
  0
LINE
  8
DETAIL
  6
CONTINUOUS
 62
     5
 10
-197.31959708501449
 20
-51.84301734753501
 30
0.0
 11
-200.0376581333046
 21
-53.361933815697107
 31
0.0
  0
LINE
  8
DETAIL
  6
CONTINUOUS
 62
     5
 10
-200.0376581333046
 20
-53.361933815697107
 30
0.0
 11
-202.35600432155209
 21
-55.520394059927533
 31
0.0
  0
LINE
  8
DETAIL
  6
CONTINUOUS
 62
     5
 10
-202.35600432155209
 20
-55.520394059927533
 30
0.0
 11
-203.79497781770559
 21
-58.318398080226068
 31
0.0
  0
LINE
  8
DETAIL
  6
CONTINUOUS
 62
     5
 10
-203.79497781770559
 20
-58.318398080226068
 30
0.0
 11
-204.35457862176551
 21
-61.196345072533752
 31
0.0
  0
LINE
  8
OUTLINE
  6
CONTINUOUS
 62
     3
 10
-96.191737494217477
 20
-341.37754549428848
 30
0.0
 11
96.191737494216795
 21
-341.37754549428848
 31
0.0
  0
LINE
  8
OUTLINE
  6
CONTINUOUS
 62
     3
 10
-96.191737494217477
 20
-346.57383867484288
 30
0.0
 11
-96.191737494217477
 21
-341.37754549428848
 31
0.0
  0
LINE
  8
OUTLINE
  6
CONTINUOUS
 62
     3
 10
-104.1860346950707
 20
-271.20681767891369
 30
0.0
 11
-96.191737494217477
 21
-341.37754549428848
 31
0.0
  0
LINE
  8
OUTLINE
  6
CONTINUOUS
 62
     3
 10
96.191737494216795
 20
-347.61309731095378
 30
0.0
 11
96.191737494216795
 21
-341.37754549428848
 31
0.0
  0
LINE
  8
OUTLINE
  6
CONTINUOUS
 62
     3
 10
96.191737494216795
 20
-341.37754549428848
 30
0.0
 11
104.10609172306179
 21
-271.20681767891369
 31
0.0
  0
LINE
  8
OUTLINE
  6
CONTINUOUS
 62
     3
 10
94.353049138020651
 20
-349.29189972313338
 30
0.0
 11
94.992592914088618
 21
-349.05207080710778
 31
0.0
  0
LINE
  8
OUTLINE
  6
CONTINUOUS
 62
     3
 10
94.992592914088618
 20
-349.05207080710778
 30
0.0
 11
95.472250746139935
 21
-348.89218486309079
 31
0.0
  0
LINE
  8
OUTLINE
  6
CONTINUOUS
 62
     3
 10
95.472250746139935
 20
-348.89218486309079
 30
0.0
 11
95.871965606182584
 21
-348.57241297505612
 31
0.0
  0
LINE
  8
OUTLINE
  6
CONTINUOUS
 62
     3
 10
95.871965606182584
 20
-348.57241297505612
 30
0.0
 11
96.191737494216795
 21
-348.09275514300509
 31
0.0
  0
LINE
  8
OUTLINE
  6
CONTINUOUS
 62
     3
 10
96.191737494216795
 20
-348.09275514300509
 30
0.0
 11
96.191737494216795
 21
-347.61309731095378
 31
0.0
  0
LINE
  8
OUTLINE
  6
CONTINUOUS
 62
     3
 10
-93.713505361952457
 20
-349.29189972313338
 30
0.0
 11
94.353049138020651
 21
-349.29189972313338
 31
0.0
  0
LINE
  8
OUTLINE
  6
CONTINUOUS
 62
     3
 10
104.10609172306179
 20
-271.20681767891369
 30
0.0
 11
-104.1860346950707
 21
-271.20681767891369
 31
0.0
  0
LINE
  8
OUTLINE
  6
CONTINUOUS
 62
     3
 10
104.10609172306179
 20
-271.20681767891369
 30
0.0
 11
104.10609172306179
 21
-265.53086666630747
 31
0.0
  0
LINE
  8
OUTLINE
  6
CONTINUOUS
 62
     3
 10
-104.1860346950707
 20
-271.20681767891369
 30
0.0
 11
-104.1860346950707
 21
-265.53086666630747
 31
0.0
  0
LINE
  8
OUTLINE
  6
CONTINUOUS
 62
     3
 10
-117.6164539925046
 20
-264.01195019814509
 30
0.0
 11
154.78993597647329
 21
-264.01195019814509
 31
0.0
  0
LINE
  8
OUTLINE
  6
CONTINUOUS
 62
     3
 10
-104.1860346950707
 20
-265.53086666630747
 30
0.0
 11
-104.66569252712181
 21
-264.73143694622217
 31
0.0
  0
LINE
  8
OUTLINE
  6
CONTINUOUS
 62
     3
 10
-104.66569252712181
 20
-264.73143694622217
 30
0.0
 11
-104.8255784711389
 21
-264.5715510022053
 31
0.0
  0
LINE
  8
OUTLINE
  6
CONTINUOUS
 62
     3
 10
-104.8255784711389
 20
-264.5715510022053
 30
0.0
 11
-105.6250081912242
 21
-264.01195019814509
 31
0.0
  0
LINE
  8
OUTLINE
  6
CONTINUOUS
 62
     3
 10
105.46512224720711
 20
-264.01195019814509
 30
0.0
 11
104.90552144314709
 21
-264.5715510022053
 31
0.0
  0
LINE
  8
OUTLINE
  6
CONTINUOUS
 62
     3
 10
104.90552144314709
 20
-264.5715510022053
 30
0.0
 11
104.34592063908759
 21
-264.73143694622217
 31
0.0
  0
LINE
  8
OUTLINE
  6
CONTINUOUS
 62
     3
 10
104.34592063908759
 20
-264.73143694622217
 30
0.0
 11
104.10609172306179
 21
-265.53086666630747
 31
0.0
  0
LINE
  8
OUTLINE
  6
CONTINUOUS
 62
     3
 10
-96.191737494217477
 20
-346.57383867484288
 30
0.0
 11
-96.191737494217477
 21
-347.37326839492817
 31
0.0
  0
LINE
  8
OUTLINE
  6
CONTINUOUS
 62
     3
 10
-96.191737494217477
 20
-347.37326839492817
 30
0.0
 11
-95.712079662166389
 21
-348.09275514300509
 31
0.0
  0
LINE
  8
OUTLINE
  6
CONTINUOUS
 62
     3
 10
-95.712079662166389
 20
-348.09275514300509
 30
0.0
 11
-95.232421830114845
 21
-348.89218486309079
 31
0.0
  0
LINE
  8
OUTLINE
  6
CONTINUOUS
 62
     3
 10
-95.232421830114845
 20
-348.89218486309079
 30
0.0
 11
-94.512935082038211
 21
-349.05207080710778
 31
0.0
  0
LINE
  8
OUTLINE
  6
CONTINUOUS
 62
     3
 10
-94.512935082038211
 20
-349.05207080710778
 30
0.0
 11
-93.713505361952457
 21
-349.29189972313338
 31
0.0
  0
LINE
  8
OUTLINE
  6
CONTINUOUS
 62
     3
 10
-117.6164539925046
 20
-264.01195019814509
 30
0.0
 11
-117.6164539925046
 21
-263.45234939408567
 31
0.0
  0
LINE
  8
OUTLINE
  6
CONTINUOUS
 62
     3
 10
-96.191737494217023
 20
345.71366759086908
 30
0.0
 11
-96.19173749421725
 21
340.35748846629679
 31
0.0
  0
LINE
  8
OUTLINE
  6
CONTINUOUS
 62
     3
 10
-104.1860346950707
 20
271.28676065092219
 30
0.0
 11
-96.19173749421725
 21
340.35748846629679
 31
0.0
  0
LINE
  8
OUTLINE
  6
CONTINUOUS
 62
     3
 10
96.191737494216795
 20
346.67298325497109
 30
0.0
 11
96.191737494216795
 21
340.51737441031389
 31
0.0
  0
LINE
  8
OUTLINE
  6
CONTINUOUS
 62
     3
 10
96.191737494216795
 20
340.51737441031389
 30
0.0
 11
104.10609172306179
 21
271.28676065092219
 31
0.0
  0
LINE
  8
OUTLINE
  6
CONTINUOUS
 62
     3
 10
96.191737494216795
 20
346.67298325497109
 30
0.0
 11
96.191737494216795
 21
347.23258405903118
 31
0.0
  0
LINE
  8
OUTLINE
  6
CONTINUOUS
 62
     3
 10
96.191737494216795
 20
347.23258405903118
 30
0.0
 11
95.871965606182584
 21
347.79218486309088
 31
0.0
  0
LINE
  8
OUTLINE
  6
CONTINUOUS
 62
     3
 10
95.871965606182584
 20
347.79218486309088
 30
0.0
 11
95.472250746139935
 21
348.03201377911648
 31
0.0
  0
LINE
  8
OUTLINE
  6
CONTINUOUS
 62
     3
 10
95.472250746139935
 20
348.03201377911648
 30
0.0
 11
94.992592914088618
 21
348.19189972313347
 31
0.0
  0
LINE
  8
OUTLINE
  6
CONTINUOUS
 62
     3
 10
94.992592914088618
 20
348.19189972313347
 30
0.0
 11
94.353049138020651
 21
348.19189972313347
 31
0.0
  0
LINE
  8
OUTLINE
  6
CONTINUOUS
 62
     3
 10
-93.713505361952002
 20
348.19189972313347
 30
0.0
 11
94.353049138020651
 21
348.19189972313347
 31
0.0
  0
LINE
  8
OUTLINE
  6
CONTINUOUS
 62
     3
 10
-117.6164539925046
 20
264.25177911417143
 30
0.0
 11
117.6164539925044
 21
264.25177911417143
 31
0.0
  0
LINE
  8
OUTLINE
  6
CONTINUOUS
 62
     3
 10
-105.6250081912242
 20
264.25177911417143
 30
0.0
 11
-104.8255784711389
 21
264.49160803019703
 31
0.0
  0
LINE
  8
OUTLINE
  6
CONTINUOUS
 62
     3
 10
-104.8255784711389
 20
264.49160803019703
 30
0.0
 11
-104.66569252712181
 21
264.97126586224812
 31
0.0
  0
LINE
  8
OUTLINE
  6
CONTINUOUS
 62
     3
 10
-104.66569252712181
 20
264.97126586224812
 30
0.0
 11
-104.1860346950707
 21
265.61080963831648
 31
0.0
  0
LINE
  8
OUTLINE
  6
CONTINUOUS
 62
     3
 10
-104.1860346950707
 20
265.61080963831648
 30
0.0
 11
-104.1860346950707
 21
271.28676065092219
 31
0.0
  0
LINE
  8
OUTLINE
  6
CONTINUOUS
 62
     3
 10
104.10609172306179
 20
271.28676065092219
 30
0.0
 11
104.10609172306179
 21
265.61080963831648
 31
0.0
  0
LINE
  8
OUTLINE
  6
CONTINUOUS
 62
     3
 10
104.10609172306179
 20
265.61080963831648
 30
0.0
 11
104.34592063908759
 21
264.97126586224812
 31
0.0
  0
LINE
  8
OUTLINE
  6
CONTINUOUS
 62
     3
 10
104.34592063908759
 20
264.97126586224812
 30
0.0
 11
104.90552144314709
 21
264.49160803019703
 31
0.0
  0
LINE
  8
OUTLINE
  6
CONTINUOUS
 62
     3
 10
104.90552144314709
 20
264.49160803019703
 30
0.0
 11
105.46512224720711
 21
264.25177911417143
 31
0.0
  0
LINE
  8
OUTLINE
  6
CONTINUOUS
 62
     3
 10
117.6164539925044
 20
264.25177911417143
 30
0.0
 11
117.6164539925044
 21
263.45234939408567
 31
0.0
  0
LINE
  8
OUTLINE
  6
CONTINUOUS
 62
     3
 10
96.191737494216795
 20
343.55520734663838
 30
0.0
 11
96.191737494216795
 21
343.23543545860417
 31
0.0
  0
LINE
  8
OUTLINE
  6
CONTINUOUS
 62
     3
 10
-93.713505361952002
 20
348.19189972313347
 30
0.0
 11
-94.512935082037757
 21
348.19189972313347
 31
0.0
  0
LINE
  8
OUTLINE
  6
CONTINUOUS
 62
     3
 10
-94.512935082037757
 20
348.19189972313347
 30
0.0
 11
-95.23242183011439
 21
347.79218486309088
 31
0.0
  0
LINE
  8
OUTLINE
  6
CONTINUOUS
 62
     3
 10
-95.23242183011439
 20
347.79218486309088
 30
0.0
 11
-95.712079662165934
 21
347.23258405903118
 31
0.0
  0
LINE
  8
OUTLINE
  6
CONTINUOUS
 62
     3
 10
-95.712079662165934
 20
347.23258405903118
 30
0.0
 11
-96.191737494217023
 21
346.51309731095398
 31
0.0
  0
LINE
  8
OUTLINE
  6
CONTINUOUS
 62
     3
 10
-96.191737494217023
 20
346.51309731095398
 30
0.0
 11
-96.191737494217023
 21
345.71366759086908
 31
0.0
  0
LINE
  8
OUTLINE
  6
CONTINUOUS
 62
     3
 10
-96.19173749421725
 20
343.23543545860417
 30
0.0
 11
-96.19173749421725
 21
343.55520734663838
 31
0.0
  0
LINE
  8
OUTLINE
  6
CONTINUOUS
 62
     3
 10
-117.6164539925046
 20
264.25177911417143
 30
0.0
 11
-117.6164539925046
 21
263.45234939408567
 31
0.0
  0
LINE
  8
OUTLINE
  6
CONTINUOUS
 62
     3
 10
180.35134485125579
 20
261.61366103788941
 30
0.0
 11
180.35134485125579
 21
263.45234939408562
 31
0.0
  0
LINE
  8
OUTLINE
  6
CONTINUOUS
 62
     3
 10
-180.43128782326471
 20
261.61366103788959
 30
0.0
 11
-180.43128782326471
 21
263.45234939408567
 31
0.0
  0
LINE
  8
OUTLINE
  6
CONTINUOUS
 62
     3
 10
-180.43128782326471
 20
-175.8345669327731
 30
0.0
 11
-180.43128782326471
 21
-174.15576452059429
 31
0.0
  0
LINE
  8
OUTLINE
  6
CONTINUOUS
 62
     3
 10
-180.43128782326471
 20
263.45234939408567
 30
0.0
 11
180.35134485125579
 21
263.45234939408562
 31
0.0
  0
LINE
  8
OUTLINE
  6
CONTINUOUS
 62
     3
 10
-180.43128782326471
 20
101.1678310768019
 30
0.0
 11
-180.43128782326471
 21
104.6053788731689
 31
0.0
  0
LINE
  8
OUTLINE
  6
CONTINUOUS
 62
     3
 10
-181.63043240339269
 20
-175.8345669327731
 30
0.0
 11
-177.71322677497409
 21
-175.8345669327731
 31
0.0
  0
LINE
  8
OUTLINE
  6
CONTINUOUS
 62
     3
 10
-181.63043240339269
 20
-175.8345669327731
 30
0.0
 11
-181.63043240339269
 21
-261.53371806588052
 31
0.0
  0
LINE
  8
OUTLINE
  6
CONTINUOUS
 62
     3
 10
181.7103753754009
 20
261.61366103788941
 30
0.0
 11
177.63328380296571
 21
261.61366103788941
 31
0.0
  0
LINE
  8
OUTLINE
  6
CONTINUOUS
 62
     3
 10
181.7103753754009
 20
261.61366103788941
 30
0.0
 11
181.7103753754009
 21
-261.53371806588069
 31
0.0
  0
LINE
  8
OUTLINE
  6
CONTINUOUS
 62
     3
 10
-177.71322677497409
 20
261.61366103788959
 30
0.0
 11
-181.63043240339269
 21
261.61366103788959
 31
0.0
  0
LINE
  8
OUTLINE
  6
CONTINUOUS
 62
     3
 10
-181.63043240339269
 20
104.6053788731689
 30
0.0
 11
-181.63043240339269
 21
261.61366103788959
 31
0.0
  0
LINE
  8
OUTLINE
  6
CONTINUOUS
 62
     3
 10
-181.63043240339269
 20
104.6053788731689
 30
0.0
 11
-177.71322677497409
 21
104.6053788731689
 31
0.0
  0
LINE
  8
OUTLINE
  6
CONTINUOUS
 62
     3
 10
-178.67254243907661
 20
-174.15576452059429
 30
0.0
 11
-182.42986212347799
 21
-174.15576452059429
 31
0.0
  0
LINE
  8
OUTLINE
  6
CONTINUOUS
 62
     3
 10
-177.71322677497409
 20
101.1678310768019
 30
0.0
 11
-182.42986212347799
 21
101.1678310768019
 31
0.0
  0
LINE
  8
OUTLINE
  6
CONTINUOUS
 62
     3
 10
-182.42986212347799
 20
101.1678310768019
 30
0.0
 11
-182.42986212347799
 21
-174.15576452059429
 31
0.0
  0
LINE
  8
OUTLINE
  6
CONTINUOUS
 62
     3
 10
-154.20999300446491
 20
-263.45234939408562
 30
0.0
 11
-154.20999300446491
 21
-265.53086666630719
 31
0.0
  0
LINE
  8
OUTLINE
  6
CONTINUOUS
 62
     3
 10
-117.6164539925046
 20
-263.45234939408567
 30
0.0
 11
-171.23784604228291
 21
-263.45234939408562
 31
0.0
  0
LINE
  8
OUTLINE
  6
CONTINUOUS
 62
     3
 10
-156.28851027668679
 20
-264.57155100220518
 30
0.0
 11
-156.28851027668679
 21
-266.57012530241877
 31
0.0
  0
LINE
  8
OUTLINE
  6
CONTINUOUS
 62
     3
 10
-156.28851027668679
 20
-265.53086666630719
 30
0.0
 11
-154.20999300446491
 21
-265.53086666630719
 31
0.0
  0
LINE
  8
OUTLINE
  6
CONTINUOUS
 62
     3
 10
-182.6696910395035
 20
-264.57155100220518
 30
0.0
 11
-156.28851027668679
 21
-264.57155100220518
 31
0.0
  0
LINE
  8
OUTLINE
  6
CONTINUOUS
 62
     3
 10
-182.6696910395035
 20
-260.97411726182082
 30
0.0
 11
-181.63043240339269
 21
-260.97411726182082
 31
0.0
  0
LINE
  8
OUTLINE
  6
CONTINUOUS
 62
     3
 10
-182.6696910395035
 20
-264.57155100220518
 30
0.0
 11
-182.6696910395035
 21
-260.97411726182082
 31
0.0
  0
LINE
  8
OUTLINE
  6
CONTINUOUS
 62
     3
 10
182.58974806749481
 20
-260.97411726182099
 30
0.0
 11
181.7103753754009
 21
-260.97411726182099
 31
0.0
  0
LINE
  8
OUTLINE
  6
CONTINUOUS
 62
     3
 10
154.78993597647329
 20
-263.45234939408567
 30
0.0
 11
154.78993597647329
 21
-265.53086666630747
 31
0.0
  0
LINE
  8
OUTLINE
  6
CONTINUOUS
 62
     3
 10
170.91807415424859
 20
-263.45234939408567
 30
0.0
 11
170.43841632219761
 21
-263.45234939408567
 31
0.0
  0
LINE
  8
OUTLINE
  6
CONTINUOUS
 62
     3
 10
156.70856730467861
 20
-264.5715510022053
 30
0.0
 11
156.70856730467861
 21
-266.570125302419
 31
0.0
  0
LINE
  8
OUTLINE
  6
CONTINUOUS
 62
     3
 10
156.70856730467861
 20
-265.53086666630747
 30
0.0
 11
154.78993597647329
 21
-265.53086666630747
 31
0.0
  0
LINE
  8
OUTLINE
  6
CONTINUOUS
 62
     3
 10
182.58974806749481
 20
-264.5715510022053
 30
0.0
 11
156.70856730467861
 21
-264.5715510022053
 31
0.0
  0
LINE
  8
OUTLINE
  6
CONTINUOUS
 62
     3
 10
182.58974806749481
 20
-264.5715510022053
 30
0.0
 11
182.58974806749481
 21
-260.97411726182099
 31
0.0
  0
ENDSEC
  0
EOF
