  0
SECTION
  2
HEADER
  9
$ACADVER
  1
AC1009
  9
$DWGCODEPAGE
  3
dos932
  9
$INSBASE
 10
0.0
 20
0.0
 30
0.0
  9
$EXTMIN
 10
-737.7868488055974
 20
-777.37425625949982
 30
-0.0030516297567118
  9
$EXTMAX
 10
1098.522960870203
 20
411.75843066507701
 30
50.001526135026353
  9
$LIMMIN
 10
-2970.0
 20
-2100.0
  9
$LIMMAX
 10
2970.0
 20
2100.0
  9
$ORTHOMODE
 70
     1
  9
$REGENMODE
 70
     1
  9
$FILLMODE
 70
     1
  9
$QTEXTMODE
 70
     0
  9
$MIRRTEXT
 70
     0
  9
$LTSCALE
 40
20.0
  9
$ATTMODE
 70
     1
  9
$TEXTSIZE
 40
64.0
  9
$TRACEWID
 40
0.05
  9
$TEXTSTYLE
  7
STANDARD
  9
$CLAYER
  8
SIZE
  9
$CELTYPE
  6
CONTINUOUS
  9
$CECOLOR
 62
     7
  9
$DIMSCALE
 40
1.0
  9
$DIMASZ
 40
12.0
  9
$DIMEXO
 40
20.0
  9
$DIMDLI
 40
200.0
  9
$DIMRND
 40
0.0
  9
$DIMDLE
 40
0.0
  9
$DIMEXE
 40
20.0
  9
$DIMTP
 40
0.0
  9
$DIMTM
 40
0.0
  9
$DIMTXT
 40
64.0
  9
$DIMCEN
 40
0.09
  9
$DIMTSZ
 40
0.0
  9
$DIMTOL
 70
     0
  9
$DIMLIM
 70
     0
  9
$DIMTIH
 70
     0
  9
$DIMTOH
 70
     0
  9
$DIMSE1
 70
     0
  9
$DIMSE2
 70
     0
  9
$DIMTAD
 70
     1
  9
$DIMZIN
 70
     8
  9
$DIMBLK
  1

  9
$DIMASO
 70
     1
  9
$DIMSHO
 70
     0
  9
$DIMPOST
  1

  9
$DIMAPOST
  1

  9
$DIMALT
 70
     0
  9
$DIMALTD
 70
     2
  9
$DIMALTF
 40
25.399999999999999
  9
$DIMLFAC
 40
1.0
  9
$DIMTOFL
 70
     1
  9
$DIMTVP
 40
0.0
  9
$DIMTIX
 70
     1
  9
$DIMSOXD
 70
     0
  9
$DIMSAH
 70
     0
  9
$DIMBLK1
  1

  9
$DIMBLK2
  1

  9
$DIMSTYLE
  2
STANDARD
  9
$DIMCLRD
 70
     7
  9
$DIMCLRE
 70
     7
  9
$DIMCLRT
 70
     7
  9
$DIMTFAC
 40
1.0
  9
$DIMGAP
 40
25.0
  9
$LUNITS
 70
     2
  9
$LUPREC
 70
     4
  9
$SKETCHINC
 40
0.1
  9
$FILLETRAD
 40
3.0
  9
$AUNITS
 70
     1
  9
$AUPREC
 70
     3
  9
$MENU
  1
ACAD
  9
$ELEVATION
 40
0.0
  9
$PELEVATION
 40
0.0
  9
$THICKNESS
 40
0.0
  9
$LIMCHECK
 70
     0
  9
$CHAMFERA
 40
0.0
  9
$CHAMFERB
 40
0.0
  9
$SKPOLY
 70
     0
  9
$TDCREATE
 40
2453019.62301037
  9
$TDUPDATE
 40
2459268.675487766
  9
$TDINDWG
 40
1.7204673727
  9
$TDUSRTIMER
 40
1.7204673727
  9
$USRTIMER
 70
     1
  9
$ANGBASE
 50
0.0
  9
$ANGDIR
 70
     0
  9
$PDMODE
 70
     3
  9
$PDSIZE
 40
-2.0
  9
$PLINEWID
 40
0.0
  9
$SPLFRAME
 70
     0
  9
$SPLINETYPE
 70
     6
  9
$SPLINESEGS
 70
     8
  9
$SURFTAB1
 70
     6
  9
$SURFTAB2
 70
     6
  9
$SURFTYPE
 70
     6
  9
$SURFU
 70
     6
  9
$SURFV
 70
     6
  9
$UCSNAME
  2

  9
$UCSORG
 10
0.0
 20
0.0
 30
0.0
  9
$UCSXDIR
 10
1.0
 20
0.0
 30
0.0
  9
$UCSYDIR
 10
0.0
 20
1.0
 30
0.0
  9
$PUCSNAME
  2

  9
$PUCSORG
 10
0.0
 20
0.0
 30
0.0
  9
$PUCSXDIR
 10
1.0
 20
0.0
 30
0.0
  9
$PUCSYDIR
 10
0.0
 20
1.0
 30
0.0
  9
$USERI1
 70
     0
  9
$USERI2
 70
     0
  9
$USERI3
 70
     0
  9
$USERI4
 70
     0
  9
$USERI5
 70
     0
  9
$USERR1
 40
20.0
  9
$USERR2
 40
0.0
  9
$USERR3
 40
0.0
  9
$USERR4
 40
0.0
  9
$USERR5
 40
0.0
  9
$WORLDVIEW
 70
     1
  9
$SHADEDGE
 70
     3
  9
$SHADEDIF
 70
    70
  9
$TILEMODE
 70
     1
  9
$MAXACTVP
 70
    48
  9
$PINSBASE
 10
0.0
 20
0.0
 30
0.0
  9
$PLIMCHECK
 70
     0
  9
$PEXTMIN
 10
-100000000000000000000.0
 20
-100000000000000000000.0
 30
-100000000000000000000.0
  9
$PEXTMAX
 10
100000000000000000000.0
 20
100000000000000000000.0
 30
100000000000000000000.0
  9
$PLIMMIN
 10
0.0
 20
0.0
  9
$PLIMMAX
 10
12.0
 20
9.0
  9
$UNITMODE
 70
     0
  9
$VISRETAIN
 70
     0
  9
$PLINEGEN
 70
     0
  9
$PSLTSCALE
 70
     0
  9
$TREEDEPTH
 70
  3020
  9
$ATTDIA
 70
     0
  9
$ATTREQ
 70
     1
  9
$BLIPMODE
 70
     1
  9
$COORDS
 70
     1
  9
$DRAGMODE
 70
     2
  9
$OSMODE
 70
     0
  9
$HANDLING
 70
     0
  9
$HANDSEED
  5
FB23
  0
ENDSEC
  0
SECTION
  2
TABLES
  0
TABLE
  2
LTYPE
 70
     2
  0
LTYPE
  2
CONTINUOUS
 70
     0
  3
実線
 72
    65
 73
     0
 40
0.0
  0
LTYPE
  2
DASHDOT
 70
     0
  3
____ _ ____ _ ____ _ ____ _ ____ _ ____ _ ____
 72
    65
 73
     4
 40
5.5
 49
4.0
 49
-0.6
 49
0.3
 49
-0.6
  0
ENDTAB
  0
TABLE
  2
LAYER
 70
    12
  0
LAYER
  2
0
 70
     0
 62
     7
  6
CONTINUOUS
  0
LAYER
  2
BASIS
 70
     0
 62
     6
  6
DASHDOT
  0
LAYER
  2
OUTLINE
 70
     0
 62
     3
  6
CONTINUOUS
  0
LAYER
  2
DETAIL
 70
     0
 62
     5
  6
CONTINUOUS
  0
LAYER
  2
SIZE
 70
     0
 62
    30
  6
CONTINUOUS
  0
LAYER
  2
ARRANGE
 70
     0
 62
     1
  6
CONTINUOUS
  0
LAYER
  2
DEFPOINTS
 70
     0
 62
     7
  6
CONTINUOUS
  0
LAYER
  2
ETC
 70
     0
 62
    61
  6
CONTINUOUS
  0
LAYER
  2
FIX
 70
     0
 62
    11
  6
CONTINUOUS
  0
LAYER
  2
NOTE
 70
     0
 62
     4
  6
CONTINUOUS
  0
LAYER
  2
SERVICESPACE
 70
    64
 62
     2
  6
DASHDOT
  0
LAYER
  2
SYMBOLLINE
 70
    64
 62
    15
  6
CONTINUOUS
  0
ENDTAB
  0
TABLE
  2
STYLE
 70
     1
  0
STYLE
  2
STANDARD
 70
     0
 40
64.0
 41
0.9
 50
0.0
 71
     0
 42
64.0
  3
SIMPLEX.shx
  4
BIGFONT.shx
  0
ENDTAB
  0
TABLE
  2
APPID
 70
    19
  0
APPID
  2
ACAD
 70
     0
  0
APPID
  2
AUTOCAD_POSTSCRIPT_FIGURE
 70
     0
  0
APPID
  2
ACAD_EXEMPT_FROM_CAD_STANDARDS
 70
     0
  0
APPID
  2
ACAD_PSEXT
 70
     0
  0
APPID
  2
ACAUTHENVIRON
 70
     0
  0
APPID
  2
GENIUS_GENOENT_13
 70
     0
  0
APPID
  2
GENIUS_GENCFG_13
 70
     0
  0
APPID
  2
GENIUS_GENCFG0_13
 70
     0
  0
APPID
  2
GENIUS_GENCFG1_13
 70
     0
  0
APPID
  2
GENIUS_GENCFG2_13
 70
     0
  0
APPID
  2
GENIUS_GENCFG3_13
 70
     0
  0
APPID
  2
GENIUS_GENCFG4_13
 70
     0
  0
APPID
  2
GENIUS_GEVCFG0_13
 70
     0
  0
APPID
  2
CONTENTBLOCKICON
 70
     0
  0
APPID
  2
CONTENTBLOCKDESCRIPTION
 70
     0
  0
APPID
  2
ACAD_NAV_VCDISPLAY
 70
     0
  0
APPID
  2
ACAD_MLEADERVER
 70
     0
  0
APPID
  2
ACDBDYNAMICBLOCKTRUENAME
 70
     0
  0
APPID
  2
ACDBDYNAMICBLOCKGUID
 70
     0
  0
ENDTAB
  0
TABLE
  2
DIMSTYLE
 70
     1
  0
DIMSTYLE
  2
STANDARD
 70
     0
  3

  4

  5
_ORIGIN
  6

  7

 40
1.0
 41
12.0
 42
20.0
 43
200.0
 44
20.0
 45
0.0
 46
0.0
 47
0.0
 48
0.0
140
64.0
141
0.09
142
0.0
143
25.399999999999999
144
1.0
145
0.0
146
1.0
147
25.0
 71
     0
 72
     0
 73
     0
 74
     0
 75
     0
 76
     0
 77
     1
 78
     8
170
     0
171
     2
172
     1
173
     0
174
     1
175
     0
176
     7
177
     7
178
     7
  0
ENDTAB
  0
TABLE
  2
VIEW
 70
     1
  0
VIEW
  2
ALL
 70
     0
 40
4282.6198079999986
 10
0.0
 20
41.309904000000003
 41
5940.0
 11
0.0
 21
0.0
 31
1.0
 12
0.0
 22
0.0
 32
0.0
 42
50.0
 43
0.0
 44
0.0
 50
0.0
 71
     0
  0
ENDTAB
  0
TABLE
  2
UCS
 70
     0
  0
ENDTAB
  0
TABLE
  2
VPORT
 70
     1
  0
VPORT
  2
*ACTIVE
 70
     0
 10
0.0
 20
0.0
 11
1.0
 21
1.0
 12
180.36805603230309
 22
-182.8079127972114
 13
0.0
 23
0.0
 14
1.0
 24
1.0
 15
0.0
 25
0.0
 16
0.0
 26
0.0
 36
1.0
 17
0.0
 27
0.0
 37
0.0
 40
1139.5900070322709
 41
1.833137485311398
 42
50.0
 43
0.0
 44
0.0
 50
0.0
 51
0.0
 71
     0
 72
  1000
 73
     1
 74
     3
 75
     0
 76
     0
 77
     0
 78
     0
  0
ENDTAB
  0
ENDSEC
  0
SECTION
  2
BLOCKS
  0
BLOCK
  8
0
  2
_ORIGIN
 70
     0
 10
0.0
 20
0.0
 30
0.0
  3
_ORIGIN
  1
_ORIGIN
  0
CIRCLE
  8
SIZE
  6
CONTINUOUS
 62
    30
 10
0.0
 20
0.0
 30
0.0
 40
0.5
  0
LINE
  8
SIZE
  6
CONTINUOUS
 62
    30
 10
0.0
 20
0.0
 30
0.0
 11
-1.0
 21
0.0
 31
0.0
  0
ENDBLK
  8
0
  0
ENDSEC
  0
SECTION
  2
ENTITIES
  0
TEXT
  8
ETC
  6
CONTINUOUS
 62
    61
 10
434.51869268857422
 20
347.48216623356262
 30
0.0
 40
64.0
  1
BFS-100SXA2_4
 41
0.9
  0
TEXT
  8
ETC
  6
CONTINUOUS
 62
    61
 10
432.31028168857438
 20
246.84112023356241
 30
0.0
 40
64.0
  1
産業扇
 41
0.9
  0
TEXT
  8
ETC
  6
CONTINUOUS
 62
    61
 10
572.55455684581261
 20
161.2971569690653
 30
0.0
 40
50.0
  1
BFS-100SXA2
 41
0.9
  0
CIRCLE
  8
ARRANGE
  6
CONTINUOUS
 62
     1
 10
0.0
 20
0.0
 30
0.0
 40
40.0
  0
LINE
  8
BASIS
  6
DASHDOT
 62
     6
 10
359.65281599999997
 20
0.0000000000000568
 30
0.0
 11
-359.65281599999997
 21
-0.0000000000000568
 31
0.0
  0
LINE
  8
SIZE
  6
CONTINUOUS
 62
    30
 10
-259.0
 20
-257.0
 30
0.0
 11
-673.55700490733125
 21
-256.99999999999989
 31
0.0
  0
LINE
  8
SIZE
  6
CONTINUOUS
 62
    30
 10
-259.0
 20
-49.0
 30
0.0
 11
-673.55700490733125
 21
-48.999999999999943
 31
0.0
  0
LINE
  8
SIZE
  6
CONTINUOUS
 62
    30
 10
-653.55700490733125
 20
-256.99999999999989
 30
0.0
 11
-653.55700490733125
 21
-48.999999999999943
 31
0.0
  0
CIRCLE
  8
SIZE
  6
CONTINUOUS
 62
    30
 10
-653.55700490733125
 20
-256.99999999999989
 30
0.0
 40
6.0
  0
CIRCLE
  8
SIZE
  6
CONTINUOUS
 62
    30
 10
-653.55700490733125
 20
-48.999999999999943
 30
0.0
 40
6.0
  0
TEXT
  8
SIZE
  6
CONTINUOUS
 62
    30
 10
-673.55700490733125
 20
-273.68652022135149
 30
0.0
 40
64.0
  1
φ208
 50
90.0
 41
0.9
 72
     1
 11
-673.55700490733125
 21
-159.30937736420859
 31
0.0
  0
POINT
  8
DEFPOINTS
  6
CONTINUOUS
 62
    30
 10
-653.55700490733125
 20
-48.999999999999943
 30
0.0
 50
270.0
  0
LINE
  8
SIZE
  6
CONTINUOUS
 62
    30
 10
-342.5
 20
-249.0
 30
0.0
 11
-551.70465090733137
 21
-249.0
 31
0.0
  0
LINE
  8
SIZE
  6
CONTINUOUS
 62
    30
 10
-342.5
 20
-57.0
 30
0.0
 11
-551.70465090733137
 21
-57.0
 31
0.0
  0
LINE
  8
SIZE
  6
CONTINUOUS
 62
    30
 10
-531.70465090733137
 20
-261.0
 30
0.0
 11
-531.70465090733137
 21
-273.0
 31
0.0
  0
LINE
  8
SIZE
  6
CONTINUOUS
 62
    30
 10
-531.70465090733137
 20
-45.0
 30
0.0
 11
-531.70465090733126
 21
244.82197917746089
 31
0.0
  0
LINE
  8
SIZE
  6
CONTINUOUS
 62
    30
 10
-531.70465090733137
 20
-249.0
 30
0.0
 11
-531.70465090733137
 21
-57.0
 31
0.0
  0
CIRCLE
  8
SIZE
  6
CONTINUOUS
 62
    30
 10
-531.70465090733137
 20
-249.0
 30
0.0
 40
6.0
  0
LINE
  8
SIZE
  6
CONTINUOUS
 62
    30
 10
-531.70465090733137
 20
-249.0
 30
0.0
 11
-531.70465090733137
 21
-261.0
 31
0.0
  0
CIRCLE
  8
SIZE
  6
CONTINUOUS
 62
    30
 10
-531.70465090733137
 20
-57.0
 30
0.0
 40
6.0
  0
LINE
  8
SIZE
  6
CONTINUOUS
 62
    30
 10
-531.70465090733137
 20
-57.0
 30
0.0
 11
-531.70465090733137
 21
-45.0
 31
0.0
  0
TEXT
  8
SIZE
  6
CONTINUOUS
 62
    30
 10
-551.70465090733137
 20
-3.3627339456870828
 30
0.0
 40
64.0
  1
φ192
 50
90.0
 41
0.9
 72
     1
 11
-551.70465090733137
 21
105.52869462574149
 31
0.0
  0
POINT
  8
DEFPOINTS
  6
CONTINUOUS
 62
    30
 10
-531.70465090733137
 20
-57.0
 30
0.0
 50
270.0
  0
LINE
  8
SIZE
  6
CONTINUOUS
 62
    30
 10
259.5
 20
-355.78194327160003
 30
0.0
 11
259.5
 21
-777.31693560776614
 31
0.0
  0
LINE
  8
SIZE
  6
CONTINUOUS
 62
    30
 10
-259.50000000000011
 20
-355.81378950070581
 30
0.0
 11
-259.50000000000011
 21
-777.31693560776614
 31
0.0
  0
LINE
  8
SIZE
  6
CONTINUOUS
 62
    30
 10
247.5
 20
-757.31693560776614
 30
0.0
 11
-247.50000000000011
 21
-757.31693560776614
 31
0.0
  0
CIRCLE
  8
SIZE
  6
CONTINUOUS
 62
    30
 10
259.5
 20
-757.31693560776614
 30
0.0
 40
6.0
  0
LINE
  8
SIZE
  6
CONTINUOUS
 62
    30
 10
259.5
 20
-757.31693560776614
 30
0.0
 11
247.5
 21
-757.31693560776614
 31
0.0
  0
CIRCLE
  8
SIZE
  6
CONTINUOUS
 62
    30
 10
-259.50000000000011
 20
-757.31693560776614
 30
0.0
 40
6.0
  0
LINE
  8
SIZE
  6
CONTINUOUS
 62
    30
 10
-259.50000000000011
 20
-757.31693560776614
 30
0.0
 11
-247.50000000000011
 21
-757.31693560776614
 31
0.0
  0
TEXT
  8
SIZE
  6
CONTINUOUS
 62
    30
 10
-69.700000000000159
 20
-732.31693560776614
 30
0.0
 40
64.0
  1
519
 41
0.9
 72
     1
 11
-2.500000000000171
 21
-732.31693560776614
 31
0.0
  0
POINT
  8
DEFPOINTS
  6
CONTINUOUS
 62
    30
 10
259.5
 20
-335.78194327160008
 30
0.0
  0
POINT
  8
DEFPOINTS
  6
CONTINUOUS
 62
    30
 10
-259.50000000000011
 20
-335.81378950070581
 30
0.0
  0
POINT
  8
DEFPOINTS
  6
CONTINUOUS
 62
    30
 10
-259.50000000000011
 20
-757.31693560776614
 30
0.0
  0
LINE
  8
SIZE
  6
CONTINUOUS
 62
    30
 10
246.5
 20
-207.0
 30
0.0
 11
246.5
 21
-660.02577798561879
 31
0.0
  0
LINE
  8
SIZE
  6
CONTINUOUS
 62
    30
 10
-246.5
 20
-207.0
 30
0.0
 11
-246.5
 21
-660.02577798561879
 31
0.0
  0
LINE
  8
SIZE
  6
CONTINUOUS
 62
    30
 10
234.5
 20
-640.02577798561879
 30
0.0
 11
-234.5
 21
-640.02577798561879
 31
0.0
  0
CIRCLE
  8
SIZE
  6
CONTINUOUS
 62
    30
 10
246.5
 20
-640.02577798561879
 30
0.0
 40
6.0
  0
LINE
  8
SIZE
  6
CONTINUOUS
 62
    30
 10
246.5
 20
-640.02577798561879
 30
0.0
 11
234.5
 21
-640.02577798561879
 31
0.0
  0
CIRCLE
  8
SIZE
  6
CONTINUOUS
 62
    30
 10
-246.5
 20
-640.02577798561879
 30
0.0
 40
6.0
  0
LINE
  8
SIZE
  6
CONTINUOUS
 62
    30
 10
-246.5
 20
-640.02577798561879
 30
0.0
 11
-234.5
 21
-640.02577798561879
 31
0.0
  0
TEXT
  8
SIZE
  6
CONTINUOUS
 62
    30
 10
-73.55714285714302
 20
-615.02577798561879
 30
0.0
 40
64.0
  1
493
 41
0.9
 72
     1
 11
0.4999999999998295
 21
-615.02577798561879
 31
0.0
  0
POINT
  8
DEFPOINTS
  6
CONTINUOUS
 62
    30
 10
246.5
 20
-187.0
 30
0.0
  0
POINT
  8
DEFPOINTS
  6
CONTINUOUS
 62
    30
 10
-246.5
 20
-187.0
 30
0.0
  0
POINT
  8
DEFPOINTS
  6
CONTINUOUS
 62
    30
 10
-246.5
 20
-640.02577798561879
 30
0.0
  0
LINE
  8
SIZE
  6
CONTINUOUS
 62
    30
 10
226.0
 20
-182.0
 30
0.0
 11
226.0
 21
-535.42743395843161
 31
0.0
  0
LINE
  8
SIZE
  6
CONTINUOUS
 62
    30
 10
-226.0
 20
-182.0
 30
0.0
 11
-226.0
 21
-535.42743395843161
 31
0.0
  0
LINE
  8
SIZE
  6
CONTINUOUS
 62
    30
 10
214.0
 20
-515.42743395843161
 30
0.0
 11
-214.0
 21
-515.42743395843161
 31
0.0
  0
CIRCLE
  8
SIZE
  6
CONTINUOUS
 62
    30
 10
226.0
 20
-515.42743395843161
 30
0.0
 40
6.0
  0
LINE
  8
SIZE
  6
CONTINUOUS
 62
    30
 10
226.0
 20
-515.42743395843161
 30
0.0
 11
214.0
 21
-515.42743395843161
 31
0.0
  0
CIRCLE
  8
SIZE
  6
CONTINUOUS
 62
    30
 10
-226.0
 20
-515.42743395843161
 30
0.0
 40
6.0
  0
LINE
  8
SIZE
  6
CONTINUOUS
 62
    30
 10
-226.0
 20
-515.42743395843161
 30
0.0
 11
-214.0
 21
-515.42743395843161
 31
0.0
  0
TEXT
  8
SIZE
  6
CONTINUOUS
 62
    30
 10
-74.057142857142836
 20
-490.42743395843161
 30
0.0
 40
64.0
  1
452
 41
0.9
 72
     1
 11
0.0
 21
-490.42743395843161
 31
0.0
  0
POINT
  8
DEFPOINTS
  6
CONTINUOUS
 62
    30
 10
226.0
 20
-162.0
 30
0.0
  0
POINT
  8
DEFPOINTS
  6
CONTINUOUS
 62
    30
 10
-226.0
 20
-162.0
 30
0.0
  0
POINT
  8
DEFPOINTS
  6
CONTINUOUS
 62
    30
 10
-226.0
 20
-515.42743395843161
 30
0.0
  0
LINE
  8
SIZE
  6
CONTINUOUS
 62
    30
 10
330.0
 20
-37.0
 30
0.0
 11
330.0
 21
169.3823780041636
 31
0.0
  0
LINE
  8
SIZE
  6
CONTINUOUS
 62
    30
 10
245.5
 20
19.99999999999994
 30
0.0
 11
245.5
 21
169.3823780041636
 31
0.0
  0
LINE
  8
SIZE
  6
CONTINUOUS
 62
    30
 10
342.0
 20
149.3823780041636
 30
0.0
 11
354.0
 21
149.3823780041636
 31
0.0
  0
LINE
  8
SIZE
  6
CONTINUOUS
 62
    30
 10
233.5
 20
149.3823780041636
 30
0.0
 11
221.5
 21
149.3823780041636
 31
0.0
  0
LINE
  8
SIZE
  6
CONTINUOUS
 62
    30
 10
330.0
 20
149.3823780041636
 30
0.0
 11
245.5
 21
149.3823780041636
 31
0.0
  0
CIRCLE
  8
SIZE
  6
CONTINUOUS
 62
    30
 10
330.0
 20
149.3823780041636
 30
0.0
 40
6.0
  0
LINE
  8
SIZE
  6
CONTINUOUS
 62
    30
 10
330.0
 20
149.3823780041636
 30
0.0
 11
342.0
 21
149.3823780041636
 31
0.0
  0
CIRCLE
  8
SIZE
  6
CONTINUOUS
 62
    30
 10
245.5
 20
149.3823780041636
 30
0.0
 40
6.0
  0
LINE
  8
SIZE
  6
CONTINUOUS
 62
    30
 10
245.5
 20
149.3823780041636
 30
0.0
 11
233.5
 21
149.3823780041636
 31
0.0
  0
TEXT
  8
SIZE
  6
CONTINUOUS
 62
    30
 10
241.12142857142859
 20
174.38237800416351
 30
0.0
 40
64.0
  1
85
 41
0.9
 72
     1
 11
287.75
 21
174.38237800416351
 31
0.0
  0
POINT
  8
DEFPOINTS
  6
CONTINUOUS
 62
    30
 10
330.0
 20
-57.0
 30
0.0
  0
POINT
  8
DEFPOINTS
  6
CONTINUOUS
 62
    30
 10
245.5
 20
149.3823780041636
 30
0.0
  0
LINE
  8
SIZE
  6
CONTINUOUS
 62
    30
 10
245.5
 20
19.99999999999994
 30
0.0
 11
245.5
 21
169.3823780041636
 31
0.0
  0
LINE
  8
SIZE
  6
CONTINUOUS
 62
    30
 10
-244.5
 20
20.00000000000006
 30
0.0
 11
-244.5
 21
169.3823780041636
 31
0.0
  0
LINE
  8
SIZE
  6
CONTINUOUS
 62
    30
 10
233.5
 20
149.3823780041636
 30
0.0
 11
-232.5
 21
149.3823780041636
 31
0.0
  0
CIRCLE
  8
SIZE
  6
CONTINUOUS
 62
    30
 10
245.5
 20
149.3823780041636
 30
0.0
 40
6.0
  0
LINE
  8
SIZE
  6
CONTINUOUS
 62
    30
 10
245.5
 20
149.3823780041636
 30
0.0
 11
233.5
 21
149.3823780041636
 31
0.0
  0
CIRCLE
  8
SIZE
  6
CONTINUOUS
 62
    30
 10
-244.5
 20
149.3823780041636
 30
0.0
 40
6.0
  0
LINE
  8
SIZE
  6
CONTINUOUS
 62
    30
 10
-244.5
 20
149.3823780041636
 30
0.0
 11
-232.5
 21
149.3823780041636
 31
0.0
  0
TEXT
  8
SIZE
  6
CONTINUOUS
 62
    30
 10
-65.057142857142736
 20
174.38237800416351
 30
0.0
 40
64.0
  1
490
 41
0.9
 72
     1
 11
9.0000000000001137
 21
174.38237800416351
 31
0.0
  0
POINT
  8
DEFPOINTS
  6
CONTINUOUS
 62
    30
 10
245.5
 20
-0.0000000000000568
 30
0.0
  0
POINT
  8
DEFPOINTS
  6
CONTINUOUS
 62
    30
 10
-244.5
 20
149.3823780041636
 30
0.0
  0
LINE
  8
SIZE
  6
CONTINUOUS
 62
    30
 10
-244.5
 20
20.0
 30
0.0
 11
-244.5
 21
169.38237800416391
 31
0.0
  0
LINE
  8
SIZE
  6
CONTINUOUS
 62
    30
 10
-329.5
 20
-37.0
 30
0.0
 11
-329.5
 21
169.38237800416391
 31
0.0
  0
LINE
  8
SIZE
  6
CONTINUOUS
 62
    30
 10
-232.5
 20
149.38237800416391
 30
0.0
 11
-220.5
 21
149.38237800416391
 31
0.0
  0
LINE
  8
SIZE
  6
CONTINUOUS
 62
    30
 10
-341.5
 20
149.38237800416391
 30
0.0
 11
-353.5
 21
149.38237800416391
 31
0.0
  0
LINE
  8
SIZE
  6
CONTINUOUS
 62
    30
 10
-244.5
 20
149.38237800416391
 30
0.0
 11
-329.5
 21
149.38237800416391
 31
0.0
  0
CIRCLE
  8
SIZE
  6
CONTINUOUS
 62
    30
 10
-244.5
 20
149.38237800416391
 30
0.0
 40
6.0
  0
LINE
  8
SIZE
  6
CONTINUOUS
 62
    30
 10
-244.5
 20
149.38237800416391
 30
0.0
 11
-232.5
 21
149.38237800416391
 31
0.0
  0
CIRCLE
  8
SIZE
  6
CONTINUOUS
 62
    30
 10
-329.5
 20
149.38237800416391
 30
0.0
 40
6.0
  0
LINE
  8
SIZE
  6
CONTINUOUS
 62
    30
 10
-329.5
 20
149.38237800416391
 30
0.0
 11
-341.5
 21
149.38237800416391
 31
0.0
  0
TEXT
  8
SIZE
  6
CONTINUOUS
 62
    30
 10
-333.62857142857138
 20
174.38237800416391
 30
0.0
 40
64.0
  1
85
 41
0.9
 72
     1
 11
-287.0
 21
174.38237800416391
 31
0.0
  0
POINT
  8
DEFPOINTS
  6
CONTINUOUS
 62
    30
 10
-244.5
 20
0.0
 30
0.0
  0
POINT
  8
DEFPOINTS
  6
CONTINUOUS
 62
    30
 10
-329.5
 20
-57.0
 30
0.0
  0
POINT
  8
DEFPOINTS
  6
CONTINUOUS
 62
    30
 10
-329.5
 20
149.38237800416391
 30
0.0
  0
LINE
  8
BASIS
  6
DASHDOT
 62
     6
 10
-360.53570799999989
 20
-153.0
 30
0.0
 11
358.26992399999978
 21
-153.0
 31
0.0
  0
LINE
  8
BASIS
  6
DASHDOT
 62
     6
 10
0.0
 20
92.03237249891572
 30
0.0
 11
0.0
 21
-379.75599298881713
 31
0.0
  0
LINE
  8
DETAIL
  6
CONTINUOUS
 62
     5
 10
-246.0
 20
0.0
 30
0.0
 11
244.5
 21
0.0
 31
0.0
  0
LINE
  8
DETAIL
  6
CONTINUOUS
 62
     5
 10
244.5
 20
0.0
 30
0.0
 11
244.5
 21
-142.0
 31
0.0
  0
LINE
  8
DETAIL
  6
CONTINUOUS
 62
     5
 10
-245.5
 20
0.0
 30
0.0
 11
-245.5
 21
-142.0
 31
0.0
  0
LINE
  8
NOTE
  6
CONTINUOUS
 62
     4
 10
0.0
 20
-342.00891461100048
 30
0.0
 11
0.0
 21
-382.00891461100048
 31
0.0
  0
LINE
  8
NOTE
  6
CONTINUOUS
 62
     4
 10
-20.0
 20
-362.00891461100048
 30
0.0
 11
20.0
 21
-362.00891461100048
 31
0.0
  0
LINE
  8
DETAIL
  6
CONTINUOUS
 62
     5
 10
-184.0
 20
0.0
 30
0.0
 11
-184.0
 21
-305.0
 31
0.0
  0
LINE
  8
DETAIL
  6
CONTINUOUS
 62
     5
 10
-246.5
 20
-142.0
 30
0.0
 11
-205.5
 21
-142.0
 31
0.0
  0
LINE
  8
DETAIL
  6
CONTINUOUS
 62
     5
 10
-246.0
 20
-162.98560900000001
 30
0.0
 11
-205.5
 21
-162.98560900000001
 31
0.0
  0
LINE
  8
DETAIL
  6
CONTINUOUS
 62
     5
 10
-246.5
 20
-187.0
 30
0.0
 11
-245.5
 21
-187.0
 31
0.0
  0
LINE
  8
DETAIL
  6
CONTINUOUS
 62
     5
 10
-246.5
 20
-142.0
 30
0.0
 11
-246.5
 21
-187.0
 31
0.0
  0
LINE
  8
DETAIL
  6
CONTINUOUS
 62
     5
 10
-205.5
 20
-142.0
 30
0.0
 11
-205.5
 21
-162.98560900000001
 31
0.0
  0
CIRCLE
  8
FIX
  6
CONTINUOUS
 62
    11
 10
-226.0
 20
-142.0
 30
0.0
 40
5.5
  0
LINE
  8
NOTE
  6
CONTINUOUS
 62
     4
 10
-226.0
 20
-162.0
 30
0.0
 11
-226.0
 21
-122.0
 31
0.0
  0
LINE
  8
NOTE
  6
CONTINUOUS
 62
     4
 10
-246.0
 20
-142.0
 30
0.0
 11
-206.0
 21
-142.0
 31
0.0
  0
LINE
  8
DETAIL
  6
CONTINUOUS
 62
     5
 10
245.5
 20
-162.98560900000001
 30
0.0
 11
205.5
 21
-162.98560900000001
 31
0.0
  0
LINE
  8
DETAIL
  6
CONTINUOUS
 62
     5
 10
205.5
 20
-142.0
 30
0.0
 11
205.5
 21
-162.98560900000001
 31
0.0
  0
LINE
  8
DETAIL
  6
CONTINUOUS
 62
     5
 10
246.5
 20
-142.0
 30
0.0
 11
246.5
 21
-187.0
 31
0.0
  0
LINE
  8
DETAIL
  6
CONTINUOUS
 62
     5
 10
246.5
 20
-187.0
 30
0.0
 11
245.5
 21
-187.0
 31
0.0
  0
LINE
  8
DETAIL
  6
CONTINUOUS
 62
     5
 10
246.5
 20
-142.0
 30
0.0
 11
205.5
 21
-142.0
 31
0.0
  0
LINE
  8
NOTE
  6
CONTINUOUS
 62
     4
 10
226.0
 20
-162.0
 30
0.0
 11
226.0
 21
-122.0
 31
0.0
  0
LINE
  8
NOTE
  6
CONTINUOUS
 62
     4
 10
246.0
 20
-142.0
 30
0.0
 11
206.0
 21
-142.0
 31
0.0
  0
CIRCLE
  8
FIX
  6
CONTINUOUS
 62
    11
 10
226.0
 20
-142.0
 30
0.0
 40
5.5
  0
LINE
  8
OUTLINE
  6
CONTINUOUS
 62
     3
 10
-246.0
 20
0.0
 30
0.0
 11
244.5
 21
0.0
 31
0.0
  0
LINE
  8
DETAIL
  6
CONTINUOUS
 62
     5
 10
-245.5
 20
-162.98560900000001
 30
0.0
 11
-245.5
 21
-305.0
 31
0.0
  0
LINE
  8
DETAIL
  6
CONTINUOUS
 62
     5
 10
244.5
 20
-162.98560900000001
 30
0.0
 11
244.5
 21
-305.0
 31
0.0
  0
POINT
  8
DEFPOINTS
  6
CONTINUOUS
 62
    30
 10
-256.0
 20
-305.0
 30
0.0
 50
180.0
  0
POINT
  8
DEFPOINTS
  6
CONTINUOUS
 62
    30
 10
-246.5
 20
-142.0
 30
0.0
 50
180.0
  0
POINT
  8
DEFPOINTS
  6
CONTINUOUS
 62
    30
 10
246.5
 20
-142.0
 30
0.0
 50
180.0
  0
POINT
  8
DEFPOINTS
  6
CONTINUOUS
 62
    30
 10
255.5
 20
-305.0
 30
0.0
 50
180.0
  0
POINT
  8
DEFPOINTS
  6
CONTINUOUS
 62
    30
 10
358.26992399999978
 20
-153.0
 30
0.0
 50
180.0
  0
POINT
  8
DEFPOINTS
  6
CONTINUOUS
 62
    30
 10
246.5
 20
-142.0
 30
0.0
 50
180.0
  0
POINT
  8
DEFPOINTS
  6
CONTINUOUS
 62
    30
 10
226.0
 20
-148.0
 30
0.0
 50
180.0
  0
POINT
  8
DEFPOINTS
  6
CONTINUOUS
 62
    30
 10
-226.0
 20
-148.0
 30
0.0
 50
180.0
  0
POINT
  8
DEFPOINTS
  6
CONTINUOUS
 62
    30
 10
205.5
 20
-142.0
 30
0.0
 50
180.0
  0
POINT
  8
DEFPOINTS
  6
CONTINUOUS
 62
    30
 10
-205.5
 20
-142.0
 30
0.0
 50
180.0
  0
POINT
  8
ARRANGE
  6
CONTINUOUS
 62
     1
 10
0.0
 20
0.0
 30
0.0
  0
LINE
  8
DETAIL
  6
CONTINUOUS
 62
     5
 10
-322.0
 20
-249.76190500000001
 30
0.0
 11
-322.0
 21
-56.238095000000037
 31
0.0
  0
LINE
  8
DETAIL
  6
CONTINUOUS
 62
     5
 10
-330.0
 20
-249.0
 30
0.0
 11
-330.0
 21
-57.0
 31
0.0
  0
LINE
  8
DETAIL
  6
CONTINUOUS
 62
     5
 10
-246.0
 20
-257.0
 30
0.0
 11
-330.0
 21
-249.0
 31
0.0
  0
LINE
  8
DETAIL
  6
CONTINUOUS
 62
     5
 10
-246.0
 20
-49.0
 30
0.0
 11
-330.0
 21
-57.0
 31
0.0
  0
LINE
  8
DETAIL
  6
CONTINUOUS
 62
     5
 10
-250.5
 20
-256.38095199999998
 30
0.0
 11
-250.5
 21
-49.619048000000021
 31
0.0
  0
POINT
  8
DEFPOINTS
  6
CONTINUOUS
 62
    30
 10
-330.0
 20
-57.0
 30
0.0
 50
180.0
  0
POINT
  8
DEFPOINTS
  6
CONTINUOUS
 62
    30
 10
-330.0
 20
-249.0
 30
0.0
 50
180.0
  0
POINT
  8
DEFPOINTS
  6
CONTINUOUS
 62
    30
 10
-246.0
 20
-257.0
 30
0.0
 50
180.0
  0
POINT
  8
DEFPOINTS
  6
CONTINUOUS
 62
    30
 10
-246.0
 20
-49.0
 30
0.0
 50
180.0
  0
POINT
  8
DEFPOINTS
  6
CONTINUOUS
 62
    30
 10
-246.0
 20
0.0
 30
0.0
 50
180.0
  0
POINT
  8
DEFPOINTS
  6
CONTINUOUS
 62
    30
 10
-330.0
 20
-57.0
 30
0.0
 50
180.0
  0
LINE
  8
DETAIL
  6
CONTINUOUS
 62
     5
 10
329.5
 20
-249.0
 30
0.0
 11
329.5
 21
-57.0
 31
0.0
  0
LINE
  8
DETAIL
  6
CONTINUOUS
 62
     5
 10
321.5
 20
-249.76190500000001
 30
0.0
 11
321.5
 21
-56.238095000000037
 31
0.0
  0
LINE
  8
DETAIL
  6
CONTINUOUS
 62
     5
 10
244.5
 20
-49.0
 30
0.0
 11
329.5
 21
-57.0
 31
0.0
  0
LINE
  8
DETAIL
  6
CONTINUOUS
 62
     5
 10
244.5
 20
-257.0
 30
0.0
 11
329.5
 21
-249.0
 31
0.0
  0
LINE
  8
DETAIL
  6
CONTINUOUS
 62
     5
 10
250.5
 20
-256.38095199999998
 30
0.0
 11
250.5
 21
-49.619048000000021
 31
0.0
  0
POINT
  8
DEFPOINTS
  6
CONTINUOUS
 62
    30
 10
244.5
 20
0.0
 30
0.0
 50
180.0
  0
POINT
  8
DEFPOINTS
  6
CONTINUOUS
 62
    30
 10
329.5
 20
-57.0
 30
0.0
 50
180.0
  0
LINE
  8
OUTLINE
  6
CONTINUOUS
 62
     3
 10
244.5
 20
0.0
 30
0.0
 11
244.5
 21
-305.0
 31
0.0
  0
LINE
  8
OUTLINE
  6
CONTINUOUS
 62
     3
 10
-245.5
 20
0.0
 30
0.0
 11
-245.5
 21
-305.0
 31
0.0
  0
LINE
  8
SIZE
  6
CONTINUOUS
 62
    30
 10
-379.65281600000009
 20
-0.0000000000000568
 30
0.0
 11
-433.55442262241201
 21
-0.0000000000000568
 31
0.0
  0
LINE
  8
SIZE
  6
CONTINUOUS
 62
    30
 10
-380.535708
 20
-153.00000000000011
 30
0.0
 11
-433.55442262241201
 21
-153.00000000000011
 31
0.0
  0
LINE
  8
SIZE
  6
CONTINUOUS
 62
    30
 10
-413.55442262241201
 20
-141.00000000000011
 30
0.0
 11
-413.55442262241201
 21
-12.00000000000006
 31
0.0
  0
LINE
  8
SIZE
  6
CONTINUOUS
 62
    30
 10
-413.55442262241201
 20
-0.0000000000000568
 30
0.0
 11
-413.55442262241201
 21
199.14285714285711
 31
0.0
  0
CIRCLE
  8
SIZE
  6
CONTINUOUS
 62
    30
 10
-413.55442262241201
 20
-153.00000000000011
 30
0.0
 40
6.0
  0
LINE
  8
SIZE
  6
CONTINUOUS
 62
    30
 10
-413.55442262241201
 20
-153.00000000000011
 30
0.0
 11
-413.55442262241201
 21
-141.00000000000011
 31
0.0
  0
CIRCLE
  8
SIZE
  6
CONTINUOUS
 62
    30
 10
-413.55442262241201
 20
-0.0000000000000568
 30
0.0
 40
6.0
  0
LINE
  8
SIZE
  6
CONTINUOUS
 62
    30
 10
-413.55442262241201
 20
-0.0000000000000568
 30
0.0
 11
-413.55442262241201
 21
-12.00000000000006
 31
0.0
  0
TEXT
  8
SIZE
  6
CONTINUOUS
 62
    30
 10
-438.55442262241189
 20
37.0
 30
0.0
 40
64.0
  1
153
 50
90.0
 41
0.9
 72
     1
 11
-438.55442262241189
 21
105.5714285714286
 31
0.0
  0
POINT
  8
DEFPOINTS
  6
CONTINUOUS
 62
    30
 10
-359.65281600000009
 20
-0.0000000000000568
 30
0.0
  0
POINT
  8
DEFPOINTS
  6
CONTINUOUS
 62
    30
 10
-360.535708
 20
-153.00000000000011
 30
0.0
  0
POINT
  8
DEFPOINTS
  6
CONTINUOUS
 62
    30
 10
-413.55442262241201
 20
-153.00000000000011
 30
0.0
  0
LINE
  8
DETAIL
  6
CONTINUOUS
 62
     5
 10
258.8334813847996
 20
-336.0316989718001
 30
0.0
 11
258.80000005379952
 21
-336.13155969719992
 31
0.0
  0
LINE
  8
DETAIL
  6
CONTINUOUS
 62
     5
 10
258.80000005379952
 20
-336.13155969719992
 30
0.0
 11
258.7665187119992
 21
-336.22868641700012
 31
0.0
  0
LINE
  8
DETAIL
  6
CONTINUOUS
 62
     5
 10
258.7665187119992
 20
-336.22868641700012
 30
0.0
 11
258.73323161159988
 21
-336.3218237051999
 31
0.0
  0
LINE
  8
DETAIL
  6
CONTINUOUS
 62
     5
 10
258.73323161159988
 20
-336.3218237051999
 30
0.0
 11
258.70000001119928
 21
-336.41071346500007
 31
0.0
  0
LINE
  8
DETAIL
  6
CONTINUOUS
 62
     5
 10
258.70000001119928
 20
-336.41071346500007
 30
0.0
 11
258.66676842179908
 21
-336.49486191919999
 31
0.0
  0
LINE
  8
DETAIL
  6
CONTINUOUS
 62
     5
 10
258.66676842179908
 20
-336.49486191919999
 30
0.0
 11
258.63348133659929
 21
-336.57377855700003
 31
0.0
  0
LINE
  8
DETAIL
  6
CONTINUOUS
 62
     5
 10
258.63348133659929
 20
-336.57377855700003
 30
0.0
 11
258.60000000359918
 21
-336.64714504739999
 31
0.0
  0
LINE
  8
DETAIL
  6
CONTINUOUS
 62
     5
 10
258.60000000359918
 20
-336.64714504739999
 30
0.0
 11
258.56651866840002
 21
-336.71393818999991
 31
0.0
  0
LINE
  8
DETAIL
  6
CONTINUOUS
 62
     5
 10
258.56651866840002
 20
-336.71393818999991
 30
0.0
 11
258.53323157519941
 21
-336.77333539779988
 31
0.0
  0
LINE
  8
DETAIL
  6
CONTINUOUS
 62
     5
 10
258.53323157519941
 20
-336.77333539779988
 30
0.0
 11
258.49999997659961
 21
-336.82522620240002
 31
0.0
  0
LINE
  8
DETAIL
  6
CONTINUOUS
 62
     5
 10
258.49999997659961
 20
-336.82522620240002
 30
0.0
 11
258.46676836959978
 21
-336.86933491819991
 31
0.0
  0
LINE
  8
DETAIL
  6
CONTINUOUS
 62
     5
 10
258.46676836959978
 20
-336.86933491819991
 30
0.0
 11
258.43348126439918
 21
-336.90539114400008
 31
0.0
  0
LINE
  8
DETAIL
  6
CONTINUOUS
 62
     5
 10
258.89999999999958
 20
-335.82813667720012
 30
0.0
 11
258.8334813847996
 21
-336.0316989718001
 31
0.0
  0
LINE
  8
DETAIL
  6
CONTINUOUS
 62
     5
 10
259.49972937579969
 20
-335.80743168560002
 30
0.0
 11
259.49313857419929
 21
-335.90907418219979
 31
0.0
  0
LINE
  8
DETAIL
  6
CONTINUOUS
 62
     5
 10
259.49313857419929
 20
-335.90907418219979
 30
0.0
 11
259.47771357339928
 21
-336.01011089640002
 31
0.0
  0
LINE
  8
DETAIL
  6
CONTINUOUS
 62
     5
 10
259.47771357339928
 20
-336.01011089640002
 30
0.0
 11
259.45343299880011
 21
-336.10993807680012
 31
0.0
  0
LINE
  8
DETAIL
  6
CONTINUOUS
 62
     5
 10
259.45343299880011
 20
-336.10993807680012
 30
0.0
 11
259.42053346159992
 21
-336.20729263499987
 31
0.0
  0
LINE
  8
DETAIL
  6
CONTINUOUS
 62
     5
 10
259.42053346159992
 20
-336.20729263499987
 30
0.0
 11
259.37952476939972
 21
-336.30090226200002
 31
0.0
  0
LINE
  8
DETAIL
  6
CONTINUOUS
 62
     5
 10
259.37952476939972
 20
-336.30090226200002
 30
0.0
 11
259.33063141839921
 21
-336.39049651879998
 31
0.0
  0
LINE
  8
DETAIL
  6
CONTINUOUS
 62
     5
 10
259.33063141839921
 20
-336.39049651879998
 30
0.0
 11
259.27415155160003
 21
-336.47556818980001
 31
0.0
  0
LINE
  8
DETAIL
  6
CONTINUOUS
 62
     5
 10
259.27415155160003
 20
-336.47556818980001
 30
0.0
 11
259.21038847499949
 21
-336.55561318519989
 31
0.0
  0
LINE
  8
DETAIL
  6
CONTINUOUS
 62
     5
 10
259.21038847499949
 20
-336.55561318519989
 30
0.0
 11
259.13946994439988
 21
-336.63030340499989
 31
0.0
  0
LINE
  8
DETAIL
  6
CONTINUOUS
 62
     5
 10
259.13946994439988
 20
-336.63030340499989
 30
0.0
 11
259.06227853179922
 21
-336.69858882900007
 31
0.0
  0
LINE
  8
DETAIL
  6
CONTINUOUS
 62
     5
 10
259.06227853179922
 20
-336.69858882900007
 30
0.0
 11
258.97988891399928
 21
-336.75961558519998
 31
0.0
  0
LINE
  8
DETAIL
  6
CONTINUOUS
 62
     5
 10
258.97988891399928
 20
-336.75961558519998
 30
0.0
 11
258.89262789939949
 21
-336.81325880059978
 31
0.0
  0
LINE
  8
DETAIL
  6
CONTINUOUS
 62
     5
 10
258.89262789939949
 20
-336.81325880059978
 30
0.0
 11
258.80100449299971
 21
-336.85922440500008
 31
0.0
  0
LINE
  8
DETAIL
  6
CONTINUOUS
 62
     5
 10
258.80100449299971
 20
-336.85922440500008
 30
0.0
 11
258.7055307239998
 21
-336.89722355260011
 31
0.0
  0
LINE
  8
DETAIL
  6
CONTINUOUS
 62
     5
 10
258.7055307239998
 20
-336.89722355260011
 30
0.0
 11
258.60647779999999
 21
-336.92703347239978
 31
0.0
  0
LINE
  8
DETAIL
  6
CONTINUOUS
 62
     5
 10
258.60647779999999
 20
-336.92703347239978
 30
0.0
 11
258.50513478919947
 21
-336.94817754780001
 31
0.0
  0
LINE
  8
DETAIL
  6
CONTINUOUS
 62
     5
 10
258.50513478919947
 20
-336.94817754780001
 30
0.0
 11
258.40277492339919
 21
-336.96045114100002
 31
0.0
  0
LINE
  8
DETAIL
  6
CONTINUOUS
 62
     5
 10
258.43348126439918
 20
-336.90539114400008
 30
0.0
 11
258.39999991819968
 21
-336.93318553800009
 31
0.0
  0
LINE
  8
DETAIL
  6
CONTINUOUS
 62
     5
 10
258.39999991819968
 20
-336.93318553800009
 30
0.0
 11
258.3665185873997
 21
-336.95227657100008
 31
0.0
  0
LINE
  8
DETAIL
  6
CONTINUOUS
 62
     5
 10
258.3665185873997
 20
-336.95227657100008
 30
0.0
 11
258.33320378259941
 21
-336.9624931802
 31
0.0
  0
LINE
  8
DETAIL
  6
CONTINUOUS
 62
     5
 10
258.8947984724
 20
-335.85950639440011
 30
0.0
 11
258.88244985879919
 21
-335.92344644280001
 31
0.0
  0
LINE
  8
DETAIL
  6
CONTINUOUS
 62
     5
 10
258.88244985879919
 20
-335.92344644280001
 30
0.0
 11
258.86291526519932
 21
-335.9857747044
 31
0.0
  0
LINE
  8
DETAIL
  6
CONTINUOUS
 62
     5
 10
259.5
 20
-335.78194327160008
 30
0.0
 11
259.49972937579969
 21
-335.80743168560002
 31
0.0
  0
LINE
  8
DETAIL
  6
CONTINUOUS
 62
     5
 10
260.09999999999962
 20
-314.0
 30
0.0
 11
260.09999999999962
 21
-309.0
 31
0.0
  0
LINE
  8
DETAIL
  6
CONTINUOUS
 62
     5
 10
260.0
 20
-320.69999999999999
 30
0.0
 11
260.0
 21
-314.0
 31
0.0
  0
LINE
  8
DETAIL
  6
CONTINUOUS
 62
     5
 10
259.5
 20
-335.78194327160008
 30
0.0
 11
259.5
 21
-309.0
 31
0.0
  0
LINE
  8
DETAIL
  6
CONTINUOUS
 62
     5
 10
258.89999999999958
 20
-335.82813667720012
 30
0.0
 11
258.89999999999958
 21
-306.59999999999991
 31
0.0
  0
LINE
  8
DETAIL
  6
CONTINUOUS
 62
     5
 10
-1.538815946600153
 20
-364.75147397380073
 30
0.0
 11
-1.521611659400151
 21
-364.75525182820053
 31
0.0
  0
LINE
  8
DETAIL
  6
CONTINUOUS
 62
     5
 10
-1.521611659400151
 20
-364.75525182820053
 30
0.0
 11
-1.451904946600735
 21
-364.76285527420072
 31
0.0
  0
LINE
  8
DETAIL
  6
CONTINUOUS
 62
     5
 10
-1.451904946600735
 20
-364.76285527420072
 30
0.0
 11
-1.338082836600734
 21
-364.7699894270005
 31
0.0
  0
LINE
  8
DETAIL
  6
CONTINUOUS
 62
     5
 10
-1.338082836600734
 20
-364.7699894270005
 30
0.0
 11
-1.1836037570001281
 21
-364.77643751880072
 31
0.0
  0
LINE
  8
DETAIL
  6
CONTINUOUS
 62
     5
 10
-1.1836037570001281
 20
-364.77643751880072
 30
0.0
 11
-0.9931614758006617
 21
-364.78200362760072
 31
0.0
  0
LINE
  8
DETAIL
  6
CONTINUOUS
 62
     5
 10
-0.9931614758006617
 20
-364.78200362760072
 30
0.0
 11
-0.7725424860000203
 21
-364.78651863020048
 31
0.0
  0
LINE
  8
DETAIL
  6
CONTINUOUS
 62
     5
 10
-0.7725424860000203
 20
-364.78651863020048
 30
0.0
 11
-0.5284501836003983
 21
-364.78984534020049
 31
0.0
  0
LINE
  8
DETAIL
  6
CONTINUOUS
 62
     5
 10
-0.5284501836003983
 20
-364.78984534020049
 30
0.0
 11
-0.2683011898006953
 21
-364.79188267740062
 31
0.0
  0
LINE
  8
DETAIL
  6
CONTINUOUS
 62
     5
 10
-0.2683011898006953
 20
-364.79188267740062
 30
0.0
 11
0.0
 21
-364.79256873840052
 31
0.0
  0
LINE
  8
DETAIL
  6
CONTINUOUS
 62
     5
 10
-9.9731977594001364
 20
-360.45755294340057
 30
0.0
 11
-10.57844311420013
 21
-360.42808896980063
 31
0.0
  0
LINE
  8
DETAIL
  6
CONTINUOUS
 62
     5
 10
-10.57844311420013
 20
-360.42808896980063
 30
0.0
 11
-11.082257124600799
 21
-360.3970256658007
 31
0.0
  0
LINE
  8
DETAIL
  6
CONTINUOUS
 62
     5
 10
-11.082257124600799
 20
-360.3970256658007
 30
0.0
 11
-11.47960021440031
 21
-360.36467033780059
 31
0.0
  0
LINE
  8
DETAIL
  6
CONTINUOUS
 62
     5
 10
-11.47960021440031
 20
-360.36467033780059
 30
0.0
 11
-11.766594250000709
 21
-360.33134320840071
 31
0.0
  0
LINE
  8
DETAIL
  6
CONTINUOUS
 62
     5
 10
-11.766594250000709
 20
-360.33134320840071
 30
0.0
 11
-11.9404388110006
 21
-360.29740616780077
 31
0.0
  0
LINE
  8
DETAIL
  6
CONTINUOUS
 62
     5
 10
-11.9404388110006
 20
-360.29740616780077
 30
0.0
 11
-12.0
 21
-360.26250531440053
 31
0.0
  0
LINE
  8
DETAIL
  6
CONTINUOUS
 62
     5
 10
0.0
 20
-364.99415902920072
 30
0.0
 11
-0.0442179057999965
 21
-364.99396347840059
 31
0.0
  0
LINE
  8
DETAIL
  6
CONTINUOUS
 62
     5
 10
-0.0442179057999965
 20
-364.99396347840059
 30
0.0
 11
-0.0878120114002741
 21
-364.99338787480048
 31
0.0
  0
LINE
  8
DETAIL
  6
CONTINUOUS
 62
     5
 10
-0.0878120114002741
 20
-364.99338787480048
 30
0.0
 11
-0.134523254800115
 21
-364.99234903940078
 31
0.0
  0
LINE
  8
DETAIL
  6
CONTINUOUS
 62
     5
 10
-0.134523254800115
 20
-364.99234903940078
 30
0.0
 11
-0.1854268882007091
 21
-364.99071953300052
 31
0.0
  0
LINE
  8
DETAIL
  6
CONTINUOUS
 62
     5
 10
-0.1854268882007091
 20
-364.99071953300052
 30
0.0
 11
-0.2394181552008376
 21
-364.9884236310005
 31
0.0
  0
LINE
  8
DETAIL
  6
CONTINUOUS
 62
     5
 10
-0.2394181552008376
 20
-364.9884236310005
 30
0.0
 11
-0.2970692178005265
 21
-364.98532621520059
 31
0.0
  0
LINE
  8
DETAIL
  6
CONTINUOUS
 62
     5
 10
-0.2970692178005265
 20
-364.98532621520059
 30
0.0
 11
-0.358390534600403
 21
-364.98129810600051
 31
0.0
  0
LINE
  8
DETAIL
  6
CONTINUOUS
 62
     5
 10
-0.358390534600403
 20
-364.98129810600051
 30
0.0
 11
-0.4230382424002528
 21
-364.97623075140052
 31
0.0
  0
LINE
  8
DETAIL
  6
CONTINUOUS
 62
     5
 10
-0.4230382424002528
 20
-364.97623075140052
 30
0.0
 11
-0.490600701200492
 21
-364.97003190820078
 31
0.0
  0
LINE
  8
DETAIL
  6
CONTINUOUS
 62
     5
 10
-0.490600701200492
 20
-364.97003190820078
 30
0.0
 11
-0.5616651082000317
 21
-364.96251210700058
 31
0.0
  0
LINE
  8
DETAIL
  6
CONTINUOUS
 62
     5
 10
-0.5616651082000317
 20
-364.96251210700058
 30
0.0
 11
-0.636776488599935
 21
-364.95344483400061
 31
0.0
  0
LINE
  8
DETAIL
  6
CONTINUOUS
 62
     5
 10
-0.636776488599935
 20
-364.95344483400061
 30
0.0
 11
-0.7160151366006176
 21
-364.94262569300071
 31
0.0
  0
LINE
  8
DETAIL
  6
CONTINUOUS
 62
     5
 10
-0.7160151366006176
 20
-364.94262569300071
 30
0.0
 11
-0.7997900752006899
 21
-364.92977812240048
 31
0.0
  0
LINE
  8
DETAIL
  6
CONTINUOUS
 62
     5
 10
-0.7997900752006899
 20
-364.92977812240048
 30
0.0
 11
-0.8877594722007416
 21
-364.91471622520072
 31
0.0
  0
LINE
  8
DETAIL
  6
CONTINUOUS
 62
     5
 10
-0.8877594722007416
 20
-364.91471622520072
 30
0.0
 11
-0.9796298690007461
 21
-364.89725247280052
 31
0.0
  0
LINE
  8
DETAIL
  6
CONTINUOUS
 62
     5
 10
-0.9796298690007461
 20
-364.89725247280052
 30
0.0
 11
-1.07566864960063
 21
-364.87708202220063
 31
0.0
  0
LINE
  8
DETAIL
  6
CONTINUOUS
 62
     5
 10
-1.07566864960063
 20
-364.87708202220063
 30
0.0
 11
-1.17375921600069
 21
-364.85443569660049
 31
0.0
  0
LINE
  8
DETAIL
  6
CONTINUOUS
 62
     5
 10
-1.17375921600069
 20
-364.85443569660049
 30
0.0
 11
-1.280712621200109
 21
-364.82735416100053
 31
0.0
  0
LINE
  8
DETAIL
  6
CONTINUOUS
 62
     5
 10
-1.280712621200109
 20
-364.82735416100053
 30
0.0
 11
-1.403305661400736
 21
-364.79319364140048
 31
0.0
  0
LINE
  8
DETAIL
  6
CONTINUOUS
 62
     5
 10
-1.403305661400736
 20
-364.79319364140048
 30
0.0
 11
-1.538815946600153
 21
-364.75147397380073
 31
0.0
  0
LINE
  8
DETAIL
  6
CONTINUOUS
 62
     5
 10
0.0
 20
-362.00891461100048
 30
0.0
 11
-1.0711830600002941
 21
-362.00738029420052
 31
0.0
  0
LINE
  8
DETAIL
  6
CONTINUOUS
 62
     5
 10
-1.0711830600002941
 20
-362.00738029420052
 30
0.0
 11
-2.132171533200562
 21
-362.00279505100059
 31
0.0
  0
LINE
  8
DETAIL
  6
CONTINUOUS
 62
     5
 10
-2.132171533200562
 20
-362.00279505100059
 30
0.0
 11
-3.172059525000805
 21
-361.99520935420048
 31
0.0
  0
LINE
  8
DETAIL
  6
CONTINUOUS
 62
     5
 10
-3.172059525000805
 20
-361.99520935420048
 30
0.0
 11
-4.1831287530003456
 21
-361.98467421520058
 31
0.0
  0
LINE
  8
DETAIL
  6
CONTINUOUS
 62
     5
 10
-4.1831287530003456
 20
-361.98467421520058
 30
0.0
 11
-5.15833322600065
 21
-361.97123224280051
 31
0.0
  0
LINE
  8
DETAIL
  6
CONTINUOUS
 62
     5
 10
-5.15833322600065
 20
-361.97123224280051
 30
0.0
 11
-6.0849153422004747
 21
-361.95503059600048
 31
0.0
  0
LINE
  8
DETAIL
  6
CONTINUOUS
 62
     5
 10
-6.0849153422004747
 20
-361.95503059600048
 30
0.0
 11
-6.9522397458003979
 21
-361.93625009440058
 31
0.0
  0
LINE
  8
DETAIL
  6
CONTINUOUS
 62
     5
 10
-6.9522397458003979
 20
-361.93625009440058
 30
0.0
 11
-7.7511414962000336
 21
-361.91509808820052
 31
0.0
  0
LINE
  8
DETAIL
  6
CONTINUOUS
 62
     5
 10
-7.7511414962000336
 20
-361.91509808820052
 30
0.0
 11
-8.4723865524001667
 21
-361.89185208280048
 31
0.0
  0
LINE
  8
DETAIL
  6
CONTINUOUS
 62
     5
 10
-8.4723865524001667
 20
-361.89185208280048
 30
0.0
 11
-9.1117838526006381
 21
-361.86668148120049
 31
0.0
  0
LINE
  8
DETAIL
  6
CONTINUOUS
 62
     5
 10
-9.1117838526006381
 20
-361.86668148120049
 30
0.0
 11
-9.6647524668005644
 21
-361.83976238360049
 31
0.0
  0
LINE
  8
DETAIL
  6
CONTINUOUS
 62
     5
 10
-9.6647524668005644
 20
-361.83976238360049
 30
0.0
 11
-10.125050635200751
 21
-361.81138210000051
 31
0.0
  0
LINE
  8
DETAIL
  6
CONTINUOUS
 62
     5
 10
-10.125050635200751
 20
-361.81138210000051
 30
0.0
 11
-10.4880740988001
 21
-361.78182138500063
 31
0.0
  0
LINE
  8
DETAIL
  6
CONTINUOUS
 62
     5
 10
-10.4880740988001
 20
-361.78182138500063
 30
0.0
 11
-10.750279666400271
 21
-361.75137280780052
 31
0.0
  0
LINE
  8
DETAIL
  6
CONTINUOUS
 62
     5
 10
-10.750279666400271
 20
-361.75137280780052
 30
0.0
 11
-10.91904211080055
 21
-361.71731672940052
 31
0.0
  0
LINE
  8
DETAIL
  6
CONTINUOUS
 62
     5
 10
0.0
 20
-360.6132326102005
 30
0.0
 11
-1.172450593000576
 21
-360.61155427360052
 31
0.0
  0
LINE
  8
DETAIL
  6
CONTINUOUS
 62
     5
 10
-1.172450593000576
 20
-360.61155427360052
 30
0.0
 11
-2.333742651000648
 21
-360.60653576500061
 31
0.0
  0
LINE
  8
DETAIL
  6
CONTINUOUS
 62
     5
 10
-2.333742651000648
 20
-360.60653576500061
 30
0.0
 11
-3.471940777600139
 21
-360.59823193940048
 31
0.0
  0
LINE
  8
DETAIL
  6
CONTINUOUS
 62
     5
 10
-3.471940777600139
 20
-360.59823193940048
 30
0.0
 11
-4.5785965498007499
 21
-360.58669977700049
 31
0.0
  0
LINE
  8
DETAIL
  6
CONTINUOUS
 62
     5
 10
-4.5785965498007499
 20
-360.58669977700049
 30
0.0
 11
-5.645994989200517
 21
-360.57198732200072
 31
0.0
  0
LINE
  8
DETAIL
  6
CONTINUOUS
 62
     5
 10
-5.645994989200517
 20
-360.57198732200072
 30
0.0
 11
-6.6601735724007094
 21
-360.55425453900079
 31
0.0
  0
LINE
  8
DETAIL
  6
CONTINUOUS
 62
     5
 10
-6.6601735724007094
 20
-360.55425453900079
 30
0.0
 11
-7.6094935368000733
 21
-360.53369852660069
 31
0.0
  0
LINE
  8
DETAIL
  6
CONTINUOUS
 62
     5
 10
-7.6094935368000733
 20
-360.53369852660069
 30
0.0
 11
-8.483922607400018
 21
-360.51054671120062
 31
0.0
  0
LINE
  8
DETAIL
  6
CONTINUOUS
 62
     5
 10
-8.483922607400018
 20
-360.51054671120062
 30
0.0
 11
-9.2733529908000492
 21
-360.48510308760058
 31
0.0
  0
LINE
  8
DETAIL
  6
CONTINUOUS
 62
     5
 10
-9.2733529908000492
 20
-360.48510308760058
 30
0.0
 11
-9.9731977594001364
 21
-360.45755294340057
 31
0.0
  0
LINE
  8
DETAIL
  6
CONTINUOUS
 62
     5
 10
10.585440237999141
 20
-360.42770654920048
 30
0.0
 11
9.9789301923992753
 21
-360.45730232900053
 31
0.0
  0
LINE
  8
DETAIL
  6
CONTINUOUS
 62
     5
 10
9.9789301923992753
 20
-360.45730232900053
 30
0.0
 11
9.2755879641999854
 21
-360.48502354460061
 31
0.0
  0
LINE
  8
DETAIL
  6
CONTINUOUS
 62
     5
 10
9.2755879641999854
 20
-360.48502354460061
 30
0.0
 11
8.4825009605992818
 21
-360.51058826840051
 31
0.0
  0
LINE
  8
DETAIL
  6
CONTINUOUS
 62
     5
 10
8.4825009605992818
 20
-360.51058826840051
 30
0.0
 11
7.6078345763999096
 21
-360.53373829420059
 31
0.0
  0
LINE
  8
DETAIL
  6
CONTINUOUS
 62
     5
 10
7.6078345763999096
 20
-360.53373829420059
 30
0.0
 11
6.6596226749998104
 21
-360.5542652796006
 31
0.0
  0
LINE
  8
DETAIL
  6
CONTINUOUS
 62
     5
 10
6.6596226749998104
 20
-360.5542652796006
 30
0.0
 11
5.645757491999575
 21
-360.57199104700072
 31
0.0
  0
LINE
  8
DETAIL
  6
CONTINUOUS
 62
     5
 10
5.645757491999575
 20
-360.57199104700072
 30
0.0
 11
4.5785599593991719
 21
-360.58670026300058
 31
0.0
  0
LINE
  8
DETAIL
  6
CONTINUOUS
 62
     5
 10
4.5785599593991719
 20
-360.58670026300058
 30
0.0
 11
3.4719590071999851
 21
-360.59823179000063
 31
0.0
  0
LINE
  8
DETAIL
  6
CONTINUOUS
 62
     5
 10
3.4719590071999851
 20
-360.59823179000063
 30
0.0
 11
2.3337425115996671
 21
-360.60653574200057
 31
0.0
  0
LINE
  8
DETAIL
  6
CONTINUOUS
 62
     5
 10
2.3337425115996671
 20
-360.60653574200057
 30
0.0
 11
1.172455411199735
 21
-360.61155423640048
 31
0.0
  0
LINE
  8
DETAIL
  6
CONTINUOUS
 62
     5
 10
1.172455411199735
 20
-360.61155423640048
 30
0.0
 11
0.0
 21
-360.6132326102005
 31
0.0
  0
LINE
  8
DETAIL
  6
CONTINUOUS
 62
     5
 10
10.91904208199958
 20
-361.71731673880072
 30
0.0
 11
10.75542632479937
 21
-361.75061659780062
 31
0.0
  0
LINE
  8
DETAIL
  6
CONTINUOUS
 62
     5
 10
10.75542632479937
 20
-361.75061659780062
 30
0.0
 11
10.49437774439957
 21
-361.78121419140052
 31
0.0
  0
LINE
  8
DETAIL
  6
CONTINUOUS
 62
     5
 10
10.49437774439957
 20
-361.78121419140052
 30
0.0
 11
10.13171296079963
 21
-361.81091220600058
 31
0.0
  0
LINE
  8
DETAIL
  6
CONTINUOUS
 62
     5
 10
10.13171296079963
 20
-361.81091220600058
 30
0.0
 11
9.6711451887995281
 21
-361.83941300400039
 31
0.0
  0
LINE
  8
DETAIL
  6
CONTINUOUS
 62
     5
 10
9.6711451887995281
 20
-361.83941300400039
 30
0.0
 11
9.1170211205999294
 21
-361.86645252360051
 31
0.0
  0
LINE
  8
DETAIL
  6
CONTINUOUS
 62
     5
 10
9.1170211205999294
 20
-361.86645252360051
 30
0.0
 11
8.4744283415993777
 21
-361.89177945140062
 31
0.0
  0
LINE
  8
DETAIL
  6
CONTINUOUS
 62
     5
 10
8.4744283415993777
 20
-361.89177945140062
 30
0.0
 11
7.7498424373998196
 21
-361.91513611920061
 31
0.0
  0
LINE
  8
DETAIL
  6
CONTINUOUS
 62
     5
 10
7.7498424373998196
 20
-361.91513611920061
 30
0.0
 11
6.9507240029997774
 21
-361.93628645140052
 31
0.0
  0
LINE
  8
DETAIL
  6
CONTINUOUS
 62
     5
 10
6.9507240029997774
 20
-361.93628645140052
 30
0.0
 11
6.0844120415995349
 21
-361.95504040280059
 31
0.0
  0
LINE
  8
DETAIL
  6
CONTINUOUS
 62
     5
 10
6.0844120415995349
 20
-361.95504040280059
 30
0.0
 11
5.1581161111998881
 21
-361.97123570760061
 31
0.0
  0
LINE
  8
DETAIL
  6
CONTINUOUS
 62
     5
 10
5.1581161111998881
 20
-361.97123570760061
 30
0.0
 11
4.183095128199966
 21
-361.98467477080061
 31
0.0
  0
LINE
  8
DETAIL
  6
CONTINUOUS
 62
     5
 10
4.183095128199966
 20
-361.98467477080061
 30
0.0
 11
3.1720761573997152
 21
-361.99520923040052
 31
0.0
  0
LINE
  8
DETAIL
  6
CONTINUOUS
 62
     5
 10
3.1720761573997152
 20
-361.99520923040052
 30
0.0
 11
2.132171478599957
 21
-362.00279494060072
 31
0.0
  0
LINE
  8
DETAIL
  6
CONTINUOUS
 62
     5
 10
2.132171478599957
 20
-362.00279494060072
 30
0.0
 11
1.071187495799677
 21
-362.00738017960049
 31
0.0
  0
LINE
  8
DETAIL
  6
CONTINUOUS
 62
     5
 10
1.071187495799677
 20
-362.00738017960049
 30
0.0
 11
0.0
 21
-362.00891461100048
 31
0.0
  0
LINE
  8
DETAIL
  6
CONTINUOUS
 62
     5
 10
1.5388159464000639
 20
-364.75147397380073
 30
0.0
 11
1.521611659399241
 21
-364.75525182820053
 31
0.0
  0
LINE
  8
DETAIL
  6
CONTINUOUS
 62
     5
 10
1.521611659399241
 20
-364.75525182820053
 30
0.0
 11
1.4519049465998251
 21
-364.76285527420072
 31
0.0
  0
LINE
  8
DETAIL
  6
CONTINUOUS
 62
     5
 10
1.4519049465998251
 20
-364.76285527420072
 30
0.0
 11
1.3380828365998241
 21
-364.7699894270005
 31
0.0
  0
LINE
  8
DETAIL
  6
CONTINUOUS
 62
     5
 10
1.3380828365998241
 20
-364.7699894270005
 30
0.0
 11
1.18360375679913
 21
-364.77643751880072
 31
0.0
  0
LINE
  8
DETAIL
  6
CONTINUOUS
 62
     5
 10
1.18360375679913
 20
-364.77643751880072
 30
0.0
 11
0.9931614757997522
 21
-364.78200362760072
 31
0.0
  0
LINE
  8
DETAIL
  6
CONTINUOUS
 62
     5
 10
0.9931614757997522
 20
-364.78200362760072
 30
0.0
 11
0.7725424857999315
 21
-364.78651863020048
 31
0.0
  0
LINE
  8
DETAIL
  6
CONTINUOUS
 62
     5
 10
0.7725424857999315
 20
-364.78651863020048
 30
0.0
 11
0.5284501833994
 21
-364.78984534020049
 31
0.0
  0
LINE
  8
DETAIL
  6
CONTINUOUS
 62
     5
 10
0.5284501833994
 20
-364.78984534020049
 30
0.0
 11
0.268301189599697
 21
-364.79188267740062
 31
0.0
  0
LINE
  8
DETAIL
  6
CONTINUOUS
 62
     5
 10
0.268301189599697
 20
-364.79188267740062
 30
0.0
 11
0.0
 21
-364.79256873840052
 31
0.0
  0
LINE
  8
DETAIL
  6
CONTINUOUS
 62
     5
 10
-258.33320378260032
 20
-336.9624931802
 30
0.0
 11
-258.31133815520008
 21
-336.96439941199992
 31
0.0
  0
LINE
  8
DETAIL
  6
CONTINUOUS
 62
     5
 10
-258.40277492360008
 20
-336.96045114100002
 30
0.0
 11
-258.32792709040041
 21
-336.96295319880011
 31
0.0
  0
LINE
  8
DETAIL
  6
CONTINUOUS
 62
     5
 10
0.0
 20
-341.12452468700059
 30
0.0
 11
-1.0634859726005741
 21
-341.12234966940048
 31
0.0
  0
LINE
  8
DETAIL
  6
CONTINUOUS
 62
     5
 10
-1.0634859726005741
 20
-341.12234966940048
 30
0.0
 11
-2.1167299940007069
 21
-341.11584556320082
 31
0.0
  0
LINE
  8
DETAIL
  6
CONTINUOUS
 62
     5
 10
-2.1167299940007069
 20
-341.11584556320082
 30
0.0
 11
-3.149588748200586
 21
-341.10507500660049
 31
0.0
  0
LINE
  8
DETAIL
  6
CONTINUOUS
 62
     5
 10
-3.149588748200586
 20
-341.10507500660049
 30
0.0
 11
-4.1521152412005904
 21
-341.09014172580072
 31
0.0
  0
LINE
  8
DETAIL
  6
CONTINUOUS
 62
     5
 10
-4.1521152412005904
 20
-341.09014172580072
 30
0.0
 11
-5.1146545946003243
 21
-341.07118953640048
 31
0.0
  0
LINE
  8
DETAIL
  6
CONTINUOUS
 62
     5
 10
-5.1146545946003243
 20
-341.07118953640048
 30
0.0
 11
-6.0279370284006291
 21
-341.04840095860061
 31
0.0
  0
LINE
  8
DETAIL
  6
CONTINUOUS
 62
     5
 10
-6.0279370284006291
 20
-341.04840095860061
 30
0.0
 11
-6.8831671332009137
 21
-341.0219954586006
 31
0.0
  0
LINE
  8
DETAIL
  6
CONTINUOUS
 62
     5
 10
-6.8831671332009137
 20
-341.0219954586006
 30
0.0
 11
-7.6721085760000278
 21
-340.99222733600061
 31
0.0
  0
LINE
  8
DETAIL
  6
CONTINUOUS
 62
     5
 10
-7.6721085760000278
 20
-340.99222733600061
 30
0.0
 11
-8.3871634189999895
 21
-340.95938327400052
 31
0.0
  0
LINE
  8
DETAIL
  6
CONTINUOUS
 62
     5
 10
-8.3871634189999895
 20
-340.95938327400052
 30
0.0
 11
-9.0214452936006637
 21
-340.92377957900061
 31
0.0
  0
LINE
  8
DETAIL
  6
CONTINUOUS
 62
     5
 10
-9.0214452936006637
 20
-340.92377957900061
 30
0.0
 11
-9.568845718200464
 21
-340.88575913380072
 31
0.0
  0
LINE
  8
DETAIL
  6
CONTINUOUS
 62
     5
 10
-9.568845718200464
 20
-340.88575913380072
 30
0.0
 11
-10.02409292780067
 21
-340.84568809620077
 31
0.0
  0
LINE
  8
DETAIL
  6
CONTINUOUS
 62
     5
 10
-10.02409292780067
 20
-340.84568809620077
 30
0.0
 11
-10.382802642800019
 21
-340.80395237220063
 31
0.0
  0
LINE
  8
DETAIL
  6
CONTINUOUS
 62
     5
 10
-10.382802642800019
 20
-340.80395237220063
 30
0.0
 11
-10.641520292399949
 21
-340.76095389960062
 31
0.0
  0
LINE
  8
DETAIL
  6
CONTINUOUS
 62
     5
 10
-10.641520292399949
 20
-340.76095389960062
 30
0.0
 11
-10.797754284400069
 21
-340.71710677720051
 31
0.0
  0
LINE
  8
DETAIL
  6
CONTINUOUS
 62
     5
 10
-10.797754284400069
 20
-340.71710677720051
 30
0.0
 11
-10.84999126340063
 21
-340.67340648940069
 31
0.0
  0
LINE
  8
DETAIL
  6
CONTINUOUS
 62
     5
 10
258.31133815959947
 20
-336.96439941199992
 30
0.0
 11
-258.33320378260032
 21
-336.9624931802
 31
0.0
  0
LINE
  8
DETAIL
  6
CONTINUOUS
 62
     5
 10
-259.5
 20
-335.78194327160008
 30
0.0
 11
-258.90000000000038
 21
-335.78194327160008
 31
0.0
  0
LINE
  8
DETAIL
  6
CONTINUOUS
 62
     5
 10
259.5
 20
-335.78194327160008
 30
0.0
 11
258.89999999999958
 21
-335.78194327160008
 31
0.0
  0
LINE
  8
DETAIL
  6
CONTINUOUS
 62
     5
 10
-258.8334813850006
 20
-335.7643994120001
 30
0.0
 11
258.89999999999958
 21
-335.7643994120001
 31
0.0
  0
LINE
  8
DETAIL
  6
CONTINUOUS
 62
     5
 10
-259.5
 20
-335.74685555219997
 30
0.0
 11
-258.90000000000038
 21
-335.74685555219997
 31
0.0
  0
LINE
  8
DETAIL
  6
CONTINUOUS
 62
     5
 10
259.5
 20
-335.74685555219997
 30
0.0
 11
258.89999999999958
 21
-335.74685555219997
 31
0.0
  0
LINE
  8
DETAIL
  6
CONTINUOUS
 62
     5
 10
0.0
 20
-341.68189771120058
 30
0.0
 11
1.0833054369995809
 21
-341.68032365320062
 31
0.0
  0
LINE
  8
DETAIL
  6
CONTINUOUS
 62
     5
 10
1.0833054369995809
 20
-341.68032365320062
 30
0.0
 11
2.145993542199903
 21
-341.67572017840058
 31
0.0
  0
LINE
  8
DETAIL
  6
CONTINUOUS
 62
     5
 10
2.145993542199903
 20
-341.67572017840058
 30
0.0
 11
3.1930205699991352
 21
-341.66804334500051
 31
0.0
  0
LINE
  8
DETAIL
  6
CONTINUOUS
 62
     5
 10
3.1930205699991352
 20
-341.66804334500051
 30
0.0
 11
4.2095177559995136
 21
-341.65742497940062
 31
0.0
  0
LINE
  8
DETAIL
  6
CONTINUOUS
 62
     5
 10
4.2095177559995136
 20
-341.65742497940062
 30
0.0
 11
5.1851840459994492
 21
-341.64392554960062
 31
0.0
  0
LINE
  8
DETAIL
  6
CONTINUOUS
 62
     5
 10
5.1851840459994492
 20
-341.64392554960062
 30
0.0
 11
6.1112725631992362
 21
-341.62771518800048
 31
0.0
  0
LINE
  8
DETAIL
  6
CONTINUOUS
 62
     5
 10
6.1112725631992362
 20
-341.62771518800048
 30
0.0
 11
6.9780838071992548
 21
-341.60891193740048
 31
0.0
  0
LINE
  8
DETAIL
  6
CONTINUOUS
 62
     5
 10
6.9780838071992548
 20
-341.60891193740048
 30
0.0
 11
7.778174592999676
 21
-341.58773253520059
 31
0.0
  0
LINE
  8
DETAIL
  6
CONTINUOUS
 62
     5
 10
7.778174592999676
 20
-341.58773253520059
 30
0.0
 11
8.5028197207993799
 21
-341.56434806220062
 31
0.0
  0
LINE
  8
DETAIL
  6
CONTINUOUS
 62
     5
 10
8.5028197207993799
 20
-341.56434806220062
 30
0.0
 11
9.1461657351992471
 21
-341.53901353200069
 31
0.0
  0
LINE
  8
DETAIL
  6
CONTINUOUS
 62
     5
 10
9.1461657351992471
 20
-341.53901353200069
 30
0.0
 11
9.7007970411996212
 21
-341.51194648860047
 31
0.0
  0
LINE
  8
DETAIL
  6
CONTINUOUS
 62
     5
 10
9.7007970411996212
 20
-341.51194648860047
 30
0.0
 11
10.162674857600001
 21
-341.48343042200071
 31
0.0
  0
LINE
  8
DETAIL
  6
CONTINUOUS
 62
     5
 10
10.162674857600001
 20
-341.48343042200071
 30
0.0
 11
10.5259781713994
 21
-341.45372097960069
 31
0.0
  0
LINE
  8
DETAIL
  6
CONTINUOUS
 62
     5
 10
10.5259781713994
 20
-341.45372097960069
 30
0.0
 11
10.788638084399279
 21
-341.42311923300059
 31
0.0
  0
LINE
  8
DETAIL
  6
CONTINUOUS
 62
     5
 10
10.788638084399279
 20
-341.42311923300059
 30
0.0
 11
10.94665186359998
 21
-341.39190910880052
 31
0.0
  0
LINE
  8
DETAIL
  6
CONTINUOUS
 62
     5
 10
10.94665186359998
 20
-341.39190910880052
 30
0.0
 11
11.0
 21
-341.36039769060051
 31
0.0
  0
LINE
  8
DETAIL
  6
CONTINUOUS
 62
     5
 10
0.0
 20
-341.71112498580072
 30
0.0
 11
1.351862796799651
 21
-341.70887150180067
 31
0.0
  0
LINE
  8
DETAIL
  6
CONTINUOUS
 62
     5
 10
1.351862796799651
 20
-341.70887150180067
 30
0.0
 11
2.670251207399815
 21
-341.70233152020057
 31
0.0
  0
LINE
  8
DETAIL
  6
CONTINUOUS
 62
     5
 10
2.670251207399815
 20
-341.70233152020057
 30
0.0
 11
3.963114191799832
 21
-341.69142374680052
 31
0.0
  0
LINE
  8
DETAIL
  6
CONTINUOUS
 62
     5
 10
3.963114191799832
 20
-341.69142374680052
 30
0.0
 11
5.2066048693995981
 21
-341.67639206480072
 31
0.0
  0
LINE
  8
DETAIL
  6
CONTINUOUS
 62
     5
 10
5.2066048693995981
 20
-341.67639206480072
 30
0.0
 11
6.3840070891992582
 21
-341.65734940400068
 31
0.0
  0
LINE
  8
DETAIL
  6
CONTINUOUS
 62
     5
 10
6.3840070891992582
 20
-341.65734940400068
 30
0.0
 11
7.4818776222000452
 21
-341.63460733180062
 31
0.0
  0
LINE
  8
DETAIL
  6
CONTINUOUS
 62
     5
 10
7.4818776222000452
 20
-341.63460733180062
 30
0.0
 11
8.4847792137998113
 21
-341.60838466260049
 31
0.0
  0
LINE
  8
DETAIL
  6
CONTINUOUS
 62
     5
 10
8.4847792137998113
 20
-341.60838466260049
 30
0.0
 11
9.3819777895996594
 21
-341.5790725824005
 31
0.0
  0
LINE
  8
DETAIL
  6
CONTINUOUS
 62
     5
 10
9.3819777895996594
 20
-341.5790725824005
 30
0.0
 11
10.16008907939977
 21
-341.54698481880052
 31
0.0
  0
LINE
  8
DETAIL
  6
CONTINUOUS
 62
     5
 10
10.16008907939977
 20
-341.54698481880052
 30
0.0
 11
10.811626414799321
 21
-341.51257256080049
 31
0.0
  0
LINE
  8
DETAIL
  6
CONTINUOUS
 62
     5
 10
10.811626414799321
 20
-341.51257256080049
 30
0.0
 11
11.325929653599809
 21
-341.47622871740072
 31
0.0
  0
LINE
  8
DETAIL
  6
CONTINUOUS
 62
     5
 10
11.325929653599809
 20
-341.47622871740072
 30
0.0
 11
11.699134946199591
 21
-341.43844185580048
 31
0.0
  0
LINE
  8
DETAIL
  6
CONTINUOUS
 62
     5
 10
11.699134946199591
 20
-341.43844185580048
 30
0.0
 11
11.92384082219996
 21
-341.39966436440062
 31
0.0
  0
LINE
  8
DETAIL
  6
CONTINUOUS
 62
     5
 10
11.92384082219996
 20
-341.39966436440062
 30
0.0
 11
12.0
 21
-341.36039769060051
 31
0.0
  0
LINE
  8
DETAIL
  6
CONTINUOUS
 62
     5
 10
258.40277492339919
 20
-336.96045114100002
 30
0.0
 11
258.3279270903995
 21
-336.96295319880011
 31
0.0
  0
LINE
  8
DETAIL
  6
CONTINUOUS
 62
     5
 10
-10.833640872400791
 20
-341.20977849780058
 30
0.0
 11
-11.325929653800809
 21
-341.24456666380053
 31
0.0
  0
LINE
  8
DETAIL
  6
CONTINUOUS
 62
     5
 10
-11.325929653800809
 20
-341.24456666380053
 30
0.0
 11
-11.6991349462005
 21
-341.28235352520062
 31
0.0
  0
LINE
  8
DETAIL
  6
CONTINUOUS
 62
     5
 10
-11.6991349462005
 20
-341.28235352520062
 30
0.0
 11
-11.92384082219996
 21
-341.32113101660059
 31
0.0
  0
LINE
  8
DETAIL
  6
CONTINUOUS
 62
     5
 10
-11.92384082219996
 20
-341.32113101660059
 30
0.0
 11
-12.0
 21
-341.36039769060051
 31
0.0
  0
LINE
  8
DETAIL
  6
CONTINUOUS
 62
     5
 10
258.33320378259941
 20
-336.9624931802
 30
0.0
 11
258.31133815519928
 21
-336.96439941199992
 31
0.0
  0
LINE
  8
DETAIL
  6
CONTINUOUS
 62
     5
 10
-10.83070816100008
 20
-341.30598562780062
 30
0.0
 11
-10.94665186359998
 21
-341.32888627220052
 31
0.0
  0
LINE
  8
DETAIL
  6
CONTINUOUS
 62
     5
 10
-10.94665186359998
 20
-341.32888627220052
 30
0.0
 11
-11.0
 21
-341.36039769060051
 31
0.0
  0
LINE
  8
DETAIL
  6
CONTINUOUS
 62
     5
 10
1.5388159464000639
 20
-364.75147397380073
 30
0.0
 11
1.4057499769996871
 21
-364.79247821280057
 31
0.0
  0
LINE
  8
DETAIL
  6
CONTINUOUS
 62
     5
 10
1.4057499769996871
 20
-364.79247821280057
 30
0.0
 11
1.28573285839957
 21
-364.82602109440052
 31
0.0
  0
LINE
  8
DETAIL
  6
CONTINUOUS
 62
     5
 10
1.28573285839957
 20
-364.82602109440052
 30
0.0
 11
1.181644628599315
 21
-364.85252459280082
 31
0.0
  0
LINE
  8
DETAIL
  6
CONTINUOUS
 62
     5
 10
1.181644628599315
 20
-364.85252459280082
 30
0.0
 11
1.0861976163996589
 21
-364.8747506672006
 31
0.0
  0
LINE
  8
DETAIL
  6
CONTINUOUS
 62
     5
 10
1.0861976163996589
 20
-364.8747506672006
 30
0.0
 11
0.9921485405993735
 21
-364.89473463520051
 31
0.0
  0
LINE
  8
DETAIL
  6
CONTINUOUS
 62
     5
 10
0.9921485405993735
 20
-364.89473463520051
 30
0.0
 11
0.9015227249992677
 21
-364.91221319480047
 31
0.0
  0
LINE
  8
DETAIL
  6
CONTINUOUS
 62
     5
 10
0.9015227249992677
 20
-364.91221319480047
 30
0.0
 11
0.8135474565997356
 21
-364.92752912840058
 31
0.0
  0
LINE
  8
DETAIL
  6
CONTINUOUS
 62
     5
 10
0.8135474565997356
 20
-364.92752912840058
 30
0.0
 11
0.7293399221998698
 21
-364.94067934920059
 31
0.0
  0
LINE
  8
DETAIL
  6
CONTINUOUS
 62
     5
 10
0.7293399221998698
 20
-364.94067934920059
 30
0.0
 11
0.6502026493999438
 21
-364.95170242240039
 31
0.0
  0
LINE
  8
DETAIL
  6
CONTINUOUS
 62
     5
 10
0.6502026493999438
 20
-364.95170242240039
 30
0.0
 11
0.5748174097998344
 21
-364.96100762220061
 31
0.0
  0
LINE
  8
DETAIL
  6
CONTINUOUS
 62
     5
 10
0.5748174097998344
 20
-364.96100762220061
 30
0.0
 11
0.5021783899992443
 21
-364.96887679400049
 31
0.0
  0
LINE
  8
DETAIL
  6
CONTINUOUS
 62
     5
 10
0.5021783899992443
 20
-364.96887679400049
 30
0.0
 11
0.4328041387998383
 21
-364.97539186620048
 31
0.0
  0
LINE
  8
DETAIL
  6
CONTINUOUS
 62
     5
 10
0.4328041387998383
 20
-364.97539186620048
 30
0.0
 11
0.3670655815994905
 21
-364.98066710320052
 31
0.0
  0
LINE
  8
DETAIL
  6
CONTINUOUS
 62
     5
 10
0.3670655815994905
 20
-364.98066710320052
 30
0.0
 11
0.3046711613997104
 21
-364.98486794500047
 31
0.0
  0
LINE
  8
DETAIL
  6
CONTINUOUS
 62
     5
 10
0.3046711613997104
 20
-364.98486794500047
 30
0.0
 11
0.2455491887994867
 21
-364.98812594400079
 31
0.0
  0
LINE
  8
DETAIL
  6
CONTINUOUS
 62
     5
 10
0.2455491887994867
 20
-364.98812594400079
 30
0.0
 11
0.189960849599629
 21
-364.99054921360039
 31
0.0
  0
LINE
  8
DETAIL
  6
CONTINUOUS
 62
     5
 10
0.189960849599629
 20
-364.99054921360039
 30
0.0
 11
0.1373617429999285
 21
-364.99227182840048
 31
0.0
  0
LINE
  8
DETAIL
  6
CONTINUOUS
 62
     5
 10
0.1373617429999285
 20
-364.99227182840048
 30
0.0
 11
0.0892630270000154
 21
-364.99336217680047
 31
0.0
  0
LINE
  8
DETAIL
  6
CONTINUOUS
 62
     5
 10
0.0892630270000154
 20
-364.99336217680047
 30
0.0
 11
0.0448357331997613
 21
-364.9939579824005
 31
0.0
  0
LINE
  8
DETAIL
  6
CONTINUOUS
 62
     5
 10
0.0448357331997613
 20
-364.9939579824005
 30
0.0
 11
0.0
 21
-364.99415902920072
 31
0.0
  0
LINE
  8
DETAIL
  6
CONTINUOUS
 62
     5
 10
1.5388159464000639
 20
-364.75147397380073
 30
0.0
 11
10.919042099799301
 21
-361.71731673300047
 31
0.0
  0
LINE
  8
DETAIL
  6
CONTINUOUS
 62
     5
 10
10.919042108599569
 20
-361.71731673020071
 30
0.0
 11
11.024768758999929
 21
-361.67933693180049
 31
0.0
  0
LINE
  8
DETAIL
  6
CONTINUOUS
 62
     5
 10
11.024768758999929
 20
-361.67933693180049
 30
0.0
 11
11.144432658799809
 21
-361.62627036960049
 31
0.0
  0
LINE
  8
DETAIL
  6
CONTINUOUS
 62
     5
 10
11.144432658799809
 20
-361.62627036960049
 30
0.0
 11
11.27535910539973
 21
-361.55391398260048
 31
0.0
  0
LINE
  8
DETAIL
  6
CONTINUOUS
 62
     5
 10
11.27535910539973
 20
-361.55391398260048
 30
0.0
 11
11.41625513419967
 21
-361.45591384500051
 31
0.0
  0
LINE
  8
DETAIL
  6
CONTINUOUS
 62
     5
 10
11.41625513419967
 20
-361.45591384500051
 30
0.0
 11
11.565157884199831
 21
-361.32307612860052
 31
0.0
  0
LINE
  8
DETAIL
  6
CONTINUOUS
 62
     5
 10
11.565157884199831
 20
-361.32307612860052
 30
0.0
 11
11.706666088199199
 21
-361.15684979140048
 31
0.0
  0
LINE
  8
DETAIL
  6
CONTINUOUS
 62
     5
 10
11.706666088199199
 20
-361.15684979140048
 30
0.0
 11
11.82880373339958
 21
-360.96075157860048
 31
0.0
  0
LINE
  8
DETAIL
  6
CONTINUOUS
 62
     5
 10
11.82880373339958
 20
-360.96075157860048
 30
0.0
 11
11.92238897679999
 21
-360.74024954960078
 31
0.0
  0
LINE
  8
DETAIL
  6
CONTINUOUS
 62
     5
 10
11.92238897679999
 20
-360.74024954960078
 30
0.0
 11
11.98016035519959
 21
-360.50639701560073
 31
0.0
  0
LINE
  8
DETAIL
  6
CONTINUOUS
 62
     5
 10
11.98016035519959
 20
-360.50639701560073
 30
0.0
 11
12.0
 21
-360.26250531480048
 31
0.0
  0
LINE
  8
DETAIL
  6
CONTINUOUS
 62
     5
 10
12.0
 20
-360.26250531440053
 30
0.0
 11
11.943985720599811
 21
-360.29635354320061
 31
0.0
  0
LINE
  8
DETAIL
  6
CONTINUOUS
 62
     5
 10
11.943985720599811
 20
-360.29635354320061
 30
0.0
 11
11.77222752619946
 21
-360.33051549300069
 31
0.0
  0
LINE
  8
DETAIL
  6
CONTINUOUS
 62
     5
 10
11.77222752619946
 20
-360.33051549300069
 30
0.0
 11
11.48649986999953
 21
-360.36400572340051
 31
0.0
  0
LINE
  8
DETAIL
  6
CONTINUOUS
 62
     5
 10
11.48649986999953
 20
-360.36400572340051
 30
0.0
 11
11.089549369799901
 21
-360.39651133040047
 31
0.0
  0
LINE
  8
DETAIL
  6
CONTINUOUS
 62
     5
 10
11.089549369799901
 20
-360.39651133040047
 30
0.0
 11
10.585440237999141
 21
-360.42770654920048
 31
0.0
  0
LINE
  8
DETAIL
  6
CONTINUOUS
 62
     5
 10
259.49972937579969
 20
-335.80743168439989
 30
0.0
 11
258.89986468779989
 21
-335.79469521860011
 31
0.0
  0
LINE
  8
DETAIL
  6
CONTINUOUS
 62
     5
 10
-260.0
 20
-320.69999999999999
 30
0.0
 11
-259.5
 21
-320.69999999999999
 31
0.0
  0
LINE
  8
DETAIL
  6
CONTINUOUS
 62
     5
 10
260.0
 20
-320.69999999999999
 30
0.0
 11
259.5
 21
-320.69999999999999
 31
0.0
  0
LINE
  8
DETAIL
  6
CONTINUOUS
 62
     5
 10
259.5
 20
-314.0
 30
0.0
 11
260.09999999999962
 21
-314.0
 31
0.0
  0
LINE
  8
DETAIL
  6
CONTINUOUS
 62
     5
 10
-259.5
 20
-314.0
 30
0.0
 11
-260.10000000000042
 21
-314.0
 31
0.0
  0
LINE
  8
DETAIL
  6
CONTINUOUS
 62
     5
 10
-259.4997293758006
 20
-335.80743168560002
 30
0.0
 11
-258.89986468800089
 21
-335.79469522020008
 31
0.0
  0
LINE
  8
DETAIL
  6
CONTINUOUS
 62
     5
 10
10.84999126319963
 20
-340.67340648940069
 30
0.0
 11
10.79775428439916
 21
-340.71710677720051
 31
0.0
  0
LINE
  8
DETAIL
  6
CONTINUOUS
 62
     5
 10
10.79775428439916
 20
-340.71710677720051
 30
0.0
 11
10.641520292399949
 21
-340.76095389960062
 31
0.0
  0
LINE
  8
DETAIL
  6
CONTINUOUS
 62
     5
 10
10.641520292399949
 20
-340.76095389960062
 30
0.0
 11
10.38280264259993
 21
-340.80395237220063
 31
0.0
  0
LINE
  8
DETAIL
  6
CONTINUOUS
 62
     5
 10
10.38280264259993
 20
-340.80395237220063
 30
0.0
 11
10.02409292759967
 21
-340.84568809620077
 31
0.0
  0
LINE
  8
DETAIL
  6
CONTINUOUS
 62
     5
 10
10.02409292759967
 20
-340.84568809620077
 30
0.0
 11
9.5688457181995545
 21
-340.88575913380072
 31
0.0
  0
LINE
  8
DETAIL
  6
CONTINUOUS
 62
     5
 10
9.5688457181995545
 20
-340.88575913380072
 30
0.0
 11
9.0214452933996654
 21
-340.92377957900061
 31
0.0
  0
LINE
  8
DETAIL
  6
CONTINUOUS
 62
     5
 10
9.0214452933996654
 20
-340.92377957900061
 30
0.0
 11
8.3871634189999895
 21
-340.95938327400052
 31
0.0
  0
LINE
  8
DETAIL
  6
CONTINUOUS
 62
     5
 10
8.3871634189999895
 20
-340.95938327400052
 30
0.0
 11
7.672108575799939
 21
-340.99222733600061
 31
0.0
  0
LINE
  8
DETAIL
  6
CONTINUOUS
 62
     5
 10
7.672108575799939
 20
-340.99222733600061
 30
0.0
 11
6.8831671332000042
 21
-341.0219954586006
 31
0.0
  0
LINE
  8
DETAIL
  6
CONTINUOUS
 62
     5
 10
6.8831671332000042
 20
-341.0219954586006
 30
0.0
 11
6.0279370281996307
 21
-341.04840095860061
 31
0.0
  0
LINE
  8
DETAIL
  6
CONTINUOUS
 62
     5
 10
6.0279370281996307
 20
-341.04840095860061
 30
0.0
 11
5.1146545945994148
 21
-341.07118953640048
 31
0.0
  0
LINE
  8
DETAIL
  6
CONTINUOUS
 62
     5
 10
5.1146545945994148
 20
-341.07118953640048
 30
0.0
 11
4.1521152411996809
 21
-341.09014172580072
 31
0.0
  0
LINE
  8
DETAIL
  6
CONTINUOUS
 62
     5
 10
4.1521152411996809
 20
-341.09014172580072
 30
0.0
 11
3.149588748199676
 21
-341.10507500660049
 31
0.0
  0
LINE
  8
DETAIL
  6
CONTINUOUS
 62
     5
 10
3.149588748199676
 20
-341.10507500660049
 30
0.0
 11
2.1167299937997091
 21
-341.11584556320082
 31
0.0
  0
LINE
  8
DETAIL
  6
CONTINUOUS
 62
     5
 10
2.1167299937997091
 20
-341.11584556320082
 30
0.0
 11
1.063485972599665
 21
-341.12234966940048
 31
0.0
  0
LINE
  8
DETAIL
  6
CONTINUOUS
 62
     5
 10
1.063485972599665
 20
-341.12234966940048
 30
0.0
 11
0.0
 21
-341.12452468700059
 31
0.0
  0
LINE
  8
DETAIL
  6
CONTINUOUS
 62
     5
 10
258.89999999999958
 20
-312.0
 30
0.0
 11
259.5
 21
-312.0
 31
0.0
  0
LINE
  8
DETAIL
  6
CONTINUOUS
 62
     5
 10
-258.90000000000038
 20
-312.0
 30
0.0
 11
-259.5
 21
-312.0
 31
0.0
  0
LINE
  8
DETAIL
  6
CONTINUOUS
 62
     5
 10
259.5
 20
-311.0
 30
0.0
 11
260.09999999999962
 21
-311.0
 31
0.0
  0
LINE
  8
DETAIL
  6
CONTINUOUS
 62
     5
 10
-259.5
 20
-311.0
 30
0.0
 11
-260.10000000000042
 21
-311.0
 31
0.0
  0
LINE
  8
DETAIL
  6
CONTINUOUS
 62
     5
 10
-260.60000000000042
 20
-309.0
 30
0.0
 11
-259.40000000000038
 21
-309.0
 31
0.0
  0
LINE
  8
DETAIL
  6
CONTINUOUS
 62
     5
 10
258.89999999999958
 20
-309.0
 30
0.0
 11
260.09999999999962
 21
-309.0
 31
0.0
  0
LINE
  8
DETAIL
  6
CONTINUOUS
 62
     5
 10
257.29999999999927
 20
-305.0
 30
0.0
 11
-257.80000000000013
 21
-305.0
 31
0.0
  0
LINE
  8
DETAIL
  6
CONTINUOUS
 62
     5
 10
10.82737074779925
 20
-341.41546894300052
 30
0.0
 11
10.84999126319963
 21
-340.67340648940069
 31
0.0
  0
LINE
  8
DETAIL
  6
CONTINUOUS
 62
     5
 10
10.849999999999451
 20
-340.67283327700068
 30
0.0
 11
10.84999126319963
 21
-340.67340648940069
 31
0.0
  0
LINE
  8
DETAIL
  6
CONTINUOUS
 62
     5
 10
12.0
 20
-341.36039769060051
 30
0.0
 11
12.0
 21
-360.26250531480048
 31
0.0
  0
LINE
  8
DETAIL
  6
CONTINUOUS
 62
     5
 10
10.849999999999451
 20
-340.67283327700068
 30
0.0
 11
10.849999999999451
 21
-336.96439941200049
 31
0.0
  0
LINE
  8
DETAIL
  6
CONTINUOUS
 62
     5
 10
-10.85000000000036
 20
-340.67283327700068
 30
0.0
 11
-10.85000000000036
 21
-336.96439941200049
 31
0.0
  0
LINE
  8
DETAIL
  6
CONTINUOUS
 62
     5
 10
-12.0
 20
-341.36039769060051
 30
0.0
 11
-12.0
 21
-360.26250531480048
 31
0.0
  0
LINE
  8
DETAIL
  6
CONTINUOUS
 62
     5
 10
-10.84999126340063
 20
-340.67340648940069
 30
0.0
 11
-10.85000000000036
 21
-340.67283327700068
 31
0.0
  0
LINE
  8
DETAIL
  6
CONTINUOUS
 62
     5
 10
-10.82737074800025
 20
-341.41546894300052
 30
0.0
 11
-10.84999126340063
 21
-340.67340648940069
 31
0.0
  0
LINE
  8
DETAIL
  6
CONTINUOUS
 62
     5
 10
-12.0
 20
-360.26250531480048
 30
0.0
 11
-11.98085433980032
 21
-360.50212083520063
 31
0.0
  0
LINE
  8
DETAIL
  6
CONTINUOUS
 62
     5
 10
-11.98085433980032
 20
-360.50212083520063
 30
0.0
 11
-11.92409611540006
 21
-360.73510229180079
 31
0.0
  0
LINE
  8
DETAIL
  6
CONTINUOUS
 62
     5
 10
-11.92409611540006
 20
-360.73510229180079
 30
0.0
 11
-11.829751290400051
 21
-360.9589314910005
 31
0.0
  0
LINE
  8
DETAIL
  6
CONTINUOUS
 62
     5
 10
-11.829751290400051
 20
-360.9589314910005
 30
0.0
 11
-11.70540373400036
 21
-361.15856652340051
 31
0.0
  0
LINE
  8
DETAIL
  6
CONTINUOUS
 62
     5
 10
-11.70540373400036
 20
-361.15856652340051
 30
0.0
 11
-11.56295813320048
 21
-361.3253083890005
 31
0.0
  0
LINE
  8
DETAIL
  6
CONTINUOUS
 62
     5
 10
-11.56295813320048
 20
-361.3253083890005
 30
0.0
 11
-11.41374153820016
 21
-361.4578738328006
 31
0.0
  0
LINE
  8
DETAIL
  6
CONTINUOUS
 62
     5
 10
-11.41374153820016
 20
-361.4578738328006
 30
0.0
 11
-11.272438302400589
 21
-361.55571011260082
 31
0.0
  0
LINE
  8
DETAIL
  6
CONTINUOUS
 62
     5
 10
-11.272438302400589
 20
-361.55571011260082
 30
0.0
 11
-11.141592825400039
 21
-361.62766584920053
 31
0.0
  0
LINE
  8
DETAIL
  6
CONTINUOUS
 62
     5
 10
-11.141592825400039
 20
-361.62766584920053
 30
0.0
 11
-11.022912069800441
 21
-361.6800722486006
 31
0.0
  0
LINE
  8
DETAIL
  6
CONTINUOUS
 62
     5
 10
-11.022912069800441
 20
-361.6800722486006
 30
0.0
 11
-10.91904212100053
 21
-361.71731672620069
 31
0.0
  0
LINE
  8
DETAIL
  6
CONTINUOUS
 62
     5
 10
11.0
 20
-341.36039769060051
 30
0.0
 11
10.94665186359998
 21
-341.32888627220052
 31
0.0
  0
LINE
  8
DETAIL
  6
CONTINUOUS
 62
     5
 10
10.94665186359998
 20
-341.32888627220052
 30
0.0
 11
10.83070816100008
 21
-341.30598562780062
 31
0.0
  0
LINE
  8
DETAIL
  6
CONTINUOUS
 62
     5
 10
-11.0
 20
-341.36039769060051
 30
0.0
 11
-10.94665186359998
 21
-341.39190910880052
 31
0.0
  0
LINE
  8
DETAIL
  6
CONTINUOUS
 62
     5
 10
-10.94665186359998
 20
-341.39190910880052
 30
0.0
 11
-10.788638084400191
 21
-341.42311923300059
 31
0.0
  0
LINE
  8
DETAIL
  6
CONTINUOUS
 62
     5
 10
-10.788638084400191
 20
-341.42311923300059
 30
0.0
 11
-10.525978171400309
 21
-341.45372097960069
 31
0.0
  0
LINE
  8
DETAIL
  6
CONTINUOUS
 62
     5
 10
-10.525978171400309
 20
-341.45372097960069
 30
0.0
 11
-10.162674857600001
 21
-341.48343042200071
 31
0.0
  0
LINE
  8
DETAIL
  6
CONTINUOUS
 62
     5
 10
-10.162674857600001
 20
-341.48343042200071
 30
0.0
 11
-9.7007970412005307
 21
-341.51194648860047
 31
0.0
  0
LINE
  8
DETAIL
  6
CONTINUOUS
 62
     5
 10
-9.7007970412005307
 20
-341.51194648860047
 30
0.0
 11
-9.1461657354002455
 21
-341.53901353200069
 31
0.0
  0
LINE
  8
DETAIL
  6
CONTINUOUS
 62
     5
 10
-9.1461657354002455
 20
-341.53901353200069
 30
0.0
 11
-8.5028197210003782
 21
-341.56434806220062
 31
0.0
  0
LINE
  8
DETAIL
  6
CONTINUOUS
 62
     5
 10
-8.5028197210003782
 20
-341.56434806220062
 30
0.0
 11
-7.7781745932006743
 21
-341.58773253520059
 31
0.0
  0
LINE
  8
DETAIL
  6
CONTINUOUS
 62
     5
 10
-7.7781745932006743
 20
-341.58773253520059
 30
0.0
 11
-6.9780838072001643
 21
-341.60891193740048
 31
0.0
  0
LINE
  8
DETAIL
  6
CONTINUOUS
 62
     5
 10
-6.9780838072001643
 20
-341.60891193740048
 30
0.0
 11
-6.1112725632001457
 21
-341.62771518800048
 31
0.0
  0
LINE
  8
DETAIL
  6
CONTINUOUS
 62
     5
 10
-6.1112725632001457
 20
-341.62771518800048
 30
0.0
 11
-5.1851840462004466
 21
-341.64392554960062
 31
0.0
  0
LINE
  8
DETAIL
  6
CONTINUOUS
 62
     5
 10
-5.1851840462004466
 20
-341.64392554960062
 30
0.0
 11
-4.2095177560004231
 21
-341.65742497940062
 31
0.0
  0
LINE
  8
DETAIL
  6
CONTINUOUS
 62
     5
 10
-4.2095177560004231
 20
-341.65742497940062
 30
0.0
 11
-3.1930205700000438
 21
-341.66804334500051
 31
0.0
  0
LINE
  8
DETAIL
  6
CONTINUOUS
 62
     5
 10
-3.1930205700000438
 20
-341.66804334500051
 30
0.0
 11
-2.145993542200813
 21
-341.67572017840058
 31
0.0
  0
LINE
  8
DETAIL
  6
CONTINUOUS
 62
     5
 10
-2.145993542200813
 20
-341.67572017840058
 30
0.0
 11
-1.083305437200579
 21
-341.68032365320062
 31
0.0
  0
LINE
  8
DETAIL
  6
CONTINUOUS
 62
     5
 10
-1.083305437200579
 20
-341.68032365320062
 30
0.0
 11
0.0
 21
-341.68189771120058
 31
0.0
  0
LINE
  8
DETAIL
  6
CONTINUOUS
 62
     5
 10
12.0
 20
-341.36039769060051
 30
0.0
 11
11.92384082219996
 21
-341.32113101660059
 31
0.0
  0
LINE
  8
DETAIL
  6
CONTINUOUS
 62
     5
 10
11.92384082219996
 20
-341.32113101660059
 30
0.0
 11
11.699134946199591
 21
-341.28235352520062
 31
0.0
  0
LINE
  8
DETAIL
  6
CONTINUOUS
 62
     5
 10
11.699134946199591
 20
-341.28235352520062
 30
0.0
 11
11.325929653599809
 21
-341.24456666380053
 31
0.0
  0
LINE
  8
DETAIL
  6
CONTINUOUS
 62
     5
 10
11.325929653599809
 20
-341.24456666380053
 30
0.0
 11
10.833640872199791
 21
-341.20977849780058
 31
0.0
  0
LINE
  8
DETAIL
  6
CONTINUOUS
 62
     5
 10
-12.0
 20
-341.36039769060051
 30
0.0
 11
-11.92384082219996
 21
-341.39966436440062
 31
0.0
  0
LINE
  8
DETAIL
  6
CONTINUOUS
 62
     5
 10
-11.92384082219996
 20
-341.39966436440062
 30
0.0
 11
-11.6991349462005
 21
-341.43844185580048
 31
0.0
  0
LINE
  8
DETAIL
  6
CONTINUOUS
 62
     5
 10
-11.6991349462005
 20
-341.43844185580048
 30
0.0
 11
-11.325929653800809
 21
-341.47622871740072
 31
0.0
  0
LINE
  8
DETAIL
  6
CONTINUOUS
 62
     5
 10
-11.325929653800809
 20
-341.47622871740072
 30
0.0
 11
-10.81162641480023
 21
-341.51257256080049
 31
0.0
  0
LINE
  8
DETAIL
  6
CONTINUOUS
 62
     5
 10
-10.81162641480023
 20
-341.51257256080049
 30
0.0
 11
-10.16008907960077
 21
-341.54698481880052
 31
0.0
  0
LINE
  8
DETAIL
  6
CONTINUOUS
 62
     5
 10
-10.16008907960077
 20
-341.54698481880052
 30
0.0
 11
-9.3819777896005689
 21
-341.5790725824005
 31
0.0
  0
LINE
  8
DETAIL
  6
CONTINUOUS
 62
     5
 10
-9.3819777896005689
 20
-341.5790725824005
 30
0.0
 11
-8.4847792140008096
 21
-341.60838466260049
 31
0.0
  0
LINE
  8
DETAIL
  6
CONTINUOUS
 62
     5
 10
-8.4847792140008096
 20
-341.60838466260049
 30
0.0
 11
-7.481877622400134
 21
-341.63460733180062
 31
0.0
  0
LINE
  8
DETAIL
  6
CONTINUOUS
 62
     5
 10
-7.481877622400134
 20
-341.63460733180062
 30
0.0
 11
-6.3840070894002574
 21
-341.65734940400068
 31
0.0
  0
LINE
  8
DETAIL
  6
CONTINUOUS
 62
     5
 10
-6.3840070894002574
 20
-341.65734940400068
 30
0.0
 11
-5.2066048694005076
 21
-341.67639206480072
 31
0.0
  0
LINE
  8
DETAIL
  6
CONTINUOUS
 62
     5
 10
-5.2066048694005076
 20
-341.67639206480072
 30
0.0
 11
-3.9631141920008299
 21
-341.69142374680052
 31
0.0
  0
LINE
  8
DETAIL
  6
CONTINUOUS
 62
     5
 10
-3.9631141920008299
 20
-341.69142374680052
 30
0.0
 11
-2.6702512076008129
 21
-341.70233152020057
 31
0.0
  0
LINE
  8
DETAIL
  6
CONTINUOUS
 62
     5
 10
-2.6702512076008129
 20
-341.70233152020057
 30
0.0
 11
-1.3518627970006489
 21
-341.70887150180067
 31
0.0
  0
LINE
  8
DETAIL
  6
CONTINUOUS
 62
     5
 10
-1.3518627970006489
 20
-341.70887150180067
 30
0.0
 11
0.0
 21
-341.71112498580072
 31
0.0
  0
LINE
  8
DETAIL
  6
CONTINUOUS
 62
     5
 10
-1.538815946600153
 20
-364.75147397380073
 30
0.0
 11
-10.91904209980021
 21
-361.71731673300047
 31
0.0
  0
LINE
  8
DETAIL
  6
CONTINUOUS
 62
     5
 10
-258.90000000000038
 20
-335.82813667720012
 30
0.0
 11
-259.40000000000038
 21
-306.59999999999991
 31
0.0
  0
LINE
  8
DETAIL
  6
CONTINUOUS
 62
     5
 10
-259.5
 20
-335.78194327160008
 30
0.0
 11
-260.0
 21
-309.0
 31
0.0
  0
LINE
  8
DETAIL
  6
CONTINUOUS
 62
     5
 10
-260.0
 20
-320.69999999999999
 30
0.0
 11
-260.0
 21
-314.0
 31
0.0
  0
LINE
  8
DETAIL
  6
CONTINUOUS
 62
     5
 10
-260.60000000000042
 20
-309.0
 30
0.0
 11
-260.10000000000042
 21
-314.0
 31
0.0
  0
LINE
  8
DETAIL
  6
CONTINUOUS
 62
     5
 10
-259.5
 20
-335.78194327160008
 30
0.0
 11
-259.4997293758006
 21
-335.80743168560002
 31
0.0
  0
LINE
  8
DETAIL
  6
CONTINUOUS
 62
     5
 10
-259.4997293758006
 20
-335.80743168560002
 30
0.0
 11
-259.49313857420009
 21
-335.90907418219979
 31
0.0
  0
LINE
  8
DETAIL
  6
CONTINUOUS
 62
     5
 10
-259.49313857420009
 20
-335.90907418219979
 30
0.0
 11
-259.47771357360028
 21
-336.01011089640002
 31
0.0
  0
LINE
  8
DETAIL
  6
CONTINUOUS
 62
     5
 10
-259.47771357360028
 20
-336.01011089640002
 30
0.0
 11
-259.45343299880011
 21
-336.10993807680012
 31
0.0
  0
LINE
  8
DETAIL
  6
CONTINUOUS
 62
     5
 10
-259.45343299880011
 20
-336.10993807680012
 30
0.0
 11
-259.42053346180001
 21
-336.20729263499987
 31
0.0
  0
LINE
  8
DETAIL
  6
CONTINUOUS
 62
     5
 10
-259.42053346180001
 20
-336.20729263499987
 30
0.0
 11
-259.37952476960072
 21
-336.30090226200002
 31
0.0
  0
LINE
  8
DETAIL
  6
CONTINUOUS
 62
     5
 10
-259.37952476960072
 20
-336.30090226200002
 30
0.0
 11
-259.33063141840012
 21
-336.39049651879998
 31
0.0
  0
LINE
  8
DETAIL
  6
CONTINUOUS
 62
     5
 10
-259.33063141840012
 20
-336.39049651879998
 30
0.0
 11
-259.27415155160088
 21
-336.47556818980001
 31
0.0
  0
LINE
  8
DETAIL
  6
CONTINUOUS
 62
     5
 10
-259.27415155160088
 20
-336.47556818980001
 30
0.0
 11
-259.2103884750004
 21
-336.55561318519989
 31
0.0
  0
LINE
  8
DETAIL
  6
CONTINUOUS
 62
     5
 10
-259.2103884750004
 20
-336.55561318519989
 30
0.0
 11
-259.13946994460002
 21
-336.63030340499989
 31
0.0
  0
LINE
  8
DETAIL
  6
CONTINUOUS
 62
     5
 10
-259.13946994460002
 20
-336.63030340499989
 30
0.0
 11
-259.06227853180008
 21
-336.69858882900007
 31
0.0
  0
LINE
  8
DETAIL
  6
CONTINUOUS
 62
     5
 10
-259.06227853180008
 20
-336.69858882900007
 30
0.0
 11
-258.97988891400018
 21
-336.75961558519998
 31
0.0
  0
LINE
  8
DETAIL
  6
CONTINUOUS
 62
     5
 10
-258.97988891400018
 20
-336.75961558519998
 30
0.0
 11
-258.8926278994004
 21
-336.81325880059978
 31
0.0
  0
LINE
  8
DETAIL
  6
CONTINUOUS
 62
     5
 10
-258.8926278994004
 20
-336.81325880059978
 30
0.0
 11
-258.80100449300062
 21
-336.85922440500008
 31
0.0
  0
LINE
  8
DETAIL
  6
CONTINUOUS
 62
     5
 10
-258.80100449300062
 20
-336.85922440500008
 30
0.0
 11
-258.7055307242008
 21
-336.89722355260011
 31
0.0
  0
LINE
  8
DETAIL
  6
CONTINUOUS
 62
     5
 10
-258.7055307242008
 20
-336.89722355260011
 30
0.0
 11
-258.60647779999999
 21
-336.92703347239978
 31
0.0
  0
LINE
  8
DETAIL
  6
CONTINUOUS
 62
     5
 10
-258.60647779999999
 20
-336.92703347239978
 30
0.0
 11
-258.50513478940047
 21
-336.94817754780001
 31
0.0
  0
LINE
  8
DETAIL
  6
CONTINUOUS
 62
     5
 10
-258.50513478940047
 20
-336.94817754780001
 30
0.0
 11
-258.40277492360008
 21
-336.96045114100002
 31
0.0
  0
LINE
  8
DETAIL
  6
CONTINUOUS
 62
     5
 10
-258.89479847260009
 20
-335.85950639440011
 30
0.0
 11
-258.88244985900019
 21
-335.92344644280001
 31
0.0
  0
LINE
  8
DETAIL
  6
CONTINUOUS
 62
     5
 10
-258.88244985900019
 20
-335.92344644280001
 30
0.0
 11
-258.86291526520017
 21
-335.9857747044
 31
0.0
  0
LINE
  8
DETAIL
  6
CONTINUOUS
 62
     5
 10
-258.43348126460012
 20
-336.90539114400008
 30
0.0
 11
-258.39999991820059
 21
-336.93318553800009
 31
0.0
  0
LINE
  8
DETAIL
  6
CONTINUOUS
 62
     5
 10
-258.39999991820059
 20
-336.93318553800009
 30
0.0
 11
-258.36651858760069
 21
-336.95227657100008
 31
0.0
  0
LINE
  8
DETAIL
  6
CONTINUOUS
 62
     5
 10
-258.36651858760069
 20
-336.95227657100008
 30
0.0
 11
-258.33320378260032
 21
-336.9624931802
 31
0.0
  0
LINE
  8
DETAIL
  6
CONTINUOUS
 62
     5
 10
-258.90000000000038
 20
-335.82813667720012
 30
0.0
 11
-258.8334813850006
 21
-336.0316989718001
 31
0.0
  0
LINE
  8
DETAIL
  6
CONTINUOUS
 62
     5
 10
-258.8334813850006
 20
-336.0316989718001
 30
0.0
 11
-258.80000005400052
 21
-336.13155969719992
 31
0.0
  0
LINE
  8
DETAIL
  6
CONTINUOUS
 62
     5
 10
-258.80000005400052
 20
-336.13155969719992
 30
0.0
 11
-258.7665187122002
 21
-336.22868641700012
 31
0.0
  0
LINE
  8
DETAIL
  6
CONTINUOUS
 62
     5
 10
-258.7665187122002
 20
-336.22868641700012
 30
0.0
 11
-258.73323161180087
 21
-336.3218237051999
 31
0.0
  0
LINE
  8
DETAIL
  6
CONTINUOUS
 62
     5
 10
-258.73323161180087
 20
-336.3218237051999
 30
0.0
 11
-258.70000001120007
 21
-336.41071346500007
 31
0.0
  0
LINE
  8
DETAIL
  6
CONTINUOUS
 62
     5
 10
-258.70000001120007
 20
-336.41071346500007
 30
0.0
 11
-258.66676842200008
 21
-336.49486191919999
 31
0.0
  0
LINE
  8
DETAIL
  6
CONTINUOUS
 62
     5
 10
-258.66676842200008
 20
-336.49486191919999
 30
0.0
 11
-258.63348133680029
 21
-336.57377855700003
 31
0.0
  0
LINE
  8
DETAIL
  6
CONTINUOUS
 62
     5
 10
-258.63348133680029
 20
-336.57377855700003
 30
0.0
 11
-258.60000000360009
 21
-336.64714504739999
 31
0.0
  0
LINE
  8
DETAIL
  6
CONTINUOUS
 62
     5
 10
-258.60000000360009
 20
-336.64714504739999
 30
0.0
 11
-258.56651866840002
 21
-336.71393818999991
 31
0.0
  0
LINE
  8
DETAIL
  6
CONTINUOUS
 62
     5
 10
-258.56651866840002
 20
-336.71393818999991
 30
0.0
 11
-258.53323157520032
 21
-336.77333539779988
 31
0.0
  0
LINE
  8
DETAIL
  6
CONTINUOUS
 62
     5
 10
-258.53323157520032
 20
-336.77333539779988
 30
0.0
 11
-258.49999997660052
 21
-336.82522620240002
 31
0.0
  0
LINE
  8
DETAIL
  6
CONTINUOUS
 62
     5
 10
-258.49999997660052
 20
-336.82522620240002
 30
0.0
 11
-258.46676836960069
 21
-336.86933491819991
 31
0.0
  0
LINE
  8
DETAIL
  6
CONTINUOUS
 62
     5
 10
-258.46676836960069
 20
-336.86933491819991
 30
0.0
 11
-258.43348126460012
 21
-336.90539114400008
 31
0.0
  0
ARC
  8
DETAIL
  6
CONTINUOUS
 62
     5
 10
255.47749999999999
 20
-316.0
 30
0.0
 40
6.5225
 50
313.89739816709238
 51
44.795412948289432
  0
ARC
  8
DETAIL
  6
CONTINUOUS
 62
     5
 10
257.29999999999927
 20
-306.59999999999991
 30
0.0
 40
1.6000000000000001
 50
0.0
 51
90.0
  0
ARC
  8
DETAIL
  6
CONTINUOUS
 62
     5
 10
259.5
 20
-309.0
 30
0.0
 40
0.6
 50
0.0
 51
180.0
  0
ARC
  8
DETAIL
  6
CONTINUOUS
 62
     5
 10
-255.4775000000009
 20
-316.0
 30
0.0
 40
6.5225
 50
135.2045870517106
 51
226.1026018329076
  0
ARC
  8
DETAIL
  6
CONTINUOUS
 62
     5
 10
-257.80000000000013
 20
-306.59999999999991
 30
0.0
 40
1.6000000000000001
 50
90.0
 51
180.0
  0
ARC
  8
DETAIL
  6
CONTINUOUS
 62
     5
 10
-260.0
 20
-309.0
 30
0.0
 40
0.6
 50
0.0
 51
180.0
  0
LINE
  8
OUTLINE
  6
CONTINUOUS
 62
     3
 10
259.49972937579969
 20
-335.80743168560002
 30
0.0
 11
259.49313857419929
 21
-335.90907418219979
 31
0.0
  0
LINE
  8
OUTLINE
  6
CONTINUOUS
 62
     3
 10
259.49313857419929
 20
-335.90907418219979
 30
0.0
 11
259.47771357339928
 21
-336.01011089640002
 31
0.0
  0
LINE
  8
OUTLINE
  6
CONTINUOUS
 62
     3
 10
259.47771357339928
 20
-336.01011089640002
 30
0.0
 11
259.45343299880011
 21
-336.10993807680012
 31
0.0
  0
LINE
  8
OUTLINE
  6
CONTINUOUS
 62
     3
 10
259.45343299880011
 20
-336.10993807680012
 30
0.0
 11
259.42053346159992
 21
-336.20729263499987
 31
0.0
  0
LINE
  8
OUTLINE
  6
CONTINUOUS
 62
     3
 10
259.42053346159992
 20
-336.20729263499987
 30
0.0
 11
259.37952476939972
 21
-336.30090226200002
 31
0.0
  0
LINE
  8
OUTLINE
  6
CONTINUOUS
 62
     3
 10
259.37952476939972
 20
-336.30090226200002
 30
0.0
 11
259.33063141839921
 21
-336.39049651879998
 31
0.0
  0
LINE
  8
OUTLINE
  6
CONTINUOUS
 62
     3
 10
259.33063141839921
 20
-336.39049651879998
 30
0.0
 11
259.27415155160003
 21
-336.47556818980001
 31
0.0
  0
LINE
  8
OUTLINE
  6
CONTINUOUS
 62
     3
 10
259.27415155160003
 20
-336.47556818980001
 30
0.0
 11
259.21038847499949
 21
-336.55561318519989
 31
0.0
  0
LINE
  8
OUTLINE
  6
CONTINUOUS
 62
     3
 10
259.21038847499949
 20
-336.55561318519989
 30
0.0
 11
259.13946994439988
 21
-336.63030340499989
 31
0.0
  0
LINE
  8
OUTLINE
  6
CONTINUOUS
 62
     3
 10
259.13946994439988
 20
-336.63030340499989
 30
0.0
 11
259.06227853179922
 21
-336.69858882900007
 31
0.0
  0
LINE
  8
OUTLINE
  6
CONTINUOUS
 62
     3
 10
259.06227853179922
 20
-336.69858882900007
 30
0.0
 11
258.97988891399928
 21
-336.75961558519998
 31
0.0
  0
LINE
  8
OUTLINE
  6
CONTINUOUS
 62
     3
 10
258.97988891399928
 20
-336.75961558519998
 30
0.0
 11
258.89262789939949
 21
-336.81325880059978
 31
0.0
  0
LINE
  8
OUTLINE
  6
CONTINUOUS
 62
     3
 10
258.89262789939949
 20
-336.81325880059978
 30
0.0
 11
258.80100449299971
 21
-336.85922440500008
 31
0.0
  0
LINE
  8
OUTLINE
  6
CONTINUOUS
 62
     3
 10
258.80100449299971
 20
-336.85922440500008
 30
0.0
 11
258.7055307239998
 21
-336.89722355260011
 31
0.0
  0
LINE
  8
OUTLINE
  6
CONTINUOUS
 62
     3
 10
258.7055307239998
 20
-336.89722355260011
 30
0.0
 11
258.60647779999999
 21
-336.92703347239978
 31
0.0
  0
LINE
  8
OUTLINE
  6
CONTINUOUS
 62
     3
 10
258.60647779999999
 20
-336.92703347239978
 30
0.0
 11
258.50513478919947
 21
-336.94817754780001
 31
0.0
  0
LINE
  8
OUTLINE
  6
CONTINUOUS
 62
     3
 10
258.50513478919947
 20
-336.94817754780001
 30
0.0
 11
258.40277492339919
 21
-336.96045114100002
 31
0.0
  0
LINE
  8
OUTLINE
  6
CONTINUOUS
 62
     3
 10
258.43348126439918
 20
-336.90539114400008
 30
0.0
 11
258.39999991819968
 21
-336.93318553800009
 31
0.0
  0
LINE
  8
OUTLINE
  6
CONTINUOUS
 62
     3
 10
258.39999991819968
 20
-336.93318553800009
 30
0.0
 11
258.3665185873997
 21
-336.95227657100008
 31
0.0
  0
LINE
  8
OUTLINE
  6
CONTINUOUS
 62
     3
 10
258.3665185873997
 20
-336.95227657100008
 30
0.0
 11
258.33320378259941
 21
-336.9624931802
 31
0.0
  0
LINE
  8
OUTLINE
  6
CONTINUOUS
 62
     3
 10
259.5
 20
-335.78194327160008
 30
0.0
 11
259.49972937579969
 21
-335.80743168560002
 31
0.0
  0
LINE
  8
OUTLINE
  6
CONTINUOUS
 62
     3
 10
260.09999999999962
 20
-314.0
 30
0.0
 11
260.09999999999962
 21
-309.0
 31
0.0
  0
LINE
  8
OUTLINE
  6
CONTINUOUS
 62
     3
 10
260.0
 20
-320.69999999999999
 30
0.0
 11
260.0
 21
-314.0
 31
0.0
  0
LINE
  8
OUTLINE
  6
CONTINUOUS
 62
     3
 10
259.5
 20
-335.78194327160008
 30
0.0
 11
259.5
 21
-320.69999999999999
 31
0.0
  0
LINE
  8
OUTLINE
  6
CONTINUOUS
 62
     3
 10
258.89999999999958
 20
-309.0
 30
0.0
 11
258.89999999999958
 21
-306.59999999999991
 31
0.0
  0
LINE
  8
OUTLINE
  6
CONTINUOUS
 62
     3
 10
-258.33320378260032
 20
-336.9624931802
 30
0.0
 11
-258.31133815520008
 21
-336.96439941199992
 31
0.0
  0
LINE
  8
OUTLINE
  6
CONTINUOUS
 62
     3
 10
-258.40277492360008
 20
-336.96045114100002
 30
0.0
 11
-258.32792709040041
 21
-336.96295319880011
 31
0.0
  0
LINE
  8
OUTLINE
  6
CONTINUOUS
 62
     3
 10
258.31133815959947
 20
-336.96439941199992
 30
0.0
 11
-258.33320378260032
 21
-336.9624931802
 31
0.0
  0
LINE
  8
OUTLINE
  6
CONTINUOUS
 62
     3
 10
258.40277492339919
 20
-336.96045114100002
 30
0.0
 11
258.3279270903995
 21
-336.96295319880011
 31
0.0
  0
LINE
  8
OUTLINE
  6
CONTINUOUS
 62
     3
 10
258.33320378259941
 20
-336.9624931802
 30
0.0
 11
258.31133815519928
 21
-336.96439941199992
 31
0.0
  0
LINE
  8
OUTLINE
  6
CONTINUOUS
 62
     3
 10
-260.0
 20
-320.69999999999999
 30
0.0
 11
-259.5
 21
-320.69999999999999
 31
0.0
  0
LINE
  8
OUTLINE
  6
CONTINUOUS
 62
     3
 10
260.0
 20
-320.69999999999999
 30
0.0
 11
259.5
 21
-320.69999999999999
 31
0.0
  0
LINE
  8
OUTLINE
  6
CONTINUOUS
 62
     3
 10
-260.60000000000042
 20
-309.0
 30
0.0
 11
-259.40000000000038
 21
-309.0
 31
0.0
  0
LINE
  8
OUTLINE
  6
CONTINUOUS
 62
     3
 10
258.89999999999958
 20
-309.0
 30
0.0
 11
260.09999999999962
 21
-309.0
 31
0.0
  0
LINE
  8
OUTLINE
  6
CONTINUOUS
 62
     3
 10
257.29999999999927
 20
-305.0
 30
0.0
 11
246.39999999999961
 21
-305.0
 31
0.0
  0
LINE
  8
OUTLINE
  6
CONTINUOUS
 62
     3
 10
-246.40000000000049
 20
-305.0
 30
0.0
 11
-257.80000000000013
 21
-305.0
 31
0.0
  0
LINE
  8
OUTLINE
  6
CONTINUOUS
 62
     3
 10
-259.39999999999958
 20
-309.0
 30
0.0
 11
-259.40000000000038
 21
-306.59999999999991
 31
0.0
  0
LINE
  8
OUTLINE
  6
CONTINUOUS
 62
     3
 10
-259.5
 20
-335.78194327160008
 30
0.0
 11
-260.0
 21
-309.0
 31
0.0
  0
LINE
  8
OUTLINE
  6
CONTINUOUS
 62
     3
 10
-260.0
 20
-320.69999999999999
 30
0.0
 11
-260.0
 21
-314.0
 31
0.0
  0
LINE
  8
OUTLINE
  6
CONTINUOUS
 62
     3
 10
-260.60000000000042
 20
-309.0
 30
0.0
 11
-260.10000000000042
 21
-314.0
 31
0.0
  0
LINE
  8
OUTLINE
  6
CONTINUOUS
 62
     3
 10
-259.5
 20
-335.78194327160008
 30
0.0
 11
-259.4997293758006
 21
-335.80743168560002
 31
0.0
  0
LINE
  8
OUTLINE
  6
CONTINUOUS
 62
     3
 10
-259.4997293758006
 20
-335.80743168560002
 30
0.0
 11
-259.49313857420009
 21
-335.90907418219979
 31
0.0
  0
LINE
  8
OUTLINE
  6
CONTINUOUS
 62
     3
 10
-259.49313857420009
 20
-335.90907418219979
 30
0.0
 11
-259.47771357360028
 21
-336.01011089640002
 31
0.0
  0
LINE
  8
OUTLINE
  6
CONTINUOUS
 62
     3
 10
-259.47771357360028
 20
-336.01011089640002
 30
0.0
 11
-259.45343299880011
 21
-336.10993807680012
 31
0.0
  0
LINE
  8
OUTLINE
  6
CONTINUOUS
 62
     3
 10
-259.45343299880011
 20
-336.10993807680012
 30
0.0
 11
-259.42053346180001
 21
-336.20729263499987
 31
0.0
  0
LINE
  8
OUTLINE
  6
CONTINUOUS
 62
     3
 10
-259.42053346180001
 20
-336.20729263499987
 30
0.0
 11
-259.37952476960072
 21
-336.30090226200002
 31
0.0
  0
LINE
  8
OUTLINE
  6
CONTINUOUS
 62
     3
 10
-259.37952476960072
 20
-336.30090226200002
 30
0.0
 11
-259.33063141840012
 21
-336.39049651879998
 31
0.0
  0
LINE
  8
OUTLINE
  6
CONTINUOUS
 62
     3
 10
-259.33063141840012
 20
-336.39049651879998
 30
0.0
 11
-259.27415155160088
 21
-336.47556818980001
 31
0.0
  0
LINE
  8
OUTLINE
  6
CONTINUOUS
 62
     3
 10
-259.27415155160088
 20
-336.47556818980001
 30
0.0
 11
-259.2103884750004
 21
-336.55561318519989
 31
0.0
  0
LINE
  8
OUTLINE
  6
CONTINUOUS
 62
     3
 10
-259.2103884750004
 20
-336.55561318519989
 30
0.0
 11
-259.13946994460002
 21
-336.63030340499989
 31
0.0
  0
LINE
  8
OUTLINE
  6
CONTINUOUS
 62
     3
 10
-259.13946994460002
 20
-336.63030340499989
 30
0.0
 11
-259.06227853180008
 21
-336.69858882900007
 31
0.0
  0
LINE
  8
OUTLINE
  6
CONTINUOUS
 62
     3
 10
-259.06227853180008
 20
-336.69858882900007
 30
0.0
 11
-258.97988891400018
 21
-336.75961558519998
 31
0.0
  0
LINE
  8
OUTLINE
  6
CONTINUOUS
 62
     3
 10
-258.97988891400018
 20
-336.75961558519998
 30
0.0
 11
-258.8926278994004
 21
-336.81325880059978
 31
0.0
  0
LINE
  8
OUTLINE
  6
CONTINUOUS
 62
     3
 10
-258.8926278994004
 20
-336.81325880059978
 30
0.0
 11
-258.80100449300062
 21
-336.85922440500008
 31
0.0
  0
LINE
  8
OUTLINE
  6
CONTINUOUS
 62
     3
 10
-258.80100449300062
 20
-336.85922440500008
 30
0.0
 11
-258.7055307242008
 21
-336.89722355260011
 31
0.0
  0
LINE
  8
OUTLINE
  6
CONTINUOUS
 62
     3
 10
-258.7055307242008
 20
-336.89722355260011
 30
0.0
 11
-258.60647779999999
 21
-336.92703347239978
 31
0.0
  0
LINE
  8
OUTLINE
  6
CONTINUOUS
 62
     3
 10
-258.60647779999999
 20
-336.92703347239978
 30
0.0
 11
-258.50513478940047
 21
-336.94817754780001
 31
0.0
  0
LINE
  8
OUTLINE
  6
CONTINUOUS
 62
     3
 10
-258.50513478940047
 20
-336.94817754780001
 30
0.0
 11
-258.40277492360008
 21
-336.96045114100002
 31
0.0
  0
LINE
  8
OUTLINE
  6
CONTINUOUS
 62
     3
 10
-258.43348126460012
 20
-336.90539114400008
 30
0.0
 11
-258.39999991820059
 21
-336.93318553800009
 31
0.0
  0
LINE
  8
OUTLINE
  6
CONTINUOUS
 62
     3
 10
-258.39999991820059
 20
-336.93318553800009
 30
0.0
 11
-258.36651858760069
 21
-336.95227657100008
 31
0.0
  0
LINE
  8
OUTLINE
  6
CONTINUOUS
 62
     3
 10
-258.36651858760069
 20
-336.95227657100008
 30
0.0
 11
-258.33320378260032
 21
-336.9624931802
 31
0.0
  0
ARC
  8
OUTLINE
  6
CONTINUOUS
 62
     3
 10
257.29999999999927
 20
-306.59999999999991
 30
0.0
 40
1.6000000000000001
 50
0.0
 51
90.0
  0
ARC
  8
OUTLINE
  6
CONTINUOUS
 62
     3
 10
259.5
 20
-309.0
 30
0.0
 40
0.6
 50
0.0
 51
180.0
  0
ARC
  8
OUTLINE
  6
CONTINUOUS
 62
     3
 10
-257.80000000000013
 20
-306.59999999999991
 30
0.0
 40
1.6000000000000001
 50
90.0
 51
180.0
  0
ARC
  8
OUTLINE
  6
CONTINUOUS
 62
     3
 10
-260.0
 20
-309.0
 30
0.0
 40
0.6
 50
0.0
 51
180.0
  0
LINE
  8
SIZE
  6
CONTINUOUS
 62
    30
 10
379.65281599999997
 20
0.0000000000000568
 30
0.0
 11
592.72809705556949
 21
0.0000000000001137
 31
0.0
  0
LINE
  8
SIZE
  6
CONTINUOUS
 62
    30
 10
278.31133815959959
 20
-336.96439941199998
 30
0.0
 11
592.72809705556961
 21
-336.96439941199998
 31
0.0
  0
LINE
  8
SIZE
  6
CONTINUOUS
 62
    30
 10
572.72809705556949
 20
-11.99999999999989
 30
0.0
 11
572.72809705556961
 21
-324.96439941199998
 31
0.0
  0
CIRCLE
  8
SIZE
  6
CONTINUOUS
 62
    30
 10
572.72809705556949
 20
0.0000000000001137
 30
0.0
 40
6.0
  0
LINE
  8
SIZE
  6
CONTINUOUS
 62
    30
 10
572.72809705556949
 20
0.0000000000001137
 30
0.0
 11
572.72809705556949
 21
-11.99999999999989
 31
0.0
  0
CIRCLE
  8
SIZE
  6
CONTINUOUS
 62
    30
 10
572.72809705556961
 20
-336.96439941199998
 30
0.0
 40
6.0
  0
LINE
  8
SIZE
  6
CONTINUOUS
 62
    30
 10
572.72809705556961
 20
-336.96439941199998
 30
0.0
 11
572.72809705556961
 21
-324.96439941199998
 31
0.0
  0
TEXT
  8
SIZE
  6
CONTINUOUS
 62
    30
 10
547.72809705556938
 20
-242.53934256314301
 30
0.0
 40
64.0
  1
337
 50
90.0
 41
0.9
 72
     1
 11
547.72809705556938
 21
-168.4821997060001
 31
0.0
  0
POINT
  8
DEFPOINTS
  6
CONTINUOUS
 62
    30
 10
359.65281599999997
 20
0.0000000000000568
 30
0.0
  0
POINT
  8
DEFPOINTS
  6
CONTINUOUS
 62
    30
 10
572.72809705556961
 20
-336.96439941199998
 30
0.0
  0
LINE
  8
DETAIL
  6
CONTINUOUS
 62
     5
 10
174.7416351952352
 20
-297.70000266480082
 30
0.0
 11
174.7416351952352
 21
-8.3000026648006724
 31
0.0
  0
LINE
  8
DETAIL
  6
CONTINUOUS
 62
     5
 10
173.79105431683459
 20
-302.70000266480082
 30
0.0
 11
173.79105431683459
 21
-3.300002664800616
 31
0.0
  0
LINE
  8
DETAIL
  6
CONTINUOUS
 62
     5
 10
171.39999893483491
 20
-302.70000266480082
 30
0.0
 11
171.39999893483491
 21
-3.300002664800616
 31
0.0
  0
LINE
  8
DETAIL
  6
CONTINUOUS
 62
     5
 10
170.9999989348353
 20
-302.70000266480082
 30
0.0
 11
170.9999989348353
 21
-3.300002664800616
 31
0.0
  0
LINE
  8
DETAIL
  6
CONTINUOUS
 62
     5
 10
194.0
 20
-2.5125353039998122
 30
0.0
 11
194.0
 21
-305.0
 31
0.0
  0
LINE
  8
SIZE
  6
CONTINUOUS
 62
    30
 10
40.0
 20
-362.00891461100059
 30
0.0
 11
592.72809705556938
 21
-362.00891461100048
 31
0.0
  0
LINE
  8
SIZE
  6
CONTINUOUS
 62
    30
 10
278.31133815520047
 20
-336.96439941199998
 30
0.0
 11
592.72809705556938
 21
-336.96439941199998
 31
0.0
  0
LINE
  8
SIZE
  6
CONTINUOUS
 62
    30
 10
572.72809705556938
 20
-324.96439941199998
 30
0.0
 11
572.72809705556938
 21
-312.96439941199998
 31
0.0
  0
LINE
  8
SIZE
  6
CONTINUOUS
 62
    30
 10
572.72809705556938
 20
-374.00891461100048
 30
0.0
 11
572.72809705556938
 21
-529.26605746814346
 31
0.0
  0
LINE
  8
SIZE
  6
CONTINUOUS
 62
    30
 10
572.72809705556938
 20
-336.96439941199998
 30
0.0
 11
572.72809705556938
 21
-362.00891461100048
 31
0.0
  0
CIRCLE
  8
SIZE
  6
CONTINUOUS
 62
    30
 10
572.72809705556938
 20
-336.96439941199998
 30
0.0
 40
6.0
  0
LINE
  8
SIZE
  6
CONTINUOUS
 62
    30
 10
572.72809705556938
 20
-336.96439941199998
 30
0.0
 11
572.72809705556938
 21
-324.96439941199998
 31
0.0
  0
CIRCLE
  8
SIZE
  6
CONTINUOUS
 62
    30
 10
572.72809705556938
 20
-362.00891461100048
 30
0.0
 40
6.0
  0
LINE
  8
SIZE
  6
CONTINUOUS
 62
    30
 10
572.72809705556938
 20
-362.00891461100048
 30
0.0
 11
572.72809705556938
 21
-374.00891461100048
 31
0.0
  0
TEXT
  8
SIZE
  6
CONTINUOUS
 62
    30
 10
547.72809705556915
 20
-504.26605746814352
 30
0.0
 40
64.0
  1
25
 50
90.0
 41
0.9
 72
     1
 11
547.72809705556915
 21
-457.63748603957208
 31
0.0
  0
POINT
  8
DEFPOINTS
  6
CONTINUOUS
 62
    30
 10
20.0
 20
-362.00891461100059
 30
0.0
  0
POINT
  8
DEFPOINTS
  6
CONTINUOUS
 62
    30
 10
258.31133815520047
 20
-336.96439941199998
 30
0.0
  0
POINT
  8
DEFPOINTS
  6
CONTINUOUS
 62
    30
 10
572.72809705556938
 20
-336.96439941199998
 30
0.0
  0
TEXT
  8
NOTE
  6
CONTINUOUS
 62
     4
 10
455.5771009166092
 20
41.667353777844198
 30
0.0
 40
64.0
  1
AH
 41
0.9
  0
LINE
  8
NOTE
  6
CONTINUOUS
 62
     4
 10
455.48710091660922
 20
28.86735377784424
 30
0.0
 11
551.5771009166092
 21
28.86735377784424
 31
0.0
  0
LINE
  8
NOTE
  6
CONTINUOUS
 62
     4
 10
250.04555011495191
 20
-132.42478348903609
 30
0.0
 11
226.0
 21
-142.0
 31
0.0
  0
LINE
  8
NOTE
  6
CONTINUOUS
 62
     4
 10
226.0
 20
-142.0
 30
0.0
 11
242.03641837822329
 21
-121.6848200312898
 31
0.0
  0
LINE
  8
NOTE
  6
CONTINUOUS
 62
     4
 10
226.0
 20
-142.0
 30
0.0
 11
266.08196849317528
 21
-112.10960352032581
 31
0.0
  0
LINE
  8
NOTE
  6
CONTINUOUS
 62
     4
 10
266.08196849317511
 20
-112.10960352032581
 30
0.0
 11
455.12710091660921
 21
28.86735377784424
 31
0.0
  0
LINE
  8
NOTE
  6
CONTINUOUS
 62
     4
 10
455.12710091660921
 20
28.86735377784424
 30
0.0
 11
455.48710091660922
 21
28.86735377784424
 31
0.0
  0
TEXT
  8
NOTE
  6
CONTINUOUS
 62
     4
 10
386.54450756629922
 20
-614.16301646029569
 30
0.0
 40
64.0
  1
D φ21.7
 41
0.9
  0
LINE
  8
NOTE
  6
CONTINUOUS
 62
     4
 10
386.45450756629918
 20
-626.96301646029565
 30
0.0
 11
723.91593613772784
 21
-626.96301646029553
 31
0.0
  0
LINE
  8
NOTE
  6
CONTINUOUS
 62
     4
 10
16.822836822614139
 20
-381.67780916057291
 30
0.0
 11
0.0
 21
-362.00891461100048
 31
0.0
  0
LINE
  8
NOTE
  6
CONTINUOUS
 62
     4
 10
0.0
 20
-362.00891461100048
 30
0.0
 11
24.403464320249778
 21
-370.63122176934252
 31
0.0
  0
LINE
  8
NOTE
  6
CONTINUOUS
 62
     4
 10
0.0
 20
-362.00891461100048
 30
0.0
 11
41.226301142863917
 21
-390.30011631891489
 31
0.0
  0
LINE
  8
NOTE
  6
CONTINUOUS
 62
     4
 10
41.226301142863861
 20
-390.30011631891489
 30
0.0
 11
386.09450756629923
 21
-626.96301646029565
 31
0.0
  0
LINE
  8
NOTE
  6
CONTINUOUS
 62
     4
 10
386.09450756629923
 20
-626.96301646029565
 30
0.0
 11
386.45450756629918
 21
-626.96301646029565
 31
0.0
  0
LINE
  8
OUTLINE
  6
CONTINUOUS
 62
     3
 10
-330.0
 20
-249.0
 30
0.0
 11
-330.0
 21
-57.0
 31
0.0
  0
LINE
  8
OUTLINE
  6
CONTINUOUS
 62
     3
 10
-246.0
 20
-257.0
 30
0.0
 11
-330.0
 21
-249.0
 31
0.0
  0
LINE
  8
OUTLINE
  6
CONTINUOUS
 62
     3
 10
-246.0
 20
-49.0
 30
0.0
 11
-330.0
 21
-57.0
 31
0.0
  0
LINE
  8
OUTLINE
  6
CONTINUOUS
 62
     3
 10
329.5
 20
-249.0
 30
0.0
 11
329.5
 21
-57.0
 31
0.0
  0
LINE
  8
OUTLINE
  6
CONTINUOUS
 62
     3
 10
244.5
 20
-49.0
 30
0.0
 11
329.5
 21
-57.0
 31
0.0
  0
LINE
  8
OUTLINE
  6
CONTINUOUS
 62
     3
 10
244.5
 20
-257.0
 30
0.0
 11
329.5
 21
-249.0
 31
0.0
  0
LINE
  8
OUTLINE
  6
CONTINUOUS
 62
     3
 10
0.0
 20
-364.99415902920072
 30
0.0
 11
-0.0442179057999965
 21
-364.99396347840059
 31
0.0
  0
LINE
  8
OUTLINE
  6
CONTINUOUS
 62
     3
 10
-0.0442179057999965
 20
-364.99396347840059
 30
0.0
 11
-0.0878120114002741
 21
-364.99338787480048
 31
0.0
  0
LINE
  8
OUTLINE
  6
CONTINUOUS
 62
     3
 10
-0.0878120114002741
 20
-364.99338787480048
 30
0.0
 11
-0.134523254800115
 21
-364.99234903940078
 31
0.0
  0
LINE
  8
OUTLINE
  6
CONTINUOUS
 62
     3
 10
-0.134523254800115
 20
-364.99234903940078
 30
0.0
 11
-0.1854268882007091
 21
-364.99071953300052
 31
0.0
  0
LINE
  8
OUTLINE
  6
CONTINUOUS
 62
     3
 10
-0.1854268882007091
 20
-364.99071953300052
 30
0.0
 11
-0.2394181552008376
 21
-364.9884236310005
 31
0.0
  0
LINE
  8
OUTLINE
  6
CONTINUOUS
 62
     3
 10
-0.2394181552008376
 20
-364.9884236310005
 30
0.0
 11
-0.2970692178005265
 21
-364.98532621520059
 31
0.0
  0
LINE
  8
OUTLINE
  6
CONTINUOUS
 62
     3
 10
-0.2970692178005265
 20
-364.98532621520059
 30
0.0
 11
-0.358390534600403
 21
-364.98129810600051
 31
0.0
  0
LINE
  8
OUTLINE
  6
CONTINUOUS
 62
     3
 10
-0.358390534600403
 20
-364.98129810600051
 30
0.0
 11
-0.4230382424002528
 21
-364.97623075140052
 31
0.0
  0
LINE
  8
OUTLINE
  6
CONTINUOUS
 62
     3
 10
-0.4230382424002528
 20
-364.97623075140052
 30
0.0
 11
-0.490600701200492
 21
-364.97003190820078
 31
0.0
  0
LINE
  8
OUTLINE
  6
CONTINUOUS
 62
     3
 10
-0.490600701200492
 20
-364.97003190820078
 30
0.0
 11
-0.5616651082000317
 21
-364.96251210700058
 31
0.0
  0
LINE
  8
OUTLINE
  6
CONTINUOUS
 62
     3
 10
-0.5616651082000317
 20
-364.96251210700058
 30
0.0
 11
-0.636776488599935
 21
-364.95344483400061
 31
0.0
  0
LINE
  8
OUTLINE
  6
CONTINUOUS
 62
     3
 10
-0.636776488599935
 20
-364.95344483400061
 30
0.0
 11
-0.7160151366006176
 21
-364.94262569300071
 31
0.0
  0
LINE
  8
OUTLINE
  6
CONTINUOUS
 62
     3
 10
-0.7160151366006176
 20
-364.94262569300071
 30
0.0
 11
-0.7997900752006899
 21
-364.92977812240048
 31
0.0
  0
LINE
  8
OUTLINE
  6
CONTINUOUS
 62
     3
 10
-0.7997900752006899
 20
-364.92977812240048
 30
0.0
 11
-0.8877594722007416
 21
-364.91471622520072
 31
0.0
  0
LINE
  8
OUTLINE
  6
CONTINUOUS
 62
     3
 10
-0.8877594722007416
 20
-364.91471622520072
 30
0.0
 11
-0.9796298690007461
 21
-364.89725247280052
 31
0.0
  0
LINE
  8
OUTLINE
  6
CONTINUOUS
 62
     3
 10
-0.9796298690007461
 20
-364.89725247280052
 30
0.0
 11
-1.07566864960063
 21
-364.87708202220063
 31
0.0
  0
LINE
  8
OUTLINE
  6
CONTINUOUS
 62
     3
 10
-1.07566864960063
 20
-364.87708202220063
 30
0.0
 11
-1.17375921600069
 21
-364.85443569660049
 31
0.0
  0
LINE
  8
OUTLINE
  6
CONTINUOUS
 62
     3
 10
-1.17375921600069
 20
-364.85443569660049
 30
0.0
 11
-1.280712621200109
 21
-364.82735416100053
 31
0.0
  0
LINE
  8
OUTLINE
  6
CONTINUOUS
 62
     3
 10
-1.280712621200109
 20
-364.82735416100053
 30
0.0
 11
-1.403305661400736
 21
-364.79319364140048
 31
0.0
  0
LINE
  8
OUTLINE
  6
CONTINUOUS
 62
     3
 10
-1.403305661400736
 20
-364.79319364140048
 30
0.0
 11
-1.538815946600153
 21
-364.75147397380073
 31
0.0
  0
LINE
  8
OUTLINE
  6
CONTINUOUS
 62
     3
 10
-10.833640872400791
 20
-341.20977849780058
 30
0.0
 11
-11.325929653800809
 21
-341.24456666380053
 31
0.0
  0
LINE
  8
OUTLINE
  6
CONTINUOUS
 62
     3
 10
-11.325929653800809
 20
-341.24456666380053
 30
0.0
 11
-11.6991349462005
 21
-341.28235352520062
 31
0.0
  0
LINE
  8
OUTLINE
  6
CONTINUOUS
 62
     3
 10
-11.6991349462005
 20
-341.28235352520062
 30
0.0
 11
-11.92384082219996
 21
-341.32113101660059
 31
0.0
  0
LINE
  8
OUTLINE
  6
CONTINUOUS
 62
     3
 10
-11.92384082219996
 20
-341.32113101660059
 30
0.0
 11
-12.0
 21
-341.36039769060051
 31
0.0
  0
LINE
  8
OUTLINE
  6
CONTINUOUS
 62
     3
 10
1.5388159464000639
 20
-364.75147397380073
 30
0.0
 11
1.4057499769996871
 21
-364.79247821280057
 31
0.0
  0
LINE
  8
OUTLINE
  6
CONTINUOUS
 62
     3
 10
1.4057499769996871
 20
-364.79247821280057
 30
0.0
 11
1.28573285839957
 21
-364.82602109440052
 31
0.0
  0
LINE
  8
OUTLINE
  6
CONTINUOUS
 62
     3
 10
1.28573285839957
 20
-364.82602109440052
 30
0.0
 11
1.181644628599315
 21
-364.85252459280082
 31
0.0
  0
LINE
  8
OUTLINE
  6
CONTINUOUS
 62
     3
 10
1.181644628599315
 20
-364.85252459280082
 30
0.0
 11
1.0861976163996589
 21
-364.8747506672006
 31
0.0
  0
LINE
  8
OUTLINE
  6
CONTINUOUS
 62
     3
 10
1.0861976163996589
 20
-364.8747506672006
 30
0.0
 11
0.9921485405993735
 21
-364.89473463520051
 31
0.0
  0
LINE
  8
OUTLINE
  6
CONTINUOUS
 62
     3
 10
0.9921485405993735
 20
-364.89473463520051
 30
0.0
 11
0.9015227249992677
 21
-364.91221319480047
 31
0.0
  0
LINE
  8
OUTLINE
  6
CONTINUOUS
 62
     3
 10
0.9015227249992677
 20
-364.91221319480047
 30
0.0
 11
0.8135474565997356
 21
-364.92752912840058
 31
0.0
  0
LINE
  8
OUTLINE
  6
CONTINUOUS
 62
     3
 10
0.8135474565997356
 20
-364.92752912840058
 30
0.0
 11
0.7293399221998698
 21
-364.94067934920059
 31
0.0
  0
LINE
  8
OUTLINE
  6
CONTINUOUS
 62
     3
 10
0.7293399221998698
 20
-364.94067934920059
 30
0.0
 11
0.6502026493999438
 21
-364.95170242240039
 31
0.0
  0
LINE
  8
OUTLINE
  6
CONTINUOUS
 62
     3
 10
0.6502026493999438
 20
-364.95170242240039
 30
0.0
 11
0.5748174097998344
 21
-364.96100762220061
 31
0.0
  0
LINE
  8
OUTLINE
  6
CONTINUOUS
 62
     3
 10
0.5748174097998344
 20
-364.96100762220061
 30
0.0
 11
0.5021783899992443
 21
-364.96887679400049
 31
0.0
  0
LINE
  8
OUTLINE
  6
CONTINUOUS
 62
     3
 10
0.5021783899992443
 20
-364.96887679400049
 30
0.0
 11
0.4328041387998383
 21
-364.97539186620048
 31
0.0
  0
LINE
  8
OUTLINE
  6
CONTINUOUS
 62
     3
 10
0.4328041387998383
 20
-364.97539186620048
 30
0.0
 11
0.3670655815994905
 21
-364.98066710320052
 31
0.0
  0
LINE
  8
OUTLINE
  6
CONTINUOUS
 62
     3
 10
0.3670655815994905
 20
-364.98066710320052
 30
0.0
 11
0.3046711613997104
 21
-364.98486794500047
 31
0.0
  0
LINE
  8
OUTLINE
  6
CONTINUOUS
 62
     3
 10
0.3046711613997104
 20
-364.98486794500047
 30
0.0
 11
0.2455491887994867
 21
-364.98812594400079
 31
0.0
  0
LINE
  8
OUTLINE
  6
CONTINUOUS
 62
     3
 10
0.2455491887994867
 20
-364.98812594400079
 30
0.0
 11
0.189960849599629
 21
-364.99054921360039
 31
0.0
  0
LINE
  8
OUTLINE
  6
CONTINUOUS
 62
     3
 10
0.189960849599629
 20
-364.99054921360039
 30
0.0
 11
0.1373617429999285
 21
-364.99227182840048
 31
0.0
  0
LINE
  8
OUTLINE
  6
CONTINUOUS
 62
     3
 10
0.1373617429999285
 20
-364.99227182840048
 30
0.0
 11
0.0892630270000154
 21
-364.99336217680047
 31
0.0
  0
LINE
  8
OUTLINE
  6
CONTINUOUS
 62
     3
 10
0.0892630270000154
 20
-364.99336217680047
 30
0.0
 11
0.0448357331997613
 21
-364.9939579824005
 31
0.0
  0
LINE
  8
OUTLINE
  6
CONTINUOUS
 62
     3
 10
0.0448357331997613
 20
-364.9939579824005
 30
0.0
 11
0.0
 21
-364.99415902920072
 31
0.0
  0
LINE
  8
OUTLINE
  6
CONTINUOUS
 62
     3
 10
1.5388159464000639
 20
-364.75147397380073
 30
0.0
 11
10.919042099799301
 21
-361.71731673300047
 31
0.0
  0
LINE
  8
OUTLINE
  6
CONTINUOUS
 62
     3
 10
10.919042108599569
 20
-361.71731673020071
 30
0.0
 11
11.024768758999929
 21
-361.67933693180049
 31
0.0
  0
LINE
  8
OUTLINE
  6
CONTINUOUS
 62
     3
 10
11.024768758999929
 20
-361.67933693180049
 30
0.0
 11
11.144432658799809
 21
-361.62627036960049
 31
0.0
  0
LINE
  8
OUTLINE
  6
CONTINUOUS
 62
     3
 10
11.144432658799809
 20
-361.62627036960049
 30
0.0
 11
11.27535910539973
 21
-361.55391398260048
 31
0.0
  0
LINE
  8
OUTLINE
  6
CONTINUOUS
 62
     3
 10
11.27535910539973
 20
-361.55391398260048
 30
0.0
 11
11.41625513419967
 21
-361.45591384500051
 31
0.0
  0
LINE
  8
OUTLINE
  6
CONTINUOUS
 62
     3
 10
11.41625513419967
 20
-361.45591384500051
 30
0.0
 11
11.565157884199831
 21
-361.32307612860052
 31
0.0
  0
LINE
  8
OUTLINE
  6
CONTINUOUS
 62
     3
 10
11.565157884199831
 20
-361.32307612860052
 30
0.0
 11
11.706666088199199
 21
-361.15684979140048
 31
0.0
  0
LINE
  8
OUTLINE
  6
CONTINUOUS
 62
     3
 10
11.706666088199199
 20
-361.15684979140048
 30
0.0
 11
11.82880373339958
 21
-360.96075157860048
 31
0.0
  0
LINE
  8
OUTLINE
  6
CONTINUOUS
 62
     3
 10
11.82880373339958
 20
-360.96075157860048
 30
0.0
 11
11.92238897679999
 21
-360.74024954960078
 31
0.0
  0
LINE
  8
OUTLINE
  6
CONTINUOUS
 62
     3
 10
11.92238897679999
 20
-360.74024954960078
 30
0.0
 11
11.98016035519959
 21
-360.50639701560073
 31
0.0
  0
LINE
  8
OUTLINE
  6
CONTINUOUS
 62
     3
 10
11.98016035519959
 20
-360.50639701560073
 30
0.0
 11
12.0
 21
-360.26250531480048
 31
0.0
  0
LINE
  8
OUTLINE
  6
CONTINUOUS
 62
     3
 10
10.82737074779925
 20
-341.41546894300052
 30
0.0
 11
10.84999126319963
 21
-340.67340648940069
 31
0.0
  0
LINE
  8
OUTLINE
  6
CONTINUOUS
 62
     3
 10
12.0
 20
-341.36039769060051
 30
0.0
 11
12.0
 21
-360.26250531480048
 31
0.0
  0
LINE
  8
OUTLINE
  6
CONTINUOUS
 62
     3
 10
10.849999999999451
 20
-340.67283327700068
 30
0.0
 11
10.849999999999451
 21
-336.96439941200049
 31
0.0
  0
LINE
  8
OUTLINE
  6
CONTINUOUS
 62
     3
 10
-10.85000000000036
 20
-340.67283327700068
 30
0.0
 11
-10.85000000000036
 21
-336.96439941200049
 31
0.0
  0
LINE
  8
OUTLINE
  6
CONTINUOUS
 62
     3
 10
-12.0
 20
-341.36039769060051
 30
0.0
 11
-12.0
 21
-360.26250531480048
 31
0.0
  0
LINE
  8
OUTLINE
  6
CONTINUOUS
 62
     3
 10
-10.82737074800025
 20
-341.41546894300052
 30
0.0
 11
-10.84999126340063
 21
-340.67340648940069
 31
0.0
  0
LINE
  8
OUTLINE
  6
CONTINUOUS
 62
     3
 10
-12.0
 20
-360.26250531480048
 30
0.0
 11
-11.98085433980032
 21
-360.50212083520063
 31
0.0
  0
LINE
  8
OUTLINE
  6
CONTINUOUS
 62
     3
 10
-11.98085433980032
 20
-360.50212083520063
 30
0.0
 11
-11.92409611540006
 21
-360.73510229180079
 31
0.0
  0
LINE
  8
OUTLINE
  6
CONTINUOUS
 62
     3
 10
-11.92409611540006
 20
-360.73510229180079
 30
0.0
 11
-11.829751290400051
 21
-360.9589314910005
 31
0.0
  0
LINE
  8
OUTLINE
  6
CONTINUOUS
 62
     3
 10
-11.829751290400051
 20
-360.9589314910005
 30
0.0
 11
-11.70540373400036
 21
-361.15856652340051
 31
0.0
  0
LINE
  8
OUTLINE
  6
CONTINUOUS
 62
     3
 10
-11.70540373400036
 20
-361.15856652340051
 30
0.0
 11
-11.56295813320048
 21
-361.3253083890005
 31
0.0
  0
LINE
  8
OUTLINE
  6
CONTINUOUS
 62
     3
 10
-11.56295813320048
 20
-361.3253083890005
 30
0.0
 11
-11.41374153820016
 21
-361.4578738328006
 31
0.0
  0
LINE
  8
OUTLINE
  6
CONTINUOUS
 62
     3
 10
-11.41374153820016
 20
-361.4578738328006
 30
0.0
 11
-11.272438302400589
 21
-361.55571011260082
 31
0.0
  0
LINE
  8
OUTLINE
  6
CONTINUOUS
 62
     3
 10
-11.272438302400589
 20
-361.55571011260082
 30
0.0
 11
-11.141592825400039
 21
-361.62766584920053
 31
0.0
  0
LINE
  8
OUTLINE
  6
CONTINUOUS
 62
     3
 10
-11.141592825400039
 20
-361.62766584920053
 30
0.0
 11
-11.022912069800441
 21
-361.6800722486006
 31
0.0
  0
LINE
  8
OUTLINE
  6
CONTINUOUS
 62
     3
 10
-11.022912069800441
 20
-361.6800722486006
 30
0.0
 11
-10.91904212100053
 21
-361.71731672620069
 31
0.0
  0
LINE
  8
OUTLINE
  6
CONTINUOUS
 62
     3
 10
12.0
 20
-341.36039769060051
 30
0.0
 11
11.92384082219996
 21
-341.32113101660059
 31
0.0
  0
LINE
  8
OUTLINE
  6
CONTINUOUS
 62
     3
 10
11.92384082219996
 20
-341.32113101660059
 30
0.0
 11
11.699134946199591
 21
-341.28235352520062
 31
0.0
  0
LINE
  8
OUTLINE
  6
CONTINUOUS
 62
     3
 10
11.699134946199591
 20
-341.28235352520062
 30
0.0
 11
11.325929653599809
 21
-341.24456666380053
 31
0.0
  0
LINE
  8
OUTLINE
  6
CONTINUOUS
 62
     3
 10
11.325929653599809
 20
-341.24456666380053
 30
0.0
 11
10.833640872199791
 21
-341.20977849780058
 31
0.0
  0
LINE
  8
OUTLINE
  6
CONTINUOUS
 62
     3
 10
-1.538815946600153
 20
-364.75147397380073
 30
0.0
 11
-10.91904209980021
 21
-361.71731673300047
 31
0.0
  0
ENDSEC
  0
EOF
