  0
SECTION
  2
HEADER
  9
$ACADVER
  1
AC1009
  9
$DWGCODEPAGE
  3
dos932
  9
$INSBASE
 10
0.0
 20
0.0
 30
0.0
  9
$EXTMIN
 10
-787.63731273081976
 20
-517.18138486284442
 30
-0.000762485415251
  9
$EXTMAX
 10
1135.2310297605929
 20
774.49036468110353
 30
0.0030525028975603
  9
$LIMMIN
 10
-2970.0
 20
-2100.0
  9
$LIMMAX
 10
2970.0
 20
2100.0
  9
$ORTHOMODE
 70
     1
  9
$REGENMODE
 70
     1
  9
$FILLMODE
 70
     1
  9
$QTEXTMODE
 70
     0
  9
$MIRRTEXT
 70
     0
  9
$LTSCALE
 40
20.0
  9
$ATTMODE
 70
     1
  9
$TEXTSIZE
 40
64.0
  9
$TRACEWID
 40
0.05
  9
$TEXTSTYLE
  7
STANDARD
  9
$CLAYER
  8
SIZE
  9
$CELTYPE
  6
CONTINUOUS
  9
$CECOLOR
 62
     7
  9
$DIMSCALE
 40
1.0
  9
$DIMASZ
 40
12.0
  9
$DIMEXO
 40
20.0
  9
$DIMDLI
 40
200.0
  9
$DIMRND
 40
0.0
  9
$DIMDLE
 40
0.0
  9
$DIMEXE
 40
20.0
  9
$DIMTP
 40
0.0
  9
$DIMTM
 40
0.0
  9
$DIMTXT
 40
64.0
  9
$DIMCEN
 40
0.09
  9
$DIMTSZ
 40
0.0
  9
$DIMTOL
 70
     0
  9
$DIMLIM
 70
     0
  9
$DIMTIH
 70
     0
  9
$DIMTOH
 70
     0
  9
$DIMSE1
 70
     0
  9
$DIMSE2
 70
     0
  9
$DIMTAD
 70
     1
  9
$DIMZIN
 70
     8
  9
$DIMBLK
  1

  9
$DIMASO
 70
     1
  9
$DIMSHO
 70
     0
  9
$DIMPOST
  1

  9
$DIMAPOST
  1

  9
$DIMALT
 70
     0
  9
$DIMALTD
 70
     2
  9
$DIMALTF
 40
25.399999999999999
  9
$DIMLFAC
 40
1.0
  9
$DIMTOFL
 70
     1
  9
$DIMTVP
 40
0.0
  9
$DIMTIX
 70
     1
  9
$DIMSOXD
 70
     0
  9
$DIMSAH
 70
     0
  9
$DIMBLK1
  1

  9
$DIMBLK2
  1

  9
$DIMSTYLE
  2
STANDARD
  9
$DIMCLRD
 70
     7
  9
$DIMCLRE
 70
     7
  9
$DIMCLRT
 70
     7
  9
$DIMTFAC
 40
1.0
  9
$DIMGAP
 40
25.0
  9
$LUNITS
 70
     2
  9
$LUPREC
 70
     4
  9
$SKETCHINC
 40
0.1
  9
$FILLETRAD
 40
3.0
  9
$AUNITS
 70
     1
  9
$AUPREC
 70
     3
  9
$MENU
  1
ACAD
  9
$ELEVATION
 40
0.0
  9
$PELEVATION
 40
0.0
  9
$THICKNESS
 40
0.0
  9
$LIMCHECK
 70
     0
  9
$CHAMFERA
 40
0.0
  9
$CHAMFERB
 40
0.0
  9
$SKPOLY
 70
     0
  9
$TDCREATE
 40
2453019.62301037
  9
$TDUPDATE
 40
2459268.67562066
  9
$TDINDWG
 40
1.7216363542
  9
$TDUSRTIMER
 40
1.7216363542
  9
$USRTIMER
 70
     1
  9
$ANGBASE
 50
0.0
  9
$ANGDIR
 70
     0
  9
$PDMODE
 70
     3
  9
$PDSIZE
 40
-2.0
  9
$PLINEWID
 40
0.0
  9
$SPLFRAME
 70
     0
  9
$SPLINETYPE
 70
     6
  9
$SPLINESEGS
 70
     8
  9
$SURFTAB1
 70
     6
  9
$SURFTAB2
 70
     6
  9
$SURFTYPE
 70
     6
  9
$SURFU
 70
     6
  9
$SURFV
 70
     6
  9
$UCSNAME
  2

  9
$UCSORG
 10
0.0
 20
0.0
 30
0.0
  9
$UCSXDIR
 10
1.0
 20
0.0
 30
0.0
  9
$UCSYDIR
 10
0.0
 20
1.0
 30
0.0
  9
$PUCSNAME
  2

  9
$PUCSORG
 10
0.0
 20
0.0
 30
0.0
  9
$PUCSXDIR
 10
1.0
 20
0.0
 30
0.0
  9
$PUCSYDIR
 10
0.0
 20
1.0
 30
0.0
  9
$USERI1
 70
     0
  9
$USERI2
 70
     0
  9
$USERI3
 70
     0
  9
$USERI4
 70
     0
  9
$USERI5
 70
     0
  9
$USERR1
 40
20.0
  9
$USERR2
 40
0.0
  9
$USERR3
 40
0.0
  9
$USERR4
 40
0.0
  9
$USERR5
 40
0.0
  9
$WORLDVIEW
 70
     1
  9
$SHADEDGE
 70
     3
  9
$SHADEDIF
 70
    70
  9
$TILEMODE
 70
     1
  9
$MAXACTVP
 70
    48
  9
$PINSBASE
 10
0.0
 20
0.0
 30
0.0
  9
$PLIMCHECK
 70
     0
  9
$PEXTMIN
 10
-100000000000000000000.0
 20
-100000000000000000000.0
 30
-100000000000000000000.0
  9
$PEXTMAX
 10
100000000000000000000.0
 20
100000000000000000000.0
 30
100000000000000000000.0
  9
$PLIMMIN
 10
0.0
 20
0.0
  9
$PLIMMAX
 10
12.0
 20
9.0
  9
$UNITMODE
 70
     0
  9
$VISRETAIN
 70
     0
  9
$PLINEGEN
 70
     0
  9
$PSLTSCALE
 70
     0
  9
$TREEDEPTH
 70
  3020
  9
$ATTDIA
 70
     0
  9
$ATTREQ
 70
     1
  9
$BLIPMODE
 70
     1
  9
$COORDS
 70
     1
  9
$DRAGMODE
 70
     2
  9
$OSMODE
 70
     0
  9
$HANDLING
 70
     0
  9
$HANDSEED
  5
1062E
  0
ENDSEC
  0
SECTION
  2
TABLES
  0
TABLE
  2
LTYPE
 70
     2
  0
LTYPE
  2
CONTINUOUS
 70
     0
  3
実線
 72
    65
 73
     0
 40
0.0
  0
LTYPE
  2
DASHDOT
 70
     0
  3
____ _ ____ _ ____ _ ____ _ ____ _ ____ _ ____
 72
    65
 73
     4
 40
5.5
 49
4.0
 49
-0.6
 49
0.3
 49
-0.6
  0
ENDTAB
  0
TABLE
  2
LAYER
 70
    12
  0
LAYER
  2
0
 70
     0
 62
     7
  6
CONTINUOUS
  0
LAYER
  2
BASIS
 70
     0
 62
     6
  6
DASHDOT
  0
LAYER
  2
OUTLINE
 70
     0
 62
     3
  6
CONTINUOUS
  0
LAYER
  2
DETAIL
 70
     0
 62
     5
  6
CONTINUOUS
  0
LAYER
  2
SIZE
 70
     0
 62
    30
  6
CONTINUOUS
  0
LAYER
  2
ARRANGE
 70
     0
 62
     1
  6
CONTINUOUS
  0
LAYER
  2
DEFPOINTS
 70
     0
 62
     7
  6
CONTINUOUS
  0
LAYER
  2
ETC
 70
     0
 62
    61
  6
CONTINUOUS
  0
LAYER
  2
FIX
 70
     0
 62
    11
  6
CONTINUOUS
  0
LAYER
  2
NOTE
 70
     0
 62
     4
  6
CONTINUOUS
  0
LAYER
  2
SERVICESPACE
 70
    64
 62
     2
  6
DASHDOT
  0
LAYER
  2
SYMBOLLINE
 70
    64
 62
    15
  6
CONTINUOUS
  0
ENDTAB
  0
TABLE
  2
STYLE
 70
     1
  0
STYLE
  2
STANDARD
 70
     0
 40
64.0
 41
0.9
 50
0.0
 71
     0
 42
64.0
  3
SIMPLEX.shx
  4
BIGFONT.shx
  0
ENDTAB
  0
TABLE
  2
APPID
 70
    19
  0
APPID
  2
ACAD
 70
     0
  0
APPID
  2
AUTOCAD_POSTSCRIPT_FIGURE
 70
     0
  0
APPID
  2
ACAD_EXEMPT_FROM_CAD_STANDARDS
 70
     0
  0
APPID
  2
ACAD_PSEXT
 70
     0
  0
APPID
  2
ACAUTHENVIRON
 70
     0
  0
APPID
  2
GENIUS_GENOENT_13
 70
     0
  0
APPID
  2
GENIUS_GENCFG_13
 70
     0
  0
APPID
  2
GENIUS_GENCFG0_13
 70
     0
  0
APPID
  2
GENIUS_GENCFG1_13
 70
     0
  0
APPID
  2
GENIUS_GENCFG2_13
 70
     0
  0
APPID
  2
GENIUS_GENCFG3_13
 70
     0
  0
APPID
  2
GENIUS_GENCFG4_13
 70
     0
  0
APPID
  2
GENIUS_GEVCFG0_13
 70
     0
  0
APPID
  2
CONTENTBLOCKICON
 70
     0
  0
APPID
  2
CONTENTBLOCKDESCRIPTION
 70
     0
  0
APPID
  2
ACAD_NAV_VCDISPLAY
 70
     0
  0
APPID
  2
ACAD_MLEADERVER
 70
     0
  0
APPID
  2
ACDBDYNAMICBLOCKTRUENAME
 70
     0
  0
APPID
  2
ACDBDYNAMICBLOCKGUID
 70
     0
  0
ENDTAB
  0
TABLE
  2
DIMSTYLE
 70
     1
  0
DIMSTYLE
  2
STANDARD
 70
     0
  3

  4

  5
_ORIGIN
  6

  7

 40
1.0
 41
12.0
 42
20.0
 43
200.0
 44
20.0
 45
0.0
 46
0.0
 47
0.0
 48
0.0
140
64.0
141
0.09
142
0.0
143
25.399999999999999
144
1.0
145
0.0
146
1.0
147
25.0
 71
     0
 72
     0
 73
     0
 74
     0
 75
     0
 76
     0
 77
     1
 78
     8
170
     0
171
     2
172
     1
173
     0
174
     1
175
     0
176
     7
177
     7
178
     7
  0
ENDTAB
  0
TABLE
  2
VIEW
 70
     1
  0
VIEW
  2
ALL
 70
     0
 40
4282.6198079999986
 10
0.0
 20
41.309904000000003
 41
5940.0
 11
0.0
 21
0.0
 31
1.0
 12
0.0
 22
0.0
 32
0.0
 42
50.0
 43
0.0
 44
0.0
 50
0.0
 71
     0
  0
ENDTAB
  0
TABLE
  2
UCS
 70
     0
  0
ENDTAB
  0
TABLE
  2
VPORT
 70
     1
  0
VPORT
  2
*ACTIVE
 70
     0
 10
0.0
 20
0.0
 11
1.0
 21
1.0
 12
173.79685851488671
 22
128.65448990912961
 13
0.0
 23
0.0
 14
1.0
 24
1.0
 15
0.0
 25
0.0
 16
0.0
 26
0.0
 36
1.0
 17
0.0
 27
0.0
 37
0.0
 40
1165.212808044638
 41
1.8851435705368289
 42
50.0
 43
0.0
 44
0.0
 50
0.0
 51
0.0
 71
     0
 72
  1000
 73
     1
 74
     3
 75
     0
 76
     0
 77
     0
 78
     0
  0
ENDTAB
  0
ENDSEC
  0
SECTION
  2
BLOCKS
  0
BLOCK
  8
0
  2
_ORIGIN
 70
     0
 10
0.0
 20
0.0
 30
0.0
  3
_ORIGIN
  1
_ORIGIN
  0
CIRCLE
  8
SIZE
  6
CONTINUOUS
 62
    30
 10
0.0
 20
0.0
 30
0.0
 40
0.5
  0
LINE
  8
SIZE
  6
CONTINUOUS
 62
    30
 10
0.0
 20
0.0
 30
0.0
 11
-1.0
 21
0.0
 31
0.0
  0
ENDBLK
  8
0
  0
ENDSEC
  0
SECTION
  2
ENTITIES
  0
TEXT
  8
ETC
  6
CONTINUOUS
 62
    61
 10
476.53119285845668
 20
648.30423537389697
 30
0.0
 40
64.0
  1
BFS-100SXA2_6
 41
0.9
  0
TEXT
  8
ETC
  6
CONTINUOUS
 62
    61
 10
474.32278185845689
 20
547.66318937389678
 30
0.0
 40
64.0
  1
産業扇
 41
0.9
  0
TEXT
  8
ETC
  6
CONTINUOUS
 62
    61
 10
614.56705701569513
 20
462.11922610939968
 30
0.0
 40
50.0
  1
BFS-100SXA2
 41
0.9
  0
CIRCLE
  8
ARRANGE
  6
CONTINUOUS
 62
     1
 10
0.0
 20
0.0
 30
0.0
 40
40.0
  0
LINE
  8
BASIS
  6
DASHDOT
 62
     6
 10
0.0
 20
-359.65281599999997
 30
0.0
 11
0.0
 21
359.65281599999997
 31
0.0
  0
LINE
  8
BASIS
  6
DASHDOT
 62
     6
 10
-268.47830199999999
 20
0.0
 30
0.0
 11
268.47830199999999
 21
0.0
 31
0.0
  0
POINT
  8
ARRANGE
  6
CONTINUOUS
 62
     1
 10
0.0
 20
0.0
 30
0.0
  0
LINE
  8
NOTE
  6
CONTINUOUS
 62
     4
 10
211.0
 20
226.40000000000001
 30
0.0
 11
254.5
 21
226.40000000000001
 31
0.0
  0
LINE
  8
NOTE
  6
CONTINUOUS
 62
     4
 10
234.5
 20
246.0
 30
0.0
 11
234.5
 21
206.5
 31
0.0
  0
LINE
  8
DETAIL
  6
CONTINUOUS
 62
     5
 10
229.0
 20
206.0
 30
0.0
 11
205.0
 21
206.0
 31
0.0
  0
LINE
  8
DETAIL
  6
CONTINUOUS
 62
     5
 10
254.5
 20
206.0
 30
0.0
 11
240.0
 21
206.0
 31
0.0
  0
LINE
  8
DETAIL
  6
CONTINUOUS
 62
     5
 10
254.5
 20
246.5
 30
0.0
 11
254.5
 21
206.0
 31
0.0
  0
POINT
  8
DEFPOINTS
  6
CONTINUOUS
 62
    30
 10
254.5
 20
226.40000000000001
 30
0.0
  0
POINT
  8
DEFPOINTS
  6
CONTINUOUS
 62
    30
 10
254.5
 20
-225.59999999999999
 30
0.0
  0
POINT
  8
DEFPOINTS
  6
CONTINUOUS
 62
    30
 10
254.5
 20
246.5
 30
0.0
  0
POINT
  8
DEFPOINTS
  6
CONTINUOUS
 62
    30
 10
254.5
 20
-246.5
 30
0.0
  0
LINE
  8
DETAIL
  6
CONTINUOUS
 62
     5
 10
229.0
 20
226.40000000000001
 30
0.0
 11
229.0
 21
206.0
 31
0.0
  0
LINE
  8
DETAIL
  6
CONTINUOUS
 62
     5
 10
240.0
 20
226.40000000000001
 30
0.0
 11
240.0
 21
206.0
 31
0.0
  0
ARC
  8
DETAIL
  6
CONTINUOUS
 62
     5
 10
234.5
 20
226.40000000000001
 30
0.0
 40
5.5
 50
0.0
 51
180.0
  0
CIRCLE
  8
FIX
  6
CONTINUOUS
 62
    11
 10
234.5
 20
226.40000000000001
 30
0.0
 40
5.5
  0
POINT
  8
DEFPOINTS
  6
CONTINUOUS
 62
    30
 10
-205.0
 20
-259.0
 30
0.0
  0
LINE
  8
DETAIL
  6
CONTINUOUS
 62
     5
 10
-205.0
 20
259.0
 30
0.0
 11
205.0
 21
259.0
 31
0.0
  0
LINE
  8
DETAIL
  6
CONTINUOUS
 62
     5
 10
-205.0
 20
-259.0
 30
0.0
 11
205.0
 21
-259.5
 31
0.0
  0
LINE
  8
DETAIL
  6
CONTINUOUS
 62
     5
 10
-205.0
 20
259.0
 30
0.0
 11
102.9047620000001
 21
259.5
 31
0.0
  0
LINE
  8
DETAIL
  6
CONTINUOUS
 62
     5
 10
-205.0
 20
-259.0
 30
0.0
 11
102.9047620000001
 21
-259.0
 31
0.0
  0
LINE
  8
DETAIL
  6
CONTINUOUS
 62
     5
 10
254.5
 20
-246.5
 30
0.0
 11
254.5
 21
-206.0
 31
0.0
  0
LINE
  8
NOTE
  6
CONTINUOUS
 62
     4
 10
211.0
 20
-225.59999999999999
 30
0.0
 11
254.5
 21
-225.59999999999999
 31
0.0
  0
LINE
  8
NOTE
  6
CONTINUOUS
 62
     4
 10
234.5
 20
-246.0
 30
0.0
 11
234.5
 21
-206.5
 31
0.0
  0
LINE
  8
DETAIL
  6
CONTINUOUS
 62
     5
 10
229.0
 20
-205.5
 30
0.0
 11
205.0
 21
-205.5
 31
0.0
  0
LINE
  8
DETAIL
  6
CONTINUOUS
 62
     5
 10
254.5
 20
-205.5
 30
0.0
 11
240.0
 21
-205.5
 31
0.0
  0
LINE
  8
DETAIL
  6
CONTINUOUS
 62
     5
 10
229.0
 20
-225.59999999999999
 30
0.0
 11
229.0
 21
-205.5
 31
0.0
  0
LINE
  8
DETAIL
  6
CONTINUOUS
 62
     5
 10
240.0
 20
-225.59999999999999
 30
0.0
 11
240.0
 21
-205.5
 31
0.0
  0
ARC
  8
DETAIL
  6
CONTINUOUS
 62
     5
 10
234.5
 20
-225.59999999999999
 30
0.0
 40
5.5
 50
180.0
 51
0.0
  0
CIRCLE
  8
FIX
  6
CONTINUOUS
 62
    11
 10
234.5
 20
-225.59999999999999
 30
0.0
 40
5.5
  0
POINT
  8
DEFPOINTS
  6
CONTINUOUS
 62
    30
 10
254.5
 20
206.0
 30
0.0
  0
POINT
  8
DEFPOINTS
  6
CONTINUOUS
 62
    30
 10
254.5
 20
-205.5
 30
0.0
  0
POINT
  8
DEFPOINTS
  6
CONTINUOUS
 62
    30
 10
-254.5
 20
247.5
 30
0.0
  0
POINT
  8
DEFPOINTS
  6
CONTINUOUS
 62
    30
 10
254.5
 20
246.5
 30
0.0
  0
POINT
  8
DEFPOINTS
  6
CONTINUOUS
 62
    30
 10
234.5
 20
246.0
 30
0.0
  0
POINT
  8
DEFPOINTS
  6
CONTINUOUS
 62
    30
 10
205.0
 20
-259.5
 30
0.0
  0
LINE
  8
DETAIL
  6
CONTINUOUS
 62
     5
 10
102.9047620000001
 20
259.5
 30
0.0
 11
205.0
 21
259.5
 31
0.0
  0
LINE
  8
DETAIL
  6
CONTINUOUS
 62
     5
 10
102.9047620000001
 20
-259.5
 30
0.0
 11
205.0
 21
-259.5
 31
0.0
  0
LINE
  8
DETAIL
  6
CONTINUOUS
 62
     5
 10
-96.0
 20
-330.0
 30
0.0
 11
96.0
 21
-330.0
 31
0.0
  0
LINE
  8
DETAIL
  6
CONTINUOUS
 62
     5
 10
-102.6823529411765
 20
-259.0
 30
0.0
 11
-96.0
 21
-330.0
 31
0.0
  0
LINE
  8
DETAIL
  6
CONTINUOUS
 62
     5
 10
102.6823529411765
 20
-259.0
 30
0.0
 11
96.0
 21
-330.0
 31
0.0
  0
LINE
  8
DETAIL
  6
CONTINUOUS
 62
     5
 10
-96.761904999999842
 20
-322.0
 30
0.0
 11
96.761904999999842
 21
-322.0
 31
0.0
  0
LINE
  8
SIZE
  6
CONTINUOUS
 62
    30
 10
96.0
 20
-350.0
 30
0.0
 11
96.0
 21
-488.74606399999988
 31
0.0
  0
LINE
  8
SIZE
  6
CONTINUOUS
 62
    30
 10
-96.0
 20
-350.0
 30
0.0
 11
-96.0
 21
-488.74606399999988
 31
0.0
  0
LINE
  8
SIZE
  6
CONTINUOUS
 62
    30
 10
108.0
 20
-468.74606399999988
 30
0.0
 11
120.0
 21
-468.74606399999988
 31
0.0
  0
LINE
  8
SIZE
  6
CONTINUOUS
 62
    30
 10
-108.0
 20
-468.74606399999988
 30
0.0
 11
-380.82197917746089
 21
-468.74606399999988
 31
0.0
  0
LINE
  8
SIZE
  6
CONTINUOUS
 62
    30
 10
96.0
 20
-468.74606399999988
 30
0.0
 11
-96.0
 21
-468.74606399999988
 31
0.0
  0
CIRCLE
  8
SIZE
  6
CONTINUOUS
 62
    30
 10
96.0
 20
-468.74606399999988
 30
0.0
 40
6.0
  0
LINE
  8
SIZE
  6
CONTINUOUS
 62
    30
 10
96.0
 20
-468.74606399999988
 30
0.0
 11
108.0
 21
-468.74606399999988
 31
0.0
  0
CIRCLE
  8
SIZE
  6
CONTINUOUS
 62
    30
 10
-96.0
 20
-468.74606399999988
 30
0.0
 40
6.0
  0
LINE
  8
SIZE
  6
CONTINUOUS
 62
    30
 10
-96.0
 20
-468.74606399999988
 30
0.0
 11
-108.0
 21
-468.74606399999988
 31
0.0
  0
TEXT
  8
SIZE
  6
CONTINUOUS
 62
    30
 10
-355.90566127866072
 20
-443.74606399999988
 30
0.0
 40
64.0
  1
φ192
 41
0.9
 72
     1
 11
-247.0142327072322
 21
-443.74606399999988
 31
0.0
  0
POINT
  8
DEFPOINTS
  6
CONTINUOUS
 62
    30
 10
96.0
 20
-330.0
 30
0.0
  0
POINT
  8
DEFPOINTS
  6
CONTINUOUS
 62
    30
 10
-96.0
 20
-330.0
 30
0.0
  0
POINT
  8
DEFPOINTS
  6
CONTINUOUS
 62
    30
 10
-96.0
 20
-468.74606399999988
 30
0.0
  0
LINE
  8
DETAIL
  6
CONTINUOUS
 62
     5
 10
-96.761904999999842
 20
322.0
 30
0.0
 11
96.761904999999842
 21
322.0
 31
0.0
  0
LINE
  8
DETAIL
  6
CONTINUOUS
 62
     5
 10
-96.0
 20
330.0
 30
0.0
 11
96.0
 21
330.0
 31
0.0
  0
LINE
  8
DETAIL
  6
CONTINUOUS
 62
     5
 10
-102.67061345727809
 20
259.12473201642018
 30
0.0
 11
-96.0
 21
330.0
 31
0.0
  0
LINE
  8
DETAIL
  6
CONTINUOUS
 62
     5
 10
102.9047620000001
 20
259.5
 30
0.0
 11
96.0
 21
330.0
 31
0.0
  0
POINT
  8
DEFPOINTS
  6
CONTINUOUS
 62
    30
 10
-96.0
 20
330.0
 30
0.0
  0
LINE
  8
DETAIL
  6
CONTINUOUS
 62
     5
 10
-205.0
 20
-259.0
 30
0.0
 11
-205.0
 21
259.0
 31
0.0
  0
LINE
  8
DETAIL
  6
CONTINUOUS
 62
     5
 10
205.0
 20
-259.5
 30
0.0
 11
205.0
 21
259.5
 31
0.0
  0
LINE
  8
DETAIL
  6
CONTINUOUS
 62
     5
 10
205.0
 20
246.5
 30
0.0
 11
254.5
 21
246.5
 31
0.0
  0
LINE
  8
DETAIL
  6
CONTINUOUS
 62
     5
 10
205.0
 20
-247.0
 30
0.0
 11
254.5
 21
-246.5
 31
0.0
  0
LINE
  8
DETAIL
  6
CONTINUOUS
 62
     5
 10
-254.5
 20
247.0
 30
0.0
 11
-254.5
 21
206.0
 31
0.0
  0
LINE
  8
DETAIL
  6
CONTINUOUS
 62
     5
 10
-240.0
 20
226.09999999999999
 30
0.0
 11
-240.0
 21
206.0
 31
0.0
  0
LINE
  8
DETAIL
  6
CONTINUOUS
 62
     5
 10
-229.0
 20
226.09999999999999
 30
0.0
 11
-229.0
 21
206.0
 31
0.0
  0
LINE
  8
NOTE
  6
CONTINUOUS
 62
     4
 10
-214.5
 20
226.09999999999999
 30
0.0
 11
-254.5
 21
226.09999999999999
 31
0.0
  0
LINE
  8
NOTE
  6
CONTINUOUS
 62
     4
 10
-234.5
 20
246.5
 30
0.0
 11
-234.5
 21
206.5
 31
0.0
  0
LINE
  8
DETAIL
  6
CONTINUOUS
 62
     5
 10
-229.0
 20
206.0
 30
0.0
 11
-205.0
 21
206.0
 31
0.0
  0
LINE
  8
DETAIL
  6
CONTINUOUS
 62
     5
 10
-254.5
 20
206.0
 30
0.0
 11
-240.0
 21
206.0
 31
0.0
  0
LINE
  8
DETAIL
  6
CONTINUOUS
 62
     5
 10
-205.0
 20
247.0
 30
0.0
 11
-254.5
 21
247.0
 31
0.0
  0
CIRCLE
  8
FIX
  6
CONTINUOUS
 62
    11
 10
-234.5
 20
226.09999999999999
 30
0.0
 40
5.5
  0
ARC
  8
DETAIL
  6
CONTINUOUS
 62
     5
 10
-234.5
 20
226.09999999999999
 30
0.0
 40
5.5
 50
0.0
 51
180.0
  0
LINE
  8
DETAIL
  6
CONTINUOUS
 62
     5
 10
-254.5
 20
-247.0
 30
0.0
 11
-254.5
 21
-206.0
 31
0.0
  0
LINE
  8
DETAIL
  6
CONTINUOUS
 62
     5
 10
-240.0
 20
-226.09999999999999
 30
0.0
 11
-240.0
 21
-206.0
 31
0.0
  0
LINE
  8
DETAIL
  6
CONTINUOUS
 62
     5
 10
-229.0
 20
-226.09999999999999
 30
0.0
 11
-229.0
 21
-206.0
 31
0.0
  0
LINE
  8
NOTE
  6
CONTINUOUS
 62
     4
 10
-214.5
 20
-226.09999999999999
 30
0.0
 11
-254.5
 21
-226.09999999999999
 31
0.0
  0
LINE
  8
NOTE
  6
CONTINUOUS
 62
     4
 10
-234.5
 20
-246.5
 30
0.0
 11
-234.5
 21
-206.5
 31
0.0
  0
LINE
  8
DETAIL
  6
CONTINUOUS
 62
     5
 10
-205.0
 20
-247.0
 30
0.0
 11
-254.5
 21
-247.0
 31
0.0
  0
CIRCLE
  8
FIX
  6
CONTINUOUS
 62
    11
 10
-234.5
 20
-226.09999999999999
 30
0.0
 40
5.5
  0
ARC
  8
DETAIL
  6
CONTINUOUS
 62
     5
 10
-234.5
 20
-226.09999999999999
 30
0.0
 40
5.5
 50
180.0
 51
0.0
  0
LINE
  8
DETAIL
  6
CONTINUOUS
 62
     5
 10
-229.0
 20
-206.0
 30
0.0
 11
-205.0
 21
-206.0
 31
0.0
  0
LINE
  8
DETAIL
  6
CONTINUOUS
 62
     5
 10
-254.5
 20
-206.0
 30
0.0
 11
-240.0
 21
-206.0
 31
0.0
  0
LINE
  8
SIZE
  6
CONTINUOUS
 62
    30
 10
-205.0
 20
279.0
 30
0.0
 11
-205.0
 21
470.86072923980453
 31
0.0
  0
LINE
  8
SIZE
  6
CONTINUOUS
 62
    30
 10
205.0
 20
279.0
 30
0.0
 11
205.0
 21
470.86072923980453
 31
0.0
  0
LINE
  8
SIZE
  6
CONTINUOUS
 62
    30
 10
-193.0
 20
450.86072923980453
 30
0.0
 11
193.0
 21
450.86072923980453
 31
0.0
  0
CIRCLE
  8
SIZE
  6
CONTINUOUS
 62
    30
 10
-205.0
 20
450.86072923980453
 30
0.0
 40
6.0
  0
LINE
  8
SIZE
  6
CONTINUOUS
 62
    30
 10
-205.0
 20
450.86072923980453
 30
0.0
 11
-193.0
 21
450.86072923980453
 31
0.0
  0
CIRCLE
  8
SIZE
  6
CONTINUOUS
 62
    30
 10
205.0
 20
450.86072923980453
 30
0.0
 40
6.0
  0
LINE
  8
SIZE
  6
CONTINUOUS
 62
    30
 10
205.0
 20
450.86072923980453
 30
0.0
 11
193.0
 21
450.86072923980453
 31
0.0
  0
TEXT
  8
SIZE
  6
CONTINUOUS
 62
    30
 10
-68.186531539207067
 20
475.86072923980458
 30
0.0
 40
64.0
  1
410
 41
0.9
 72
     1
 11
0.3848970322214882
 21
475.86072923980458
 31
0.0
  0
POINT
  8
DEFPOINTS
  6
CONTINUOUS
 62
    30
 10
-205.0
 20
259.0
 30
0.0
  0
POINT
  8
DEFPOINTS
  6
CONTINUOUS
 62
    30
 10
205.0
 20
259.0
 30
0.0
  0
POINT
  8
DEFPOINTS
  6
CONTINUOUS
 62
    30
 10
205.0
 20
450.86072923980453
 30
0.0
  0
LINE
  8
DETAIL
  6
CONTINUOUS
 62
     5
 10
-255.40000000000009
 20
-174.30000126431739
 30
0.0
 11
-255.39999999042141
 21
-37.500001264317227
 31
0.0
  0
LINE
  8
DETAIL
  6
CONTINUOUS
 62
     5
 10
-253.80000000000001
 20
-174.30000126431739
 30
0.0
 11
-253.7999999904213
 21
-37.500001264317227
 31
0.0
  0
LINE
  8
DETAIL
  6
CONTINUOUS
 62
     5
 10
-253.7999999904213
 20
-37.500001264317227
 30
0.0
 11
-253.7999999904213
 21
-35.90000126431778
 31
0.0
  0
LINE
  8
DETAIL
  6
CONTINUOUS
 62
     5
 10
-253.80000000000001
 20
-174.30000126431739
 30
0.0
 11
-253.80000000000001
 21
-175.90000126431781
 31
0.0
  0
LINE
  8
DETAIL
  6
CONTINUOUS
 62
     5
 10
-250.69072825020001
 20
-167.63214647911761
 30
0.0
 11
-253.80000000000001
 21
-174.30000126431739
 31
0.0
  0
LINE
  8
DETAIL
  6
CONTINUOUS
 62
     5
 10
207.89999999042141
 20
35.200001264317962
 30
0.0
 11
204.99999999042129
 21
35.200001264317962
 31
0.0
  0
LINE
  8
DETAIL
  6
CONTINUOUS
 62
     5
 10
-204.99999999042129
 20
-35.90000126431778
 30
0.0
 11
-253.7999999904213
 21
-35.90000126431778
 31
0.0
  0
LINE
  8
DETAIL
  6
CONTINUOUS
 62
     5
 10
-255.39999999042141
 20
-37.500001264317227
 30
0.0
 11
-204.99999999042129
 21
-37.500001264317227
 31
0.0
  0
LINE
  8
DETAIL
  6
CONTINUOUS
 62
     5
 10
-247.9718048796214
 20
-45.90000126431778
 30
0.0
 11
-204.9933247217115
 21
-45.90000126431778
 31
0.0
  0
LINE
  8
DETAIL
  6
CONTINUOUS
 62
     5
 10
-205.0
 20
-165.90000126431781
 30
0.0
 11
-247.9718048892
 21
-165.90000126431781
 31
0.0
  0
LINE
  8
DETAIL
  6
CONTINUOUS
 62
     5
 10
-255.40000000000009
 20
-174.30000126431739
 30
0.0
 11
-205.0
 21
-174.30000126431739
 31
0.0
  0
LINE
  8
DETAIL
  6
CONTINUOUS
 62
     5
 10
-253.80000000000001
 20
-175.90000126431781
 30
0.0
 11
-205.0
 21
-175.90000126431781
 31
0.0
  0
LINE
  8
DETAIL
  6
CONTINUOUS
 62
     5
 10
-253.7999999904213
 20
-37.500001264317227
 30
0.0
 11
-250.6907282406213
 21
-44.167856049517887
 31
0.0
  0
ARC
  8
DETAIL
  6
CONTINUOUS
 62
     5
 10
204.89999999042141
 20
35.200001264317962
 30
0.0
 40
3.0
 50
270.0
 51
0.0
  0
ARC
  8
DETAIL
  6
CONTINUOUS
 62
     5
 10
-247.9718048796214
 20
-42.90000126431778
 30
0.0
 40
3.0
 50
205.00000000000341
 51
270.0
  0
ARC
  8
DETAIL
  6
CONTINUOUS
 62
     5
 10
-253.7999999904213
 20
-37.500001264317227
 30
0.0
 40
1.6000000000000001
 50
90.0
 51
180.0
  0
ARC
  8
DETAIL
  6
CONTINUOUS
 62
     5
 10
-253.7999999904213
 20
-37.500001264317227
 30
0.0
 40
0.8
 50
90.0
 51
180.0
  0
ARC
  8
DETAIL
  6
CONTINUOUS
 62
     5
 10
-247.9718048892
 20
-168.90000126431781
 30
0.0
 40
3.0
 50
90.0
 51
154.9999999999967
  0
ARC
  8
DETAIL
  6
CONTINUOUS
 62
     5
 10
-253.80000000000001
 20
-174.30000126431739
 30
0.0
 40
1.6000000000000001
 50
180.0
 51
270.0
  0
ARC
  8
DETAIL
  6
CONTINUOUS
 62
     5
 10
-253.80000000000001
 20
-174.30000126431739
 30
0.0
 40
0.8
 50
180.0
 51
270.0
  0
LINE
  8
NOTE
  6
CONTINUOUS
 62
     4
 10
-190.0
 20
19.999798953199839
 30
0.0
 11
-190.0
 21
-20.000201046800161
 31
0.0
  0
LINE
  8
NOTE
  6
CONTINUOUS
 62
     4
 10
-210.0
 20
-0.0002010468001572
 30
0.0
 11
-170.0
 21
-0.0002010468001572
 31
0.0
  0
CIRCLE
  8
DETAIL
  6
CONTINUOUS
 62
     5
 10
-190.0
 20
-0.0002010468001572
 30
0.0
 40
12.0
  0
LINE
  8
SIZE
  6
CONTINUOUS
 62
    30
 10
225.00000000000011
 20
259.5
 30
0.0
 11
934.06680528123366
 21
259.50000000000023
 31
0.0
  0
LINE
  8
SIZE
  6
CONTINUOUS
 62
    30
 10
225.00000000000011
 20
-259.00000000000011
 30
0.0
 11
934.06680528123366
 21
-259.0
 31
0.0
  0
LINE
  8
SIZE
  6
CONTINUOUS
 62
    30
 10
914.06680528123366
 20
247.5000000000002
 30
0.0
 11
914.06680528123366
 21
-247.0
 31
0.0
  0
CIRCLE
  8
SIZE
  6
CONTINUOUS
 62
    30
 10
914.06680528123366
 20
259.50000000000023
 30
0.0
 40
6.0
  0
LINE
  8
SIZE
  6
CONTINUOUS
 62
    30
 10
914.06680528123366
 20
259.50000000000023
 30
0.0
 11
914.06680528123366
 21
247.5000000000002
 31
0.0
  0
CIRCLE
  8
SIZE
  6
CONTINUOUS
 62
    30
 10
914.06680528123366
 20
-259.0
 30
0.0
 40
6.0
  0
LINE
  8
SIZE
  6
CONTINUOUS
 62
    30
 10
914.06680528123366
 20
-259.0
 30
0.0
 11
914.06680528123366
 21
-247.0
 31
0.0
  0
TEXT
  8
SIZE
  6
CONTINUOUS
 62
    30
 10
889.06680528123343
 20
-69.200000000000045
 30
0.0
 40
64.0
  1
519
 50
90.0
 41
0.9
 72
     1
 11
889.06680528123343
 21
-2.0000000000000568
 31
0.0
  0
POINT
  8
DEFPOINTS
  6
CONTINUOUS
 62
    30
 10
205.00000000000011
 20
259.5
 30
0.0
  0
POINT
  8
DEFPOINTS
  6
CONTINUOUS
 62
    30
 10
205.00000000000011
 20
-259.00000000000011
 30
0.0
  0
POINT
  8
DEFPOINTS
  6
CONTINUOUS
 62
    30
 10
914.06680528123366
 20
-259.0
 30
0.0
  0
LINE
  8
SIZE
  6
CONTINUOUS
 62
    30
 10
274.5
 20
246.50000000000011
 30
0.0
 11
805.83108894986572
 21
246.5000000000002
 31
0.0
  0
LINE
  8
SIZE
  6
CONTINUOUS
 62
    30
 10
274.5
 20
-246.50000000000011
 30
0.0
 11
805.83108894986572
 21
-246.5
 31
0.0
  0
LINE
  8
SIZE
  6
CONTINUOUS
 62
    30
 10
785.83108894986572
 20
234.5000000000002
 30
0.0
 11
785.83108894986572
 21
-234.5
 31
0.0
  0
CIRCLE
  8
SIZE
  6
CONTINUOUS
 62
    30
 10
785.83108894986572
 20
246.5000000000002
 30
0.0
 40
6.0
  0
LINE
  8
SIZE
  6
CONTINUOUS
 62
    30
 10
785.83108894986572
 20
246.5000000000002
 30
0.0
 11
785.83108894986572
 21
234.5000000000002
 31
0.0
  0
CIRCLE
  8
SIZE
  6
CONTINUOUS
 62
    30
 10
785.83108894986572
 20
-246.5
 30
0.0
 40
6.0
  0
LINE
  8
SIZE
  6
CONTINUOUS
 62
    30
 10
785.83108894986572
 20
-246.5
 30
0.0
 11
785.83108894986572
 21
-234.5
 31
0.0
  0
TEXT
  8
SIZE
  6
CONTINUOUS
 62
    30
 10
760.83108894986526
 20
-73.557142857142907
 30
0.0
 40
64.0
  1
493
 50
90.0
 41
0.9
 72
     1
 11
760.83108894986526
 21
0.4999999999999432
 31
0.0
  0
POINT
  8
DEFPOINTS
  6
CONTINUOUS
 62
    30
 10
254.50000000000011
 20
246.50000000000011
 30
0.0
  0
POINT
  8
DEFPOINTS
  6
CONTINUOUS
 62
    30
 10
254.50000000000011
 20
-246.50000000000011
 30
0.0
  0
POINT
  8
DEFPOINTS
  6
CONTINUOUS
 62
    30
 10
785.83108894986572
 20
-246.5
 30
0.0
  0
LINE
  8
SIZE
  6
CONTINUOUS
 62
    30
 10
274.5
 20
226.40000000000009
 30
0.0
 11
679.00455281156621
 21
226.4000000000002
 31
0.0
  0
LINE
  8
SIZE
  6
CONTINUOUS
 62
    30
 10
274.5
 20
-225.60000000000011
 30
0.0
 11
679.00455281156621
 21
-225.60000000000011
 31
0.0
  0
LINE
  8
SIZE
  6
CONTINUOUS
 62
    30
 10
659.00455281156621
 20
214.4000000000002
 30
0.0
 11
659.00455281156621
 21
-213.60000000000011
 31
0.0
  0
CIRCLE
  8
SIZE
  6
CONTINUOUS
 62
    30
 10
659.00455281156621
 20
226.4000000000002
 30
0.0
 40
6.0
  0
LINE
  8
SIZE
  6
CONTINUOUS
 62
    30
 10
659.00455281156621
 20
226.4000000000002
 30
0.0
 11
659.00455281156621
 21
214.4000000000002
 31
0.0
  0
CIRCLE
  8
SIZE
  6
CONTINUOUS
 62
    30
 10
659.00455281156621
 20
-225.60000000000011
 30
0.0
 40
6.0
  0
LINE
  8
SIZE
  6
CONTINUOUS
 62
    30
 10
659.00455281156621
 20
-225.60000000000011
 30
0.0
 11
659.00455281156621
 21
-213.60000000000011
 31
0.0
  0
TEXT
  8
SIZE
  6
CONTINUOUS
 62
    30
 10
634.00455281156621
 20
-73.557142857142836
 30
0.0
 40
64.0
  1
452
 50
90.0
 41
0.9
 72
     1
 11
634.00455281156621
 21
0.5
 31
0.0
  0
POINT
  8
DEFPOINTS
  6
CONTINUOUS
 62
    30
 10
254.50000000000011
 20
226.40000000000009
 30
0.0
  0
POINT
  8
DEFPOINTS
  6
CONTINUOUS
 62
    30
 10
254.50000000000011
 20
-225.60000000000011
 30
0.0
  0
POINT
  8
DEFPOINTS
  6
CONTINUOUS
 62
    30
 10
659.00455281156621
 20
-225.60000000000011
 30
0.0
  0
LINE
  8
SIZE
  6
CONTINUOUS
 62
    30
 10
229.0
 20
-245.09999999999999
 30
0.0
 11
229.0
 21
-408.68188182704171
 31
0.0
  0
LINE
  8
SIZE
  6
CONTINUOUS
 62
    30
 10
240.0
 20
-245.09999999999999
 30
0.0
 11
240.0
 21
-408.68188182704171
 31
0.0
  0
LINE
  8
SIZE
  6
CONTINUOUS
 62
    30
 10
217.0
 20
-388.68188182704171
 30
0.0
 11
205.0
 21
-388.68188182704171
 31
0.0
  0
LINE
  8
SIZE
  6
CONTINUOUS
 62
    30
 10
252.0
 20
-388.68188182704171
 30
0.0
 11
371.60000000000002
 21
-388.68188182704171
 31
0.0
  0
LINE
  8
SIZE
  6
CONTINUOUS
 62
    30
 10
229.0
 20
-388.68188182704171
 30
0.0
 11
240.0
 21
-388.68188182704171
 31
0.0
  0
CIRCLE
  8
SIZE
  6
CONTINUOUS
 62
    30
 10
229.0
 20
-388.68188182704171
 30
0.0
 40
6.0
  0
LINE
  8
SIZE
  6
CONTINUOUS
 62
    30
 10
229.0
 20
-388.68188182704171
 30
0.0
 11
217.0
 21
-388.68188182704171
 31
0.0
  0
CIRCLE
  8
SIZE
  6
CONTINUOUS
 62
    30
 10
240.0
 20
-388.68188182704171
 30
0.0
 40
6.0
  0
LINE
  8
SIZE
  6
CONTINUOUS
 62
    30
 10
240.0
 20
-388.68188182704171
 30
0.0
 11
252.0
 21
-388.68188182704171
 31
0.0
  0
TEXT
  8
SIZE
  6
CONTINUOUS
 62
    30
 10
288.99999999999989
 20
-363.68188182704171
 30
0.0
 40
64.0
  1
11
 41
0.9
 72
     1
 11
317.80000000000001
 21
-363.68188182704171
 31
0.0
  0
POINT
  8
DEFPOINTS
  6
CONTINUOUS
 62
    30
 10
229.0
 20
-225.09999999999999
 30
0.0
  0
POINT
  8
DEFPOINTS
  6
CONTINUOUS
 62
    30
 10
240.0
 20
-225.09999999999999
 30
0.0
  0
POINT
  8
DEFPOINTS
  6
CONTINUOUS
 62
    30
 10
240.0
 20
-388.68188182704171
 30
0.0
  0
LINE
  8
SIZE
  6
CONTINUOUS
 62
    30
 10
254.5
 20
-266.0
 30
0.0
 11
254.5
 21
-517.1443688108684
 31
0.0
  0
LINE
  8
SIZE
  6
CONTINUOUS
 62
    30
 10
234.5
 20
-265.5
 30
0.0
 11
234.5
 21
-517.1443688108684
 31
0.0
  0
LINE
  8
SIZE
  6
CONTINUOUS
 62
    30
 10
222.5
 20
-497.1443688108684
 30
0.0
 11
210.5
 21
-497.1443688108684
 31
0.0
  0
LINE
  8
SIZE
  6
CONTINUOUS
 62
    30
 10
266.5
 20
-497.1443688108684
 30
0.0
 11
421.75714285714281
 21
-497.1443688108684
 31
0.0
  0
LINE
  8
SIZE
  6
CONTINUOUS
 62
    30
 10
234.5
 20
-497.1443688108684
 30
0.0
 11
254.5
 21
-497.1443688108684
 31
0.0
  0
CIRCLE
  8
SIZE
  6
CONTINUOUS
 62
    30
 10
234.5
 20
-497.1443688108684
 30
0.0
 40
6.0
  0
LINE
  8
SIZE
  6
CONTINUOUS
 62
    30
 10
234.5
 20
-497.1443688108684
 30
0.0
 11
222.5
 21
-497.1443688108684
 31
0.0
  0
CIRCLE
  8
SIZE
  6
CONTINUOUS
 62
    30
 10
254.5
 20
-497.1443688108684
 30
0.0
 40
6.0
  0
LINE
  8
SIZE
  6
CONTINUOUS
 62
    30
 10
254.5
 20
-497.1443688108684
 30
0.0
 11
266.5
 21
-497.1443688108684
 31
0.0
  0
TEXT
  8
SIZE
  6
CONTINUOUS
 62
    30
 10
303.49999999999989
 20
-472.1443688108684
 30
0.0
 40
64.0
  1
20
 41
0.9
 72
     1
 11
350.12857142857138
 21
-472.1443688108684
 31
0.0
  0
POINT
  8
DEFPOINTS
  6
CONTINUOUS
 62
    30
 10
254.5
 20
-246.0
 30
0.0
  0
POINT
  8
DEFPOINTS
  6
CONTINUOUS
 62
    30
 10
234.5
 20
-245.5
 30
0.0
  0
POINT
  8
DEFPOINTS
  6
CONTINUOUS
 62
    30
 10
234.5
 20
-497.1443688108684
 30
0.0
  0
LINE
  8
SIZE
  6
CONTINUOUS
 62
    30
 10
274.5
 20
-205.50000000000011
 30
0.0
 11
422.53311500750561
 21
-205.50000000000011
 31
0.0
  0
LINE
  8
SIZE
  6
CONTINUOUS
 62
    30
 10
274.5
 20
-225.55734356691369
 30
0.0
 11
422.53311500750561
 21
-225.5573435669136
 31
0.0
  0
LINE
  8
SIZE
  6
CONTINUOUS
 62
    30
 10
402.53311500750561
 20
-237.5573435669136
 30
0.0
 11
402.53311500750561
 21
-249.5573435669136
 31
0.0
  0
LINE
  8
SIZE
  6
CONTINUOUS
 62
    30
 10
402.53311500750561
 20
-193.50000000000011
 30
0.0
 11
402.53311500750527
 21
-38.24285714285719
 31
0.0
  0
LINE
  8
SIZE
  6
CONTINUOUS
 62
    30
 10
402.53311500750561
 20
-225.5573435669136
 30
0.0
 11
402.53311500750561
 21
-205.50000000000011
 31
0.0
  0
CIRCLE
  8
SIZE
  6
CONTINUOUS
 62
    30
 10
402.53311500750561
 20
-225.5573435669136
 30
0.0
 40
6.0
  0
LINE
  8
SIZE
  6
CONTINUOUS
 62
    30
 10
402.53311500750561
 20
-225.5573435669136
 30
0.0
 11
402.53311500750561
 21
-237.5573435669136
 31
0.0
  0
CIRCLE
  8
SIZE
  6
CONTINUOUS
 62
    30
 10
402.53311500750561
 20
-205.50000000000011
 30
0.0
 40
6.0
  0
LINE
  8
SIZE
  6
CONTINUOUS
 62
    30
 10
402.53311500750561
 20
-205.50000000000011
 30
0.0
 11
402.53311500750561
 21
-193.50000000000011
 31
0.0
  0
TEXT
  8
SIZE
  6
CONTINUOUS
 62
    30
 10
377.53311500750527
 20
-156.50000000000011
 30
0.0
 40
64.0
  1
20
 50
90.0
 41
0.9
 72
     1
 11
377.53311500750527
 21
-109.87142857142869
 31
0.0
  0
POINT
  8
DEFPOINTS
  6
CONTINUOUS
 62
    30
 10
254.50000000000011
 20
-205.50000000000011
 30
0.0
  0
POINT
  8
DEFPOINTS
  6
CONTINUOUS
 62
    30
 10
254.50000000000011
 20
-225.55734356691369
 30
0.0
  0
POINT
  8
DEFPOINTS
  6
CONTINUOUS
 62
    30
 10
402.53311500750561
 20
-225.5573435669136
 30
0.0
  0
LINE
  8
SIZE
  6
CONTINUOUS
 62
    30
 10
274.5
 20
-205.50000000000011
 30
0.0
 11
555.50557092459371
 21
-205.50000000000011
 31
0.0
  0
LINE
  8
SIZE
  6
CONTINUOUS
 62
    30
 10
274.5
 20
-246.50000000000011
 30
0.0
 11
555.50557092459371
 21
-246.50000000000011
 31
0.0
  0
LINE
  8
SIZE
  6
CONTINUOUS
 62
    30
 10
535.50557092459371
 20
-258.50000000000011
 30
0.0
 11
535.50557092459371
 21
-270.50000000000011
 31
0.0
  0
LINE
  8
SIZE
  6
CONTINUOUS
 62
    30
 10
535.50557092459371
 20
-193.50000000000011
 30
0.0
 11
535.50557092459371
 21
-62.928571428571438
 31
0.0
  0
LINE
  8
SIZE
  6
CONTINUOUS
 62
    30
 10
535.50557092459371
 20
-246.50000000000011
 30
0.0
 11
535.50557092459371
 21
-205.50000000000011
 31
0.0
  0
CIRCLE
  8
SIZE
  6
CONTINUOUS
 62
    30
 10
535.50557092459371
 20
-246.50000000000011
 30
0.0
 40
6.0
  0
LINE
  8
SIZE
  6
CONTINUOUS
 62
    30
 10
535.50557092459371
 20
-246.50000000000011
 30
0.0
 11
535.50557092459371
 21
-258.50000000000011
 31
0.0
  0
CIRCLE
  8
SIZE
  6
CONTINUOUS
 62
    30
 10
535.50557092459371
 20
-205.50000000000011
 30
0.0
 40
6.0
  0
LINE
  8
SIZE
  6
CONTINUOUS
 62
    30
 10
535.50557092459371
 20
-205.50000000000011
 30
0.0
 11
535.50557092459371
 21
-193.50000000000011
 31
0.0
  0
TEXT
  8
SIZE
  6
CONTINUOUS
 62
    30
 10
510.50557092459348
 20
-156.50000000000011
 30
0.0
 40
64.0
  1
41
 50
90.0
 41
0.9
 72
     1
 11
510.50557092459348
 21
-122.21428571428589
 31
0.0
  0
POINT
  8
DEFPOINTS
  6
CONTINUOUS
 62
    30
 10
254.50000000000011
 20
-205.50000000000011
 30
0.0
  0
POINT
  8
DEFPOINTS
  6
CONTINUOUS
 62
    30
 10
254.50000000000011
 20
-246.50000000000011
 30
0.0
  0
POINT
  8
DEFPOINTS
  6
CONTINUOUS
 62
    30
 10
535.50557092459371
 20
-246.50000000000011
 30
0.0
  0
LINE
  8
SIZE
  6
CONTINUOUS
 62
    30
 10
-234.5
 20
266.5
 30
0.0
 11
-234.5
 21
577.96160200044233
 31
0.0
  0
LINE
  8
SIZE
  6
CONTINUOUS
 62
    30
 10
234.5
 20
266.0
 30
0.0
 11
234.5
 21
577.96160200044233
 31
0.0
  0
LINE
  8
SIZE
  6
CONTINUOUS
 62
    30
 10
-222.5
 20
557.96160200044233
 30
0.0
 11
222.5
 21
557.96160200044233
 31
0.0
  0
CIRCLE
  8
SIZE
  6
CONTINUOUS
 62
    30
 10
-234.5
 20
557.96160200044233
 30
0.0
 40
6.0
  0
LINE
  8
SIZE
  6
CONTINUOUS
 62
    30
 10
-234.5
 20
557.96160200044233
 30
0.0
 11
-222.5
 21
557.96160200044233
 31
0.0
  0
CIRCLE
  8
SIZE
  6
CONTINUOUS
 62
    30
 10
234.5
 20
557.96160200044233
 30
0.0
 40
6.0
  0
LINE
  8
SIZE
  6
CONTINUOUS
 62
    30
 10
234.5
 20
557.96160200044233
 30
0.0
 11
222.5
 21
557.96160200044233
 31
0.0
  0
TEXT
  8
SIZE
  6
CONTINUOUS
 62
    30
 10
-72.685714285714255
 20
582.96160200044233
 30
0.0
 40
64.0
  1
469
 41
0.9
 72
     1
 11
0.0000000000000284
 21
582.96160200044233
 31
0.0
  0
POINT
  8
DEFPOINTS
  6
CONTINUOUS
 62
    30
 10
-234.5
 20
246.5
 30
0.0
  0
POINT
  8
DEFPOINTS
  6
CONTINUOUS
 62
    30
 10
234.5
 20
246.0
 30
0.0
  0
POINT
  8
DEFPOINTS
  6
CONTINUOUS
 62
    30
 10
234.5
 20
557.96160200044233
 30
0.0
  0
LINE
  8
SIZE
  6
CONTINUOUS
 62
    30
 10
-254.5
 20
267.0
 30
0.0
 11
-254.5
 21
705.34925663777403
 31
0.0
  0
LINE
  8
SIZE
  6
CONTINUOUS
 62
    30
 10
254.5
 20
266.5
 30
0.0
 11
254.5
 21
705.34925663777403
 31
0.0
  0
LINE
  8
SIZE
  6
CONTINUOUS
 62
    30
 10
-242.5
 20
685.34925663777392
 30
0.0
 11
242.5
 21
685.34925663777392
 31
0.0
  0
CIRCLE
  8
SIZE
  6
CONTINUOUS
 62
    30
 10
-254.5
 20
685.34925663777392
 30
0.0
 40
6.0
  0
LINE
  8
SIZE
  6
CONTINUOUS
 62
    30
 10
-254.5
 20
685.34925663777392
 30
0.0
 11
-242.5
 21
685.34925663777392
 31
0.0
  0
CIRCLE
  8
SIZE
  6
CONTINUOUS
 62
    30
 10
254.5
 20
685.34925663777392
 30
0.0
 40
6.0
  0
LINE
  8
SIZE
  6
CONTINUOUS
 62
    30
 10
254.5
 20
685.34925663777392
 30
0.0
 11
242.5
 21
685.34925663777392
 31
0.0
  0
TEXT
  8
SIZE
  6
CONTINUOUS
 62
    30
 10
-72.685714285714255
 20
710.34925663777403
 30
0.0
 40
64.0
  1
509
 41
0.9
 72
     1
 11
0.0000000000000284
 21
710.34925663777403
 31
0.0
  0
POINT
  8
DEFPOINTS
  6
CONTINUOUS
 62
    30
 10
-254.5
 20
247.0
 30
0.0
  0
POINT
  8
DEFPOINTS
  6
CONTINUOUS
 62
    30
 10
254.5
 20
246.5
 30
0.0
  0
POINT
  8
DEFPOINTS
  6
CONTINUOUS
 62
    30
 10
254.5
 20
685.34925663777392
 30
0.0
  0
TEXT
  8
NOTE
  6
CONTINUOUS
 62
     4
 10
325.60430120550882
 20
321.0423612540651
 30
0.0
 40
64.0
  1
AH
 41
0.9
  0
LINE
  8
NOTE
  6
CONTINUOUS
 62
     4
 10
325.51430120550879
 20
308.24236125406497
 30
0.0
 11
421.60430120550882
 21
308.24236125406497
 31
0.0
  0
LINE
  8
NOTE
  6
CONTINUOUS
 62
     4
 10
257.54543436715443
 20
238.18054355247159
 30
0.0
 11
234.5
 21
226.40000000000001
 31
0.0
  0
LINE
  8
NOTE
  6
CONTINUOUS
 62
     4
 10
234.5
 20
226.40000000000001
 30
0.0
 11
248.5676270886477
 21
248.12498836955379
 31
0.0
  0
LINE
  8
NOTE
  6
CONTINUOUS
 62
     4
 10
234.5
 20
226.40000000000001
 30
0.0
 11
271.61306145580221
 21
259.90553192202538
 31
0.0
  0
LINE
  8
NOTE
  6
CONTINUOUS
 62
     4
 10
271.61306145580193
 20
259.90553192202538
 30
0.0
 11
325.15430120550877
 21
308.24236125406497
 31
0.0
  0
LINE
  8
NOTE
  6
CONTINUOUS
 62
     4
 10
325.15430120550877
 20
308.24236125406497
 30
0.0
 11
325.51430120550879
 21
308.24236125406497
 31
0.0
  0
TEXT
  8
NOTE
  6
CONTINUOUS
 62
     4
 10
-776.03922603590604
 20
-358.40181251601462
 30
0.0
 40
64.0
  1
D φ21.7
 41
0.9
  0
LINE
  8
NOTE
  6
CONTINUOUS
 62
     4
 10
-450.09779746447771
 20
-371.20181251601463
 30
0.0
 11
-787.55922603590625
 21
-371.20181251601463
 31
0.0
  0
LINE
  8
NOTE
  6
CONTINUOUS
 62
     4
 10
-198.8013142960892
 20
-24.32321691762445
 30
0.0
 11
-189.95516426680021
 21
0.0
 31
0.0
  0
LINE
  8
NOTE
  6
CONTINUOUS
 62
     4
 10
-189.95516426680021
 20
0.0
 30
0.0
 11
-209.77778845436961
 21
-16.64141886621724
 31
0.0
  0
LINE
  8
NOTE
  6
CONTINUOUS
 62
     4
 10
-189.95516426680021
 20
0.0
 30
0.0
 11
-449.73779746447758
 21
-371.20181251601463
 31
0.0
  0
LINE
  8
NOTE
  6
CONTINUOUS
 62
     4
 10
-449.73779746447758
 20
-371.20181251601463
 30
0.0
 11
-450.09779746447771
 21
-371.20181251601463
 31
0.0
  0
LINE
  8
OUTLINE
  6
CONTINUOUS
 62
     3
 10
-102.6352905924405
 20
259.5000374553199
 30
0.0
 11
-96.0
 21
330.0
 31
0.0
  0
LINE
  8
OUTLINE
  6
CONTINUOUS
 62
     3
 10
-96.0
 20
330.0
 30
0.0
 11
96.0
 21
330.0
 31
0.0
  0
LINE
  8
OUTLINE
  6
CONTINUOUS
 62
     3
 10
96.0
 20
330.0
 30
0.0
 11
102.68240175468181
 21
258.99948135650698
 31
0.0
  0
LINE
  8
OUTLINE
  6
CONTINUOUS
 62
     3
 10
102.68240175468181
 20
258.99948135650698
 30
0.0
 11
205.496818328666
 21
259.23929053675943
 31
0.0
  0
LINE
  8
OUTLINE
  6
CONTINUOUS
 62
     3
 10
205.496818328666
 20
259.23929053675943
 30
0.0
 11
205.496818328666
 21
247.12201078710379
 31
0.0
  0
LINE
  8
OUTLINE
  6
CONTINUOUS
 62
     3
 10
205.496818328666
 20
247.12201078710379
 30
0.0
 11
254.996818328666
 21
247.2392905367594
 31
0.0
  0
LINE
  8
OUTLINE
  6
CONTINUOUS
 62
     3
 10
254.996818328666
 20
247.2392905367594
 30
0.0
 11
254.996818328666
 21
206.2392905367594
 31
0.0
  0
LINE
  8
OUTLINE
  6
CONTINUOUS
 62
     3
 10
254.996818328666
 20
206.2392905367594
 30
0.0
 11
240.496818328666
 21
206.2392905367594
 31
0.0
  0
LINE
  8
OUTLINE
  6
CONTINUOUS
 62
     3
 10
240.496818328666
 20
206.2392905367594
 30
0.0
 11
240.496818328666
 21
226.7392905367594
 31
0.0
  0
ARC
  8
OUTLINE
  6
CONTINUOUS
 62
     3
 10
234.996818328666
 20
226.7392905367594
 30
0.0
 40
5.5
 50
0.0
 51
180.0
  0
LINE
  8
OUTLINE
  6
CONTINUOUS
 62
     3
 10
229.496818328666
 20
226.7392905367594
 30
0.0
 11
229.496818328666
 21
206.2392905367594
 31
0.0
  0
LINE
  8
OUTLINE
  6
CONTINUOUS
 62
     3
 10
229.496818328666
 20
206.2392905367594
 30
0.0
 11
205.496818328666
 21
206.2392905367594
 31
0.0
  0
LINE
  8
OUTLINE
  6
CONTINUOUS
 62
     3
 10
205.496818328666
 20
206.2392905367594
 30
0.0
 11
205.4968183286658
 21
-205.7607094632406
 31
0.0
  0
LINE
  8
OUTLINE
  6
CONTINUOUS
 62
     3
 10
205.4968183286658
 20
-205.7607094632406
 30
0.0
 11
229.4968183286658
 21
-205.7607094632406
 31
0.0
  0
LINE
  8
OUTLINE
  6
CONTINUOUS
 62
     3
 10
229.4968183286658
 20
-205.7607094632406
 30
0.0
 11
229.4968183286658
 21
-226.2607094632406
 31
0.0
  0
ARC
  8
OUTLINE
  6
CONTINUOUS
 62
     3
 10
234.9968183286658
 20
-226.2607094632406
 30
0.0
 40
5.5
 50
180.0
 51
0.0
  0
LINE
  8
OUTLINE
  6
CONTINUOUS
 62
     3
 10
240.4968183286658
 20
-226.2607094632406
 30
0.0
 11
240.4968183286658
 21
-205.7607094632406
 31
0.0
  0
LINE
  8
OUTLINE
  6
CONTINUOUS
 62
     3
 10
240.4968183286658
 20
-205.7607094632406
 30
0.0
 11
254.9968183286658
 21
-205.7607094632406
 31
0.0
  0
LINE
  8
OUTLINE
  6
CONTINUOUS
 62
     3
 10
254.9968183286658
 20
-205.7607094632406
 30
0.0
 11
254.9968183286658
 21
-246.7607094632406
 31
0.0
  0
LINE
  8
OUTLINE
  6
CONTINUOUS
 62
     3
 10
254.9968183286658
 20
-246.7607094632406
 30
0.0
 11
205.49681832866571
 21
-246.8779892128961
 31
0.0
  0
LINE
  8
OUTLINE
  6
CONTINUOUS
 62
     3
 10
205.49681832866571
 20
-246.8779892128961
 30
0.0
 11
205.4968183286658
 21
-258.76070946324052
 31
0.0
  0
LINE
  8
OUTLINE
  6
CONTINUOUS
 62
     3
 10
205.4968183286658
 20
-258.76070946324052
 30
0.0
 11
102.68230410623509
 21
-259.00051887125289
 31
0.0
  0
LINE
  8
OUTLINE
  6
CONTINUOUS
 62
     3
 10
102.68230410623509
 20
-259.00051887125289
 30
0.0
 11
96.0
 21
-330.0
 31
0.0
  0
LINE
  8
OUTLINE
  6
CONTINUOUS
 62
     3
 10
96.0
 20
-330.0
 30
0.0
 11
-96.0
 21
-329.99999999999989
 31
0.0
  0
LINE
  8
OUTLINE
  6
CONTINUOUS
 62
     3
 10
-96.0
 20
-329.99999999999989
 30
0.0
 11
-102.6352976427614
 21
-259.49996254566008
 31
0.0
  0
LINE
  8
OUTLINE
  6
CONTINUOUS
 62
     3
 10
-102.6352976427614
 20
-259.49996254566008
 30
0.0
 11
-204.49999513632571
 21
-259.51412128275251
 31
0.0
  0
LINE
  8
OUTLINE
  6
CONTINUOUS
 62
     3
 10
-204.49999513632571
 20
-259.51412128275251
 30
0.0
 11
-204.49999513632571
 21
-246.50832042362831
 31
0.0
  0
LINE
  8
OUTLINE
  6
CONTINUOUS
 62
     3
 10
-204.49999513632571
 20
-246.50832042362831
 30
0.0
 11
-253.99999513632571
 21
-246.5141212827526
 31
0.0
  0
LINE
  8
OUTLINE
  6
CONTINUOUS
 62
     3
 10
-253.99999513632571
 20
-246.5141212827526
 30
0.0
 11
-253.99999513632571
 21
-206.0141212827526
 31
0.0
  0
LINE
  8
OUTLINE
  6
CONTINUOUS
 62
     3
 10
-253.99999513632571
 20
-206.0141212827526
 30
0.0
 11
-239.49999513632571
 21
-206.01412128275251
 31
0.0
  0
LINE
  8
OUTLINE
  6
CONTINUOUS
 62
     3
 10
-239.49999513632571
 20
-206.01412128275251
 30
0.0
 11
-239.49999513632571
 21
-226.0141212827526
 31
0.0
  0
ARC
  8
OUTLINE
  6
CONTINUOUS
 62
     3
 10
-233.99999513632571
 20
-226.0141212827526
 30
0.0
 40
5.5
 50
180.0
 51
0.0
  0
LINE
  8
OUTLINE
  6
CONTINUOUS
 62
     3
 10
-228.49999513632571
 20
-226.0141212827526
 30
0.0
 11
-228.49999513632571
 21
-206.0141212827526
 31
0.0
  0
LINE
  8
OUTLINE
  6
CONTINUOUS
 62
     3
 10
-228.49999513632571
 20
-206.0141212827526
 30
0.0
 11
-204.4999937031121
 21
-206.0141212827526
 31
0.0
  0
LINE
  8
OUTLINE
  6
CONTINUOUS
 62
     3
 10
-204.4999937031121
 20
-206.0141212827526
 30
0.0
 11
-204.4999937031121
 21
-175.91412254707029
 31
0.0
  0
LINE
  8
OUTLINE
  6
CONTINUOUS
 62
     3
 10
-204.4999937031121
 20
-175.91412254707029
 30
0.0
 11
-253.29999513632561
 21
-175.91412254707021
 31
0.0
  0
ARC
  8
OUTLINE
  6
CONTINUOUS
 62
     3
 10
-253.29999513632561
 20
-174.31412254707033
 30
0.0
 40
1.5999999999998908
 50
180.0
 51
270.0
  0
LINE
  8
OUTLINE
  6
CONTINUOUS
 62
     3
 10
-254.89999513632549
 20
-174.31412254707021
 30
0.0
 11
-254.89999513632529
 21
-37.014122547069803
 31
0.0
  0
ARC
  8
OUTLINE
  6
CONTINUOUS
 62
     3
 10
-253.29999513632535
 20
-37.014122547069718
 30
0.0
 40
1.5999999999999401
 50
90.0
 51
180.0
  0
LINE
  8
OUTLINE
  6
CONTINUOUS
 62
     3
 10
-253.29999513632541
 20
-35.41412254706978
 30
0.0
 11
-253.29999513632541
 21
-37.01412254706986
 31
0.0
  0
LINE
  8
OUTLINE
  6
CONTINUOUS
 62
     3
 10
-253.29999513632541
 20
-37.01412254706986
 30
0.0
 11
-195.99999513632571
 21
-37.014122547069803
 31
0.0
  0
LINE
  8
OUTLINE
  6
CONTINUOUS
 62
     3
 10
-195.99999513632571
 20
-37.014122547069803
 30
0.0
 11
-195.99999513632571
 21
-31.714122547070591
 31
0.0
  0
LINE
  8
OUTLINE
  6
CONTINUOUS
 62
     3
 10
-195.99999513632571
 20
-31.714122547070591
 30
0.0
 11
-204.49999513632571
 21
-31.714122547070591
 31
0.0
  0
LINE
  8
OUTLINE
  6
CONTINUOUS
 62
     3
 10
-204.49999513632571
 20
-31.714122547070591
 30
0.0
 11
-204.49999513632571
 21
205.9858787172474
 31
0.0
  0
LINE
  8
OUTLINE
  6
CONTINUOUS
 62
     3
 10
-204.49999513632571
 20
205.9858787172474
 30
0.0
 11
-228.49999513632571
 21
205.9858787172474
 31
0.0
  0
LINE
  8
OUTLINE
  6
CONTINUOUS
 62
     3
 10
-228.49999513632571
 20
205.9858787172474
 30
0.0
 11
-228.49999513632571
 21
225.9858787172474
 31
0.0
  0
ARC
  8
OUTLINE
  6
CONTINUOUS
 62
     3
 10
-233.99999513632571
 20
225.9858787172474
 30
0.0
 40
5.5
 50
0.0
 51
180.0
  0
LINE
  8
OUTLINE
  6
CONTINUOUS
 62
     3
 10
-239.49999513632571
 20
225.9858787172474
 30
0.0
 11
-239.49999513632571
 21
205.9858787172474
 31
0.0
  0
LINE
  8
OUTLINE
  6
CONTINUOUS
 62
     3
 10
-239.49999513632571
 20
205.9858787172474
 30
0.0
 11
-253.99999513632571
 21
205.9858787172474
 31
0.0
  0
LINE
  8
OUTLINE
  6
CONTINUOUS
 62
     3
 10
-253.99999513632571
 20
205.9858787172474
 30
0.0
 11
-253.99999513632571
 21
246.4858787172474
 31
0.0
  0
LINE
  8
OUTLINE
  6
CONTINUOUS
 62
     3
 10
-253.99999513632571
 20
246.4858787172474
 30
0.0
 11
-204.49999513632571
 21
246.49167957637169
 31
0.0
  0
LINE
  8
OUTLINE
  6
CONTINUOUS
 62
     3
 10
-204.49999513632571
 20
246.49167957637169
 30
0.0
 11
-204.49999513632571
 21
259.48587871724737
 31
0.0
  0
LINE
  8
OUTLINE
  6
CONTINUOUS
 62
     3
 10
-204.49999513632571
 20
259.48587871724737
 30
0.0
 11
-102.6352905924405
 21
259.5000374553199
 31
0.0
  0
ENDSEC
  0
EOF
